Oops, an error
Loading. Please wait.

Blood Mountain Tab

7,359 views 40 this week
no commentswrite comment
1 2 3 4 5
accurate
x 4
add to favorites launch autoscroll
font size
0
reset
Autoscroll
+/-
esc
set tempo
stop
Contributor
Difficulty
intermediate
WARNING: You are trying to view
                                    content from Ultimate-Guitar.com
                                    in an unauthorized application,
                                    which is prohibited.

                                    Please use an official Ultimate
                                    Guitar Tabs application for iPhone,
                                    iPad or Android to access legitimate
                                    chords, guitar, bass, and drum tabs
                                    from Ultimate-Guitar.com database.

                                    Type "ultimate guitar tabs" in Apple
                                    App Store's or Android Market's
                                    search to find the application.
Blood Mountain

Email: mynameisnatias@yahoo.com

Disclaimer:

These tabs are not my work. I got the best tabs for each song on the album and 
compiled then into one, for your convenience.

Song: The Wolf Is Loose
Band: Mastodon
Album: Blood Mountain
Tuning: D Standard (DGCFAD)
Contact: robbington@gmail.com

Note: Repetitions not noted

 Intro/Verse
|---------------------------------------------|
|---------------------------------------------|
|----9-5555----9-5555-----12-8888----12-8888--|
|--2-9-5555--2-9-5555---2-12-8888--2-12-8888--|
|--2-7-3333--2-7-3333---2-10-6666--2-10-6666--|
|--0---------0----------0----------0----------|

 Pre Chorus
|-------------------------------------------|
|-------------------------------------------|
|--11-12-11---11-12-11---11-9-12---11-9-12--|
|--XX-XX-XX---XX-XX-XX---XX-X-XX---XX-X-XX--|
|---9-10--9----9-10--9----9-7-10----9-7-10--|
|-------------------------------------------|

|-----------------------------------------------------|
|-----------------------------------------------------|
|--11-12-11---11-12-11--11-9-14-14-14-14-14-14-14-14--|
|--11-12-11---11-12-11--XX-X-XX-XX-XX-XX-XX-XX-XX-XX--|
|---9-10--9----9-10--9---9-7-12-12-12-12-12-12-12-12--|
|-----------------------------------------------------|

  Chorus
|----------------------------------------------------|
|----------------------------------------------------|
|--16-12-11---14-11-9--11-9-11-12-12-12-12-12-12-12--|
|--XX-XX-XX---14-11-9--11-7-11-XX-XX-XX-XX-XX-XX-XX--|
|--14-10--9---12--9-7---9-7--9-10-10-10-10-10-10-10--|
|----------------------------------------------------|

 Bridge
|-------------------------|
|-------------------------|
|-------------------------|
|--2-0-22-0-22-0----------|
|----------------1-1-0----|
|----------------------3--|

|-------------------------------------------------------------|
|-------------------------------------------------------------|
|-------------------------------------------------------------|
|--2-0-33333333---2-0-55555555---2-0-55555555---2-0-77777777--|
|-------------------------------------------------------------|
|-------------------------------------------------------------|

|-------------------------|
|-------------------------|
|-------------------------|
|--2-0-22-0-22-0----------|
|----------------1-1-0----|
|----------------------3--|

|-------------------------------------------------------------|
|-------------------------------------------------------------|
|-------------------------------------------------------------|
|--2-0-33333333---2-0-55555555---2-0-55555555---2-0-77777777--|
|-------------------------------------------------------------|
|-------------------------------------------------------------|

|-----------------------------------------------|
|-----------------------------------------------|
|-----------------------------------------------|
|-----------------------------------------------|
|----7-----------7-----------7---------3-3-3-3--|
|--0---0000000-0---0000000-0---0000000-1-1-1-1--|

|-------------------------|
|-------------------------|
|-------------------------|
|--2-0-22-0-22-0----------|
|----------------1-1-0----|
|----------------------3--|

|---------------------------------------------------------------------------------|
|---------------------------------------------------------------------------------|
|-------------------------------------------------------------7777777799999999----|
|--2-0-33333333---2-0-55555555---2-0-77777777---2-0-99999999----------------------|
|---------------------------------------------------------------------------------|
|---------------------------------------------------------------------------------|

 Solo
|----------------------------------|
|----------------------------------|
|--9-7-----------------------------|
|------10-9-7----------------------|
|-------------10-8-7---------------|
|--------------------10-8-7-5-3-0--|

|--------------------------------|
|--------------------------------|
|--10-9-7------------------------|
|---------10-9-7-----------------|
|----------------10-8-7-5-7-8-7--|
|--------------------------------|

|----------------------------------|
|----------------------------------|
|--9-7-----------------------------|
|------10-9-7----------------------|
|-------------10-8-7---------------|
|--------------------10-8-7-5-3-0--|

|--------------------------------|
|--------------------------------|
|--10-9-7------------------------|
|---------10-9-7-----------------|
|----------------10-8-7-5-7-8-7--|
|--------------------------------|

|----------------------------------|
|----------------------------------|
|--9-7-----------------------------|
|------10-9-7----------------------|
|-------------10-8-7---------------|
|--------------------10-8-7-5-3-0--|

|--------------------------------|
|--------------------------------|
|--10-9-7------------------------|
|---------10-9-7-----------------|
|----------------10-8-7-5-7-8-7--|
|--------------------------------|

|-----------------------------------------|
|-----------------------------------------|
|--9-7------------------------------------|
|------10-9-7-----------------------3--5--|
|-------------10-8-7----------------3--5--|
|--------------------10-8-7-5-3-0---1--3--|

 Post... Solo? LOL!
|---------------------------------------------------------------------------------------------|
|---------------------------------------------------------------------------------------------|
|---------------------------------------------------------------------------------------------|
|--777-5-7----777-5-7-9--101010-9-10-----101010-9-10-12--14-14-14-12-14----14-14-14-12-14-12--|
|--777-5-7----777-5-7-9--101010-9-10-----101010-9-10-12--14-14-14-12-14----14-14-14-12-14-12--|
|--555-3-5-0--555-3-5-7---8-8-8-7--8--0---8-8-8-7--8-10--12-12-12-10-12-0--12-12-12-10-12-10--|

|---------------------------------|
|---------------------------------|
|---------------------------------|
|--101010-9-10-----101010-9-10-9--|
|--101010-9-10-----101010-9-10-9--|
|---8-8-8-7--8--0---8-8-8-7--8-7--|

|--------------------------------------------------------|
|--------------------------------------------------------|
|--------------------------------------------------------|
|--777-5-7----777-5-7-9--101010-9-10-----101010-9-10-12--|
|--777-5-7----777-5-7-9--101010-9-10-----101010-9-10-12--|
|--555-3-5-0--555-3-5-7---8-8-8-7--8--0---8-8-8-7--8-10--|

|-------------------------------------------------------------|
|--10-9-7------------9-7----------------7---------------------|
|---------10-9-7---------10-9-7-----------10-9-7--------------|
|----------------11-------------10-7-------------10-7--8--10--|
|-------------------------------------------------------------|
|-------------------------------------------------------------|

|--------------------------------------------------------|
|--------------------------------------------------------|
|--------------------------------------------------------|
|--777-5-7----777-5-7-9--101010-9-10-----101010-9-10-12--|
|--777-5-7----777-5-7-9--101010-9-10-----101010-9-10-12--|
|--555-3-5-0--555-3-5-7---8-8-8-7--8--0---8-8-8-7--8-10--|

|-----------------------------------------------------------------|
|--10-9-7------------9-7----------------7-------------------------|
|---------10-9-7---------10-9-7-----------10-9-7------------------|
|----------------11-------------10-7-------------10-7--8--10--12--|
|-----------------------------------------------------------------|
|-----------------------------------------------------------------|

 Outro
|---------------------------------------------|
|---------------------------------------------|
|----9-5555----9-5555-----12-8888----12-8888--|
|--2-9-5555--2-9-5555---2-12-8888--2-12-8888--|
|--2-7-3333--2-7-3333---2-10-6666--2-10-6666--|
|--0---------0----------0----------0----------|

|------------------------------------------------------------------------------|
|------------------------------------------------------------------------------|
|------------------------------------------------------------------------------|
|--2-0--2-0--2-0-33333333--2-0--2-0--2-0-33333333--2-0-33333333--2-0-33333333--|
|---2----2------------------0----0---------------------------------------------|
|------------------------------------------------------------------------------|

|------------------------------|
|------------------------------|
|------------------------------|
|--2-0-55555555--2-0-55555555--|
|------------------------------|
|------------------------------|

|--------------------------------------|
|--------------------------------------|
|--------------------------------------|
|--2-0--------------3-2-0--------------|
|------3-2-0--------------3-2-0--------|
|------------3-1-0--------------1s3-0--|

Note: Does not having timing for repeated riffs.
Note 2: Jono = loves mansecks.

Artist: Mastodon
Song: Crystal Skull

Band:  MASTODON
Album: BLOOD MOUNTAIN
Song:  CRYSTAL SKULL

Transcribed By: (The Kraken)
Email:          (the_kraken_awakes@yahoo.co.uk)


.  - palm mute           /  - slide up to
\  - slide down to       ~  - vibrato
h  - hammer on           b  - Bend
p  - pull off            Suffixes for bend
t  - tap                 f  - full bend    h - half bend
ph - pinched harmonic    q  - quarter bend t - tap bend
*  - see comment         ^  - Hold bend    r release bend
x  - Stuccatto           ~  - vibrato bend
,  - slight palm mute    () - ghost note, sustained note
"  - tremolo note        <> - Trill

Tuning D G C F A D

Solo is untabbed unfortunately but this is the main body of the song

Main riff
D-------------------------------------------------------------------|
A-------------------------------------------------------------------|
F-------------------------------------------------------------------|
C-------------------------------------------------------------------| X 6
G-------------------7-7-7-6~----6~----------------------------------|
D-0-0-0-7-7-7-8-8-8---------8-7---8-7-------------------------------|

Verse riff
"Into the black hole..."
|-------------------------------------------------------------------|
|-------------------------------------------------------------------|
|-------------------------------------------------------------------|
|-------------------------------------------------------------------|
|--10-10-10--9-9-9--7-7-7-------10-10-10--9-9-9--7-7-7--------------|
|---8--8--8--7-7-7--5-5-5--------8--8--8--7-7-7--5-5-5--------------|

|-------------------------------------------------------------------|
|-------------------------------------------------------------------|
|--9-9-9--8-8-8--5-5-5-----------9-9-9--8-8-8--5-5-5----------------|
|--9-9-9--8-8-8--5-5-5-----------9-9-9--8-8-8--5-5-5----------------|
|--7-7-7--6-6-6--3-3-3-----------7-7-7--6-6-6--3-3-3----------------|
|-------------------------------------------------------------------|
                             Gtr 2 plays
                             |------------------------------------|
                             |------------------------------------|
                             |------------------------------------|
                             |------------------------------------|
                             |---16-16-16--13-15-15--10-12-12-----|
                             |---14-14-14--13-15-15--10-12-12-----|
-
|-------------------------------------------------------------------|
|-------------------------------------------------------------------|
|-------------------------------------------------------------------|
|-------------------------------------------------------------------|
|--10-10-10--9-9-9--7-7-7-------10-10-10--9-9-9--7-7-7--------------|
|---8--8--8--7-7-7--5-5-5--------8--8--8--7-7-7--5-5-5--------------|

|-------------------------------------------------------------------|
|-------------------------------------------------------------------|
|--9-9-9--8-8-8--5-5-5-----------9--11--8---------------------------|
|--9-9-9--8-8-8--5-5-5-----------x---x--x--------------------------|
|--7-7-7--6-6-6--3-3-3-----------7---9--6---------------------------|
|-------------------------------------------------------------------|

Main riff
"the source of consciousness..."
D-------------------------------------------------------------------|
A-------------------------------------------------------------------|
F-------------------------------------------------------------------|
C-------------------------------------------------------------------| X4
G-------------------7-7-7-6~----6~----------------------------------|
D-0-0-0-7-7-7-8-8-8---------8-7---8-7-------------------------------|

Verse riff
"Into the black hole..."
|-------------------------------------------------------------------|
|-------------------------------------------------------------------|
|-------------------------------------------------------------------|
|-------------------------------------------------------------------|
|--10-10-10--9-9-9--7-7-7-------10-10-10--9-9-9--7-7-7--------------|
|---8--8--8--7-7-7--5-5-5--------8--8--8--7-7-7--5-5-5--------------|

|-------------------------------------------------------------------|
|-------------------------------------------------------------------|
|--9-9-9--8-8-8--5-5-5-----------9-9-9--8-8-8--5-5-5----------------|
|--9-9-9--8-8-8--5-5-5-----------9-9-9--8-8-8--5-5-5----------------|
|--7-7-7--6-6-6--3-3-3-----------7-7-7--6-6-6--3-3-3----------------|
|-------------------------------------------------------------------|
                             Gtr 2 plays
                             |------------------------------------|
                             |------------------------------------|
                             |------------------------------------|
                             |------------------------------------|
                             |---16-16-16--13-15-15--10-12-12-----|
                             |---14-14-14--13-15-15--10-12-12-----|

|-------------------------------------------------------------------|
|-------------------------------------------------------------------|
|-------------------------------------------------------------------|
|-------------------------------------------------------------------|
|--10-10-10--9-9-9--7-7-7-------10-10-10--9-9-9--7-7-7--------------|
|---8--8--8--7-7-7--5-5-5--------8--8--8--7-7-7--5-5-5--------------|

|-------------------------------------------------------------------|
|-------------------------------------------------------------------|
|--9-9-9--8-8-8--5-5-5-----------9--11--8---------------------------|
|--9-9-9--8-8-8--5-5-5-----------x---x--x---------------------------|
|--7-7-7--6-6-6--3-3-3-----------7---9--6---------------------------|
|-------------------------------------------------------------------|


Interlude
|-------------------------------------------------------------------|
|-------------------------------------------------------------------|
|-------------------------------------------------------------------|
|---7-10-9-10-7----7-10-9-10-7-----7-9-6---7-9-6--------------------|
|-------------------------------------------------------------------|
|-0--------------0---------------0-------0--------------------------|

|-------------------------------------------------------------------|
|-------------------------------------------------------------------|
|------------------------------------7------7-----------------------|
|---7-10-9-10-7----7-10-9-10-7-----7---9--7---9---------------------|
|-------------------------------------------------------------------|
|-0--------------0---------------0-------0--------------------------|

|-------------------------------------------------------------------|
|-------------------------------------------------------------------|
|--9-7--------------------------------------------------------------|
|------10-9-10-9-7---10-9-6---9-7h9p7-------------------------------|
|------------------7--------7---------10----------------------------|
|-------------------------------------------------------------------|
                              Gtr 2 plays harmony
                              |----------------|
                              |-12-10h12p10----|
                              |------------12--|
                              |----------------|
                              |----------------|
                              |----------------|

|-------------------------------------------------------------------|
|-------------------------------------------------------------------|
|--9-7--------------------------------------------------------------|
|------10-9-10-9-7---10-9-6---9-7h9p7-------------------------------|
|------------------7--------7---------10----------------------------|
|-------------------------------------------------------------------|
                              Gtr 2 plays harmony

                              |------------|
                              |-8-6h8p6----|
                              |---------9--|
                              |------------|
                              |------------|
                              |------------|

|-------------------------------------------------------------------|
|-------------------------------------------------------------------|
|-------------------------------------------------------------------|
|---7-10-9-10-7----7-10-9-10-7-----7-9-9-9-6---7-9-9-9-6------------|
|-------------------------------------------------------------------|
|-0--------------0---------------0-----------0----------------------|

|-------------------------------------------------------------------|
|-------------------------------------------------------------------|
|------------------------------------7-7-7--------7-7-7-------------|
|---7-10-9-10-7----7-10-9-10-7-----7-------9----7-------9-----------|
|-------------------------------------------------------------------|
|-0--------------0---------------0------------0---------------------|

|-------------------------------------------------------------------|
|-------------------------------------------------------------------|
|--9-7--------------------------------------------------------------|
|------10-9-10-9-7---10-9-6---9-7h9p7-------------------------------|
|------------------7--------7---------10----------------------------|
|-------------------------------------------------------------------|
                              Gtr 2 plays harmony
                              |----------------|
                              |-12-10h12p10----|
                              |------------12--|
                              |----------------|
                              |----------------|
                              |----------------|

|-------------------------------------------------------------------|
|-------------------------------------------------------------------|
|--9-7--------------------------------------------------------------|
|------10-9-10-9-7---10-9-6---9-7h9p7-------------------------------|
|------------------7--------7---------------------------------------|
|-------------------------------------------------------------------|
                              Gtr 2 plays harmony
                              |------------|
                              |-8-6h8p6----|
                              |------------|
                              |------------|
                              |------------|
                              |------------|

Riff 2
"One million voice!"
|-------------------------------------------------------------------|
|-------------------------------------------------------------------|
|-9--11--12--8-(8)--------------------9--11--12--8-(8)--------------|
|-x--x----x--x-(x)--------------------x--x----x--x-(x)--------------|
|-7--9---10--6-(6)-6h7p6--------------7--9---10--6-(6)-6h7p6--------|
|------------------------8-7---------------------------------8-7----|

|-------------------------------------------------------------------|
|-------------------------------------------------------------------|
|-9--11--12--8-(8)--------------------9--11--12--8-(8)--------------|
|-x--x----x--x-(x)--------------------x--x----x--x-(x)--------------|
|-7--9---10--6-(6)-6h7p6--------------7--9---10--6-(6)-6h7p6--------|
|------------------------8-7---------------------------------8-7----|

|-------------------------------------------------------------------|
|-------------------------------------------------------------------|
|-------------------------------------------------------------------|
|--7h8p7------------------------------------------------------------|
|--------9-8---2h3p2p0----------------------------------------------|
|----------------------2--------------------------------------------|

"Running thru the darkness!"



|-------------------------------------------------------------------|
|-------------------------------------------------------------------|
|-------------------------------------------------------------------|
|-------8-(8)--------------------8-(8)------------------------------|
|-2-4-5-6-(6)-6h7p6--------2-4-5-6-(6)-6h7p6------------------------|
|-0-2-3-------------8-7----0-2-3-------------8-7--------------------|

|-------------------------------------------------------------------|
|-------------------------------------------------------------------|
|-------------------------------------------------------------------|
|-------8-(8)--------------------8-(8)------------------------------|
|-2-4-5-6-(6)-6h7p6--------2-4-5-6-(6)-6h7p6------------------------|
|-0-2-3-------------8-7----0-2-3-------------8-7--------------------|

|-------------------------------------------------------------------|
|-------------------------------------------------------------------|
|-------------------------------------------------------------------|
|--7h8p7------------------------------------------------------------|
|--------9-8---2h3p2p0----------------------------------------------|
|----------------------2--------------------------------------------|

"The touch is cold!"
|-------------------------------------------------------------------|
|-------------------------------------------------------------------|
|-------------------------------------------------------------------|
|-9-9---------------9-9---------------------------------------------|
|-7-7---------------7-7---------------------------------------------|
|-----.3-2-0-3-2-0------.3-2-0-3-2-0--------------------------------|

|-------------------------------------------------------------------|
|-------------------------------------------------------------------|
|-------------------------------------------------------------------|
|-12--12----------------12-12---------------------------------------| X4
|-10--10----------------10-10---------------------------------------|
|--------.3-2-0-3-2-0---------.3-2-0-3-2-0--------------------------|

Riff 3
|-------------------------------------------------------------------|
|-------------------------------------------------------------------|
|-------------------------------------------------------------------|
|-0h2-2-0h2p0-2-----0-2---0-----0h2-2-0h2p0-2-----0-2---0-----------|
|---------------2-2-----2---------------------2-2-----2-------------|
|-------------------------------------------------------------------|

|-------------------------------------------------------------------|
|-------------------------------------------------------------------|
|-------------------------------------------------------------------|
|-0h2-2-0h2p0-2-----0-2---0-----0h2-2-0h2p0-2-----0-2---0-----------|
|---------------2-2-----2---------------------2-2-----2-------------|
|-------------------------------------------------------------------|
Gtr 2 plays harmony
|-------------------------------------------------------------------|
|-------------------------------------------------------------------|
|-------------------------------------------------------------------|
|--4h5-5-4h5p4-5-----4-5---4-----4h5-5-4h5p4-5-----4-5---4----------|
|----------------5-5-----5---------------------5-5-----5------------|
|-------------------------------------------------------------------|

SOLO over riff 3 repeated
then back to...

Main riff
D-------------------------------------------------------------------|
A-------------------------------------------------------------------|
F-------------------------------------------------------------------|
C-------------------------------------------------------------------| X4
G-------------------7-7-7-6~----6~----------------------------------|
D-0-0-0-7-7-7-8-8-8---------8-7---8-7-------------------------------|








|-------------------------------------------------------------------|
|-------------------------------------------------------------------|
|-------------------------------------------------------------------|
|-0h2-2-0h2p0-2-----0-2---0-----------------------------------------|
|---------------2-2-----2-------------------------------------------|
|-------------------------------------------------------------------|
Gtr 2 plays harmony
|-------------------------------------------------------------------|
|-------------------------------------------------------------------|
|-------------------------------------------------------------------|
|--4h5-5-4h5p4-5-----4-5---4----------------------------------------|
|----------------5-5-----5------------------------------------------|
|-------------------------------------------------------------------|

Finish
|-------------------------------------------------------------------|
|-------------------------------------------------------------------|
|-------------------------------------------------------------------|
|-9-/-2-------------------------------------------------------------|
|-7-/-2-------------------------------------------------------------|
|-----0-------------------------------------------------------------|

END

Artist: Mastodon
Song: Sleeping Giant

-------------------------------------------------------------------------------
			     SLEEPING GIANT - MASTODON
-------------------------------------------------------------------------------
Tabbed by:Shaun McLellan
Email:theshizon@hotmail.com

ive seen some really $h!!ty guitar pro tabs and unfinished tabs for this
 so HERE IT IS. if you want it right DO IT YOURSELF. it might not
be completely perfect but its damn close. try it out and post any changes if
you think it helps.  im just going to tab out the riff and you
can piece them together.

Tuning:Drop C CGCFAD

e|------------------------------------------------------let these ring-------|
B|---------------------------------------------------------10----------------|
G|----------------------------------------0----------------------------------|
D|--------------------5----------5-----------------------------14------------|
A|----5-7-8-----5-7-8------5-7-8---8-7-5-------5/7-8/10/12--------12---------|
E|--0---------0----------0---------------------------------------------------|

for this riff i think you can play it in the open Am postion but it has a nice flow
up at the 5th with the slides  it sounds smoother

e|--------------------------------------------0------------------------------|
B|---------0-----------0--------------------3--3-----------------------------|
G|--------5-5---------4- 4h5p4\2h4p2------4-----5----------------------------|
D|-----------7----------------------0-2-3--3-3-------------------------------|
A|--0h5/7-------0h5/7--------------------------------------------------------|
E|---------------------------------------------------------------------------|
play that 2x then to an open Am

e|-----0---------------------------------------------------------------------|
B|----1-1------0-------------------------------------------------------------|
G|---2---2----2-2----1-/---4-------------------------------------------------|
D|--2--------3---3--2-2/--5-5------------------------------------------------|
A|-0--------2----------------------------------------------------------------|
E|-----------------2---2/5---------------------------------------------------|

heres the delay lead.  i have a POD and a jcm 800 amp with analog delay set
to dotted eigth notes works very nicely :) this is the jist of it and you can
fiddle around with this scale(in brackets)

e|-22\------17\------------------------------(13-15-17-20-22)----------------|
B|------18-------15-17-18--------------------(13-15-17------)----------------|
G|------------------------14-15-14-15-14-----(12-14-15------)----------------|
D|---------------------------------------15--(12-14-15------)----------------|
A|---------------------------------------------------------------------------|
E|---------------------------------------------------------------------------|
the verse riff... all barre chords(its the same shape all the way through so 
im just going to write the root note to save time) pick AND slide them
at the same time 

e|-5-5--------------------------------------------0--------------------------|
B|-6-6--------------------------------------------1--------------------------|
G|-7-7--------------------------------------------2--------------------------|
D|-7-7--------------------------------------------2--------------------------|
A|-5-5----5--5\4/5/7\5\4/5--5-5-----5---8-8--5-7--0-0----0--8\4/5/7\5\4------|
E|-----00-----------------------0-0-------------------00---------------------|

e|--------------------0----------------------5-------------------------------|
B|--------------------1----------------------6-------------------------------|
G|--------------------2----------------------7----------10101010101010-------|
D|--------------------2----------------------7----------10101010101010-------|
A|-5-5----5--88--5-7--0-0----0--88/5/7\5\4---5-5----5---8-8-8-8-8-8-8--------|
E|-----00-----------------00---------------------00--------------------------|

e|---------------------0-0----0-0----0---------------------------------------|
B|---------------------6-6----6-6----6---------------------------------------|
G|---------------------7-7----7-7----7---------------------------------------|
D|-2-2----2-3333333----7-7----7-7----7---------------------------------------|
A|-2-2----2-3333333----5-5----5-5----5---------------------------------------|
E|-2-2-00-2-3333333--------00-----00-----------------------------------------|

go back to the 2nd riff then

do the delay lead
then another verse
then this (im not to sure about the slide to the 3rd fret.  maybe its the bass?)

e|---------------------------------------------------------------------------|
B|---------------------------------------------------------------------------|
G|----0-----0----------0-----0------4x---------------------------------------|
D|-----------5----------------4---------4-7-5-8------------------------------|
A|------------654--------------654------4-7-5-8------------------------------|
E|-0----0/3------6---0---0/3------6-----4-7-5-8------------------------------|

play that a couple times then..

  P.M                                    ^
e|---------------------------------------|-----------------------------------|
B|---------------------------------------|-----------------------------------|
G|-------------------------------4x--that riff-then--------------------------|
D|-0-2---0-4-0-0-4---0-5-2-0-1-----------------------4/7-7-9/12--------------|
A|-----3-----------3-----------3---------------------4/7-7-9/12--------------|
E|---------------------------------------------------4/7-7-9/12--------------|

then the diddlely diddlely tapping riff(imn just going to write it once but 
play each 3 times)

   T        T       T       T       T      T      T      T
e|-22p10p0--21p9p0--19p7p0--18p6p0-------------------------------------------|
B|----------------------------------21p9p0-20p8p0-18p6p0-17p5p0--------------|
G|---------------------------------------------------------------------------|
D|---------------------------------------------------------------------------|
A|---------------------------------------------------------------------------|
E|---------------------------------------------------------------------------|
  ^-------------------------------^
then just the first half and this at the end

e|-10-9-7---------10-9-7-----------------------------------------------------|
B|--------10-8-7---------10-8-7----------------------------------------------|
G|------------------------------9-7-6----------------------------------------|
D|---------------------------------------------------------------------------|
A|---------------------------------------------------------------------------|
E|---------------------------------------------------------------------------|

then go back to that other one and you got er beat!
thats it thats all!  enjoy.

| /  slide up
| \  slide down
| h  hammer-on
| p  pull-off
| ~  vibrato
| +  harmonic
| x  Mute note
===============================================================================

END


Artist: Mastodon
Song: Capillarian Crest

Mastodon Capillarian Crest


Tuning-down 1 step

Intro									x3
|---------8----------8--------------------------------12----------------|
|------10---10---------6--------------0------------10----10-------------|
|--0-9---------9------------------------8-9---0--9----------9-----------|
|----------------10-------10----9-10--------------------------10--------|
|----------------------------10-----------------------------------------|
|-----------------------------------------------------------------------|

|-----------------------------------------------------------------------|
|-----------------------------------------------------------------------|
|-----------------------------------------------------------------------|
|---5-------5-----5-----5-----5-----5-----5-----------------------------|
|-----5---7-----7-----7-----7-----2-----3-------------------------------|
|-5-----7-----8-----6-----8-----2-----3---------------------------------|

Riff1 x2
|--------------------------|----------------------------|
|--------------------------|----------------------------|
|--------------------------|--------------------4/9-----|
|----10---6-6---------4-5--|----10---6/------5-5--------|
|-----8---4-4-----5-5------|-----8---4/--0-4------------|
|-0-0---0-----0-0----------|-0-0---0--------------------|

Riff2  x2
|----------------------------------------------------------------------|
|----------------------------------------------------------------------|
|----------------------------------------------------------------------|
|----10---6--6---3---3-----------------10---6/10---3---3---------------|
|-----8---4--4---1---1------------------8---4/8----5---5-----7-7-8-10--|
|-0-0---0------0---0---0-0-4-3-4-6—-0-0---0------0---0---0-0-----------|

Repeat intro, riff2, riff1

Instrumental part:
1                           2              3	     
|-0----0--8-----0*----8*-8*-|-------------|--------------------|
|---10------8-----10*-------|-0---0-------|-0----0--------8*---|
|-------------9-------------|---8---9-8-5-|---10---9-10-7---9*-|
|---------------------------|-------------|--------------------|
|---------------------------|-------------|--------------------|
|---------------------------|-------------|--------------------|
4                    *3rd time only                    *4th time only
|------------------------|
|-0----0------------8----|
|---10---(9-10-7)x7---9--|
|------------------------|
|------------------------|
|------------------------|
order
1 x3
2 x4
1 x3
3 x4
1 x3
2 x4
1 x3
4 x1
1 x3
 
Faster section:
1								
|---10---------------------10---------------------|
|-0----8---0-8---0-8---0-0----8---0-8---0-10----0-|
|--------9-----9-----9----------9-----9------11---|
|-------------------------------------------------|
|-------------------------------------------------|
|-------------------------------------------------|
2					



|---------------------------------|
|-0-------8---------------11------|
|---8-9-9—-9-9-9------8-9-------9-|
|----------------9/10--------10---|
|---------------------------------|
|---------------------------------|
3                                                    4
|------------10-------------------------13----12----|----------------|
|-0-11-12-12----11-12-12----------11-12----12----12-|----------------|
|------------------------11-12-12-------------------|-11-11-11-11-12-|
|---------------------------------------------------|----------------|
|---------------------------------------------------|----------------|
|---------------------------------------------------|----------------|

Order:
1 x2
2 x2
1 x2
3 x2
1 x2
2 x2
1 x2
3 x2
1 x2
4 x1

|------------------------|-----------|------------------------|-----------|
|------------------------|-----------|------------------------|-----------|
|------------------------|-----------|------------------------|--3--3---3-|
|------------------------|--3—-3---3-|-2—-2--2-2—-2--2-2--2-2-|--3--3---3-|
|-2--2—-2-2—-2—-2-2—-2-2-|--3—-3---3-|-0—-0--0-0—-0--0-0--0-0-|--1-—1---1-|
|-0—-0-—0-0—-0--0-0--0-0-|--1—-1---1-|------------------------|-----------|

Riff 5:
|---------------------------------------------------|
|---------------------------------------------------|
|---------------------------------------------------|
|---------------------------------------------------|
|-----------------------------------4-4-4-4-5-5-5-5-|
|-0-1-1-1-1-1-1-1-1-1-1-1-1-0-0-0-0-----------------|

|-------------------------------------|
|-------------------------------------|
|-------------------------4-4-6-6—p.h-|
|-----------------4-4-5-5----------8--|
|-8-8-----5-5-4-4---------------------|
|-----6-6-----------------------------| x2
 
Riff6:
|---------------------|---------------------|
|---------------------|---------------------|
|---------------------|---------------------|
|-----------------3-3-|-------------3-3-----|
|---------4-4-5-5-----|-----4-4-5-5-----5-5-|
|-0-0-4-4-------------|-0-0-----------------| x8

Riff 5 x1

Riff7:
|-----------|---------------------------|
|-----------|---------------------------|
|-----------|---------------------------|
|-7-6-------|---------------------------|
|-5-4-8-7-2-|---------------------------|
|-----6-5-0-|-0-2-2-2-2-2-2-2-2-2-2-2-2-|

|-------------|---------------------------------|
|-------------|---------------------------------|
|-------------|---------------------------------|
|-7-6---------|---------------------------------|
|-5-4-8-7-----|---------------------------------|
|-----6-5-0h2-|-0-1-1-1-1-1-1-1-1-1-1-1-1-1-1-1-| x2

Riff9:


|---------------------------------|---------------------------------|
|---------------------------------|---------------------------------|
|---------------------------------|---------------------------------|
|---------------------------------|---------------------------------|
|---------------------------------|---------------------------------|
|-0-0-0-0-0-0-1-1-1-1-1-1-6-6-6-6-|-5-5-5-5-5-5-5-5-5-5-5-5-5-5-5-5-|

|-------------------------------------|-------------------------------------|
|-------------------------------------|-------------------------------------|
|-------------------------------------|-------------------------------------|
|-------------------------------------|-------------------------------------|
|-------------------------------------|-------------------------------------|
|-5-5-5-5-5-5-8-8-8-8-8-8-10-10-10-10-|-12-12-12-12-12-12-12-12-12-12-12-12-|

Ending:
|---------------------------------------------------|
|---------------------------------------------------|
|---------------------------------------------------|
|-9-9----------7-7----------4-4---------2-2---------|
|-----7-7----------4-4----------2-2---------0-0-----|
|---------9-9----------7-7----------5-5---------2-2-|

|-------------------------------------------------|----------|
|-------------------------------------------------|----------|
|-------------------------------------------------|----------|
|-------------------------------------------------|-7//////0-|
|-------------------------------------------------|-7//////0-|
|-2-2-2-2-4-4-4-4-5-5-5-5-5-5-5-5-5-5-5-5-5-5-5-5-|-5//////0-|


END


Artist: Mastodon
Song: Circle Of Cysquatch

Circle Cysquatch
By Mastodon
Label: Warner bors.
From the Blood Mountain album

Tabbed by: Simon L Sweden
Mail: simon.lilja@hotmail.com

/ = slide up
\ = slide down


Tune down the whole guitar one step to D and then Low D sown to A.

Intro

D--12--0--12--0--12/15--0--11--0--11--0--8--0--0--8\7--||   Play 8 times
A------------------------------------------------------||
F------------------------------------------------------||
C------------------------------------------------------||
G------------------------------------------------------||
A------------------------------------------------------||

Vers

Part 1

D--------------------------||     Play 4 times
A--------------------------||
F--------------------------||
C--9-9---12--8-8---5--454--||
G--7-7---10--6-6---3--232--||
A--------------------------||

Vers

Part 2

D------------------------------------------------------------||  Play 2 times
A------------------------------------------------------------||
F------------------------------------------------------------||
C--5--6---10-9---9-10-9--9-10-12-----5--6--10-9--------------||
G--3--4---8--7---7-8--7--7-8--10-----3--4--8--7--------------||
A-------------------------------------------------1-2-1-2-3--||

Play once again from the top.

Could't figure the next part out jet, but after that its something like this....

D------------------------------------------------------------------------------------||
A------------------------------------------------------------------------------------||
G------------------------------------------------------------------------------------||
C------------------------------------------------------------------------------------||
G--2-----2---3-----2---3-----2---3-----4---5-------4---5-------4---5-------4---5-----||
A--0-0-0-0---0-0-0---0---0-0-0---0---0-0-0---0---2-2-2---2--2-2-2--2---2-2-2---2--2-2-2--||

Then something I could't do.

Song ending...

D--------------------------------------------------------------------------||  Play 
some lyrics and then just endpart!
A--------------------------------------------------------------------------||
F--------------------------------------------------------------------------||
C--9-8-8-------------9-8-8-----------------9-8-8--------------------9-8-8--||
G--7-6-6-------------7-6-6-----------------7-6-6--------------------7-6-6--||
A--------3-1-0-1-0-1-------3-1-0-1-3-1-0-1-------3-1-0-1-3-1-0-1-0-1-------||


Thats all I've figured for now. Please contact me with questions or corrections....

END

Artist: Mastodon
Song: Bladecatcher

-------------------------------------------------------------------------------
			     SONG NAME - Band Name
-------------------------------------------------------------------------------
Tabbed by: Somebody some1
Email: antihero-777@hotmail.com

Great song. by an even better band! Theres some tricky bits in it. eg. intro which is 
picked. good luck with it!

Tuning: D standard (D G C F A D low to high) everything downtuned a whole tone.

| /  slide up
| \  slide down
| h  hammer-on
| p  pull-off
| ~  vibrato
| +  harmonic
| x  Mute note
| .  Palm mute
| bu bend up to note in ()
| bd bend down to note in ()

Intro   (pick and fingers)

Guitar 1

                     [    x2            ] [        x2        ]
d|------------------0-|------------------0-|------------------0-|
A|------14----15------|-0----14----15------|-0----15----17------|
F|--------------------|--------------------|--------------------|
C|---14----16----16---|---14----16----16---|---16----18----18---|
G|--------------------|--------------------|--------------------|
D|--------------------|--------------------|--------------------|

Guitar 2
                     [         x2       ] [        x2         ]
d|------------------0-|------------------0-|------------------0-|
A|------2-----3-------|-0----2-----3-------|-0----3-----5-------|
F|--------------------|--------------------|--------------------|
C|---2-----4-----4----|----2-----4-----4---|---4-----6-----6----|
G|--------------------|--------------------|--------------------|
D|--------------------|--------------------|--------------------|

Guitar 1
  [          x2      ] [         x2       ]
d|------------------0-|------------------0-|------------------0------|
A|-0----17----19------|-0----19----21------|-0----19----21------0----|
F|--------------------|--------------------|----------------------0--|
C|---18----19----19---|---19----21----21---|---19----21----21--------|
G|--------------------|--------------------|-------------------------|
D|--------------------|--------------------|-------------------------|

Guitar 2
  [         x2       ] [        x2        ]
d|------------------0-|------------------0-|------------------0------|
A|-0----5-----7-------|-0----7-----9-------|-0----7-----9------------|
F|--------------------|--------------------|-------------------------|
C|---6-----7-----7----|---7-----9-----9----|---7-----9-----9----x/---|
G|-----------------------------------------|--------------------x/---|
D|--------------------|--------------------|-------------------------|

Stabs

d|-0---------|-----------------------|-0---------|
A|-0---------|-6-------9-------------|-0---------|
F|-9---------|-8--(10)-11--(13)------|-9---------|
C|-9---------|--bu-------bu-----3-7--|-9---------|
G|-7---------|------------------3-7--|-7---------|
D|-0------0--|------------------1-5--|--------0--|

d|-----------------------------------------|-----------|
A|-6-------7-------8--------9--------------|-----------|
F|-8--(10)-9--(11)-10--(12)-11--(13)--(11)-|-----------|
C|--bu------bu-------bu-------bu----bd-----|-3-5-7-9-\-|
G|-----------------------------------------|-3-5-7-9-\-|
D|-----------------------------------------|-1-3-5-7-\-|

Blast beat riff

  [                  x2                    ]
d|-----------------------------------------|
A|-----------------------------------------|
F|-----------------------------------------|
C|-----------------------------------------|
G|-----------------------------------------|
D|-2-2-2-2-2-2-5-2-5-2-3-3-3-3-3-3-6-3-6-3-|

  [                   x2                  ]
d|-----------------------------------------|
A|-----------------------------------------|
F|-----------------------------------------|
C|-----------------------------------------|
G|-3-3-3-3-3-3-6-3-6-3-2-2-2-2-2-2-5-2-5-2-|
D|-----------------------------------------|

  [                   x2                  ]
d|-----------------------------------------|
A|-----------------------------------------|
F|-----------------------------------------|
C|-----------------------------------------|
G|-----------------------------------------|
D|-2-2-2-2-2-2-5-2-5-2-3-3-3-3-3-3-6-3-6-3-|

Melody 1

d|-------------|-------------|-------------|
A|-------------|-------------|---0-8h10----|
F|-------------|-------0-7-7/|/9--------9~~|
C|-------0h5h7-|-7/9-9-------|-------------|
G|-0h5h9-------|-------------|-------------|
D|-------------|-------------|-------------|

  [                                            x3                            ]
d|---------10-----------------|---------10------------------|--------10--------|
A|-0-10h12----12----0-8h10----|-0-10-12----12----0-8-10-----|0-10-12----12-----|
F|---------------12--------9~~|---------------12--------9~~-|---------------12-|
C|----------------------------|-----------------------------|------------------|
G|----------------------------|-----------------------------|------------------|
D|----------------------------|-----------------------------|------------------|

  [                1st and 2 times        ]
d|-------------|-------------|-------------|
A|-------------|---------0---|---0h8h10----|
F|-------------|-0-----0---7/|/9--------9~~|
C|-------0h5h7-|---7/9-------|-------------|
G|-0h5h7-------|-------------|-------------|
D|-------------|-------------|-------------|

  [                         3rd time                ]
d|-------------|-------------|-------------|--------|
A|-------------|---------0---|---0h8h10----|--------|
F|-------------|-0-----0---7/|/9--------9~~|~~~~~~~~|
C|-------0h5h7-|---7/9-------|-------------|--------|
G|-0h5h7-------|-------------|-------------|--------|
D|-------------|-------------|-------------|--------|

Melody 2

  [                          x2                        ]
d|-0-7-----------------------|--------------------------|
A|-----8-0-8-----------------|-------------------0-7----|
F|-----------9-0-9-----------|-------------0h7h9-----9~~|
C|-----------------10-0-7----|-------0h7h9--------------|
G|------------------------9~~|-0h7h9--------------------|
D|---------------------------|--------------------------|

d|-------------------------|-----------------------------------------------|
A|-------------------------|-----------------------------------------------|
F|---------------------4/7-|---------12h16h12------------------------------|
C|---0h2h0-5h4---4h5p0-----|-0-12h14----------14h12----14h12---------------|
G|-------------0-----------|------------------------14-------14-12/10------|
D|-0-----------------------|------------------------------------------12~~-|

d|--------------------------|-------------------------|-----------------|
A|--------------------------|-------5-----------------|-----------------|
F|--------------------4-----|-5-7-8---8-7-5---7---5-2~|~~~~~~~~~~~~~~~~~|
C|---0h2h0-5p4--4h5p0---6~~-|---------------7---7---2~|~~~~~~~~~~~~~~~~~|
G|-------------0------------|-----------------------0~|~~~~~~~~~~~~~~~~~|
D|-0------------------------|-------------------------|-----------------|

Ascending bridge (speeds up)

d|-----------------|---------------------|---------|-------|-------|-------|
A|-----------------|------------10----12-|---------|-------|-------|-------|
F|-----------------|---8---10-9----11----|-11~~~~~~|~~~~~~~|~~~~~~~|~~~~~~~|
C|-----------7---9-|-7---9---------------|---------|-------|-------|-------|
G|---6---8-6---8---|---------------------|---------|-------|-------|-------|
D|-5---7-----------|---------------------|---------|-------|-------|-------|

Stabs

d|-0---------|-----------------------|-0---------|
A|-0---------|-6-------9-------------|-0---------|
F|-9---------|-8--(10)-11--(13)------|-9---------|
C|-9---------|--bu-------bu-----3-7--|-9---------|
G|-7---------|------------------3-7--|-7---------|
D|-0------0--|------------------1-5--|--------0--|

d|-----------------------------------------|-----------|
A|-6-------7-------8--------9--------------|-----------|
F|-8--(10)-9--(11)-10--(12)-11--(13)--(11)-|-----------|
C|--bu------bu-------bu-------bu----bd-----|-3-5-7-9-\-|
G|-----------------------------------------|-3-5-7-9-\-|
D|-----------------------------------------|-1-3-5-7-\-|

Blast beat riff

  [                  x2                    ]
d|-----------------------------------------|
A|-----------------------------------------|
F|-----------------------------------------|
C|-----------------------------------------|
G|-----------------------------------------|
D|-2-2-2-2-2-2-5-2-5-2-3-3-3-3-3-3-6-3-6-3-|

  [                   x2                  ]
d|-----------------------------------------|
A|-----------------------------------------|
F|-----------------------------------------|
C|-----------------------------------------|
G|-3-3-3-3-3-3-6-3-6-3-2-2-2-2-2-2-5-2-5-2-|
D|-----------------------------------------|

  [                   x2                  ]
d|-----------------------------------------|
A|-----------------------------------------|
F|-----------------------------------------|
C|-----------------------------------------|
G|-----------------------------------------|
D|-2-2-2-2-2-2-5-2-5-2-3-3-3-3-3-3-6-3-6-3-|

Melody 1

d|-------------|-------------|-------------|
A|-------------|-------------|---0-8h10----|
F|-------------|-------0-7-7/|/9--------9~~|
C|-------0h5h7-|-7/9-9-------|-------------|
G|-0h5h9-------|-------------|-------------|
D|-------------|-------------|-------------|

  [                                            x3                            ]
d|--------10-----------------|---------10------------------|--------10---------|
A|-0-10h12----12----0-8h10----|-0-10-12----12----0-8-10-----|0-10-12----12-----|
F|---------------12--------9~~|---------------12--------9~~-|---------------12-|
C|----------------------------|-----------------------------|------------------|
G|----------------------------|-----------------------------|------------------|
D|----------------------------|-----------------------------|------------------|

  [                1st and 2 times        ]
d|-------------|-------------|-------------|
A|-------------|---------0---|---0h8h10----|
F|-------------|-0-----0---7/|/9--------9~~|
C|-------0h5h7-|---7/9-------|-------------|
G|-0h5h7-------|-------------|-------------|
D|-------------|-------------|-------------|

  [                         3rd time                ]
d|-------------|-------------|-------------|--------|
A|-------------|---------0---|---0h8h10----|--------|
F|-------------|-0-----0---7/|/9--------9~~|~~~~~~~~|
C|-------0h5h7-|---7/9-------|-------------|--------|
G|-0h5h7-------|-------------|-------------|--------|
D|-------------|-------------|-------------|--------|

Melody 2

  [                          x2                        ]
d|-0-7-----------------------|--------------------------|
A|-----8-0-8-----------------|-------------------0-7----|
F|-----------9-0-9-----------|-------------0h7h9-----9~~|
C|-----------------10-0-7----|-------0h7h9--------------|
G|------------------------9~~|-0h7h9--------------------|
D|---------------------------|--------------------------|

d|-------------------------|-----------------------------------------------|
A|-------------------------|-----------------------------------------------|
F|---------------------4/7-|---------12h16h12------------------------------|
C|---0h2h0-5h4---4h5p0-----|-0-12h14----------14h12----14h12---------------|
G|-------------0-----------|------------------------14-------14-12/10------|
D|-0-----------------------|------------------------------------------12~~-|

d|--------------------------|-------------------------|-----------------|
A|--------------------------|-------5-----------------|-----------------|
F|--------------------4-----|-5-7-8---8-7-5---7---5-2~|~~~~~~~~~~~~~~~~~|
C|---0h2h0-5p4--4h5p0---6~~-|---------------7---7---2~|~~~~~~~~~~~~~~~~~|
G|-------------0------------|-----------------------0~|~~~~~~~~~~~~~~~~~|
D|-0------------------------|-------------------------|-----------------|

Ascending bridge (speeds up)

d|-----------------|---------------------|---------|-------|-------|-------|
A|-----------------|------------10----12-|---------|-------|-------|-------|
F|-----------------|---8---10-9----11----|-11~~~~~~|~~~~~~~|~~~~~~~|~~~~~~~|
C|-----------7---9-|-7---9---------------|---------|-------|-------|-------|
G|---6---8-6---8---|---------------------|---------|-------|-------|-------|
D|-5---7-----------|---------------------|---------|-------|-------|-------|

Outro
                                                     [       x8           ]
d|-0------------|-----------|-----------|-----------|----------------------|
A|-0------------|-----------|-----------|-----------|----------------------|
F|-9------------|-----------|-----------|-----------|-6-4------------------|
C|-9------------|-----------|-----------|-----------|-----4-7-6------------|
G|-7------------|-----------|-----------|-----------|-----------5\4--------|
D|--------------|-0~~~~~~~~~|~~~~~~~~~~~|~~~~~~~~~~~|----------------------|

   [        x8            ]
d|-------------------------|----------|
A|-------------------------|----------|
F|-------------------------|----------|
C|-------------------------|----------|
G|-------------------------|----------|
D|-2-2-2-3-3-3-2-2-2-4-4-4-|-2-2-X----|
   . . . . . . . . . . . .

===============================================================================

END


Artist: Mastodon
Song: Colony Of Birchmen

E-Mail: Jose_DC_Shoes@yahoo.com
Tabbed By: Jose_Aviles

Artist:Mastodon
Song:Colony Of Birchmen
Album:Blood Mountain

Tuning: DGCFAD

| /  slide up
| \  slide down
| h  hammer-on
| p  pull-off
| ~  vibrato


Intro (x1)
D|----------------------------------------------------------------------|
A|----------------------------------------------------------------------|
F|-------12---12\11---------4---4/5-----12-12-12\14-11----------------0-|
C|------------------------------------------------------------0-----0---|
G|-2-----10---10\9----2-----2---2/3---2-10-10-10\12-9-------0---3/5-----|
D|-0-0-0----0-------0-0-0-0---0-----0-0-----------------3h5-------------|

Verse: (x3)
D|-------------------------------------------------------|
A|-------------------------------------------------------|
F|-------------------------------------------------------|
C|--------9---6--9----------9---6--9----------9---6--9---|
G|-2-----11---8-11---7-----11---8-11---7-----11---8-11---|
D|-0-0-0----0------0-0-0-0----0------0-0-0-0----0------0-|

|--------------------|
|--------------------|
|--------------------|
|--------------------|
|-11------9-----9--9-|
|-9--9-9-10-10-11-11-|


Chorus: (x1)
D|--------------------------------------------------------------|
A|--------------------------------------------------------------|
F|-9--------------11--------------7--------------9--------------|
C|--------------------------------------------------------------|
G|-7--------------9---------------5--------------7--------------|
D|---000000000000----000000000000---000000000000---000000000000-|


D|-------------------------------------------------------------|
A|-------------------------------------------------------------|
F|-------------------------------------------------------------|
C|-------------------------------------------------------5-4-5-|
G|-------------------------------------------------------7-5-7-|
D|---0000000000000000---2222222222222222-----3333333333--------|

D|-------------------------------------------------------------|
A|-------------------------------------------------------------|
F|-------------------------------------------------------------|
C|-------------------------------------------------------5-4-5-|
G|-------------------------------------------------------7-5-7-|
D|---0000000000000000---2222222222222222-----3333333333--------|

Verse: (x3)
D|-------------------------------------------------------|
A|-------------------------------------------------------|
F|-------------------------------------------------------|
C|--------9---6--9----------9---6--9----------9---6--9---|
G|-2-----11---8-11---7-----11---8-11---7-----11---8-11---|
D|-0-0-0----0------0-0-0-0----0------0-0-0-0----0------0-|






|--------------------|
|--------------------|
|--------------------|
|--------------------|
|-11------9-----9--9-|
|-9--9-9-10-10-11-11-|

Chorus: (x1)
D|--------------------------------------------------------------|
A|--------------------------------------------------------------|
F|-9--------------11--------------7--------------9--------------|
C|--------------------------------------------------------------|
G|-7--------------9---------------5--------------7--------------|
D|---000000000000----000000000000---000000000000---000000000000-|


D|-------------------------------------------------------------|
A|-------------------------------------------------------------|
F|-------------------------------------------------------------|
C|-------------------------------------------------------5-4-5-|
G|-------------------------------------------------------7-5-7-|
D|---0000000000000000---2222222222222222-----3333333333--------|

D|-------------------------------------------------------------|
A|-------------------------------------------------------------|
F|-------------------------------------------------------------|
C|-------------------------------------------------------5-4-5-|
G|-------------------------------------------------------7-5-7-|
D|---0000000000000000---2222222222222222-----3333333333--------|


Bridge:
D|-------------------------------------------------------------|
A|-------------------------------------------------------------|
F|-----------------------4/5/7\5\4-------12-12-12/14-11--------|
C|----------------------------------------------------------7~-|
G|-2-----5---5-4---2-----2/3/5\3\2-2-----10-10-10/12-9--5/7----|
D|-0-0-0-3-0-3-2-0-0-0-0-----------0-0-0-----------------------|

D|---------------------------------------------------------------------|
A|---------------------------------------------------------------------|
F|-----------------------4/5/7\5\4-------12-12-12/14-11--------------0-|
C|-----------------------------------------------------------0-----0---|
G|-2-----5---5-4---2-----2/3/5\3\2-2-----10-10-10/12-9-----0---3/5-----|
D|-0-0-0-3-0-3-2-0-0-0-0-----------0-0-0----------------3h5------------|

D|------------------------------------------------|
A|------------------------------------------------|
F|------------------------------------------------|
C|------------------------------------------------| (x2)
G|-7-------7-----6h7-----7-----7-------7----------|
D|-7h8-8-8-8-8-8-7---7-7-7-7-7-7h8-8-8-8h10-10-10-|

D|-----0-----------0-----------------0-|
A|-------0-----------0-----------------|
F|---------4-----------4-------4---4---|
C|---2-------2---2-------2---2---0-----|(x4)
G|-3-----------2-----------3-----------|
D|-------------------------------------|

Chorus: (x1)
D|--------------------------------------------------------------|
A|--------------------------------------------------------------|
F|-9--------------11--------------7--------------9--------------|
C|--------------------------------------------------------------|
G|-7--------------9---------------5--------------7--------------|
D|---000000000000----000000000000---000000000000---000000000000-|

D|-------------------------------------------------------------|
A|-------------------------------------------------------------|
F|-------------------------------------------------------------|
C|-------------------------------------------------------5-4-5-|
G|-------------------------------------------------------7-5-7-|
D|---0000000000000000---2222222222222222-----3333333333--------|


D|-------------------------------------------------------------|
A|-------------------------------------------------------------|
F|-------------------------------------------------------------|
C|-------------------------------------------------------5-4-5-|
G|-------------------------------------------------------7-5-7-|
D|---0000000000000000---2222222222222222-----3333333333--------|

Bridge:
D|-------------------------------------------------------------|
A|-------------------------------------------------------------|
F|-----------------------4/5/7\5\4-------12-12-12/14-11--------|
C|----------------------------------------------------------7~-|
G|-2-----5---5-4---2-----2/3/5\3\2-2-----10-10-10/12-9--5/7----|
D|-0-0-0-3-0-3-2-0-0-0-0-----------0-0-0-----------------------|

D|---------------------------------------------------------------------|
A|---------------------------------------------------------------------|
F|-----------------------4/5/7\5\4-------12-12-12/14-11--------------0-|
C|-----------------------------------------------------------0-----0---|
G|-2-----5---5-4---2-----2/3/5\3\2-2-----10-10-10/12-9-----0---3/5-----|
D|-0-0-0-3-0-3-2-0-0-0-0-----------0-0-0----------------3h5------------|

D|------------------------------------------------|
A|------------------------------------------------|
F|------------------------------------------------|
C|------------------------------------------------| (x2)
G|-7-------7-----6h7-----7-----7-------7----------|
D|-7h8-8-8-8-8-8-7---7-7-7-7-7-7h8-8-8-8h10-10-10-|

D|-----0-----------0-----------------0-|
A|-------0-----------0-----------------|
F|---------4-----------4-------4---4---|
C|---2-------2---2-------2---2---0-----|(x4)
G|-3-----------2-----------3-----------|
D|-------------------------------------|

Outro: (play untill song ends)
D|-------------------------------------------------------|
A|-------------------------------------------------------|
F|-------------------------------------------------------|
C|-------------------------------------------------------|
G|-2---------7-7---------5-5-------------7p5-----5h7-----|
D|-0-0-0-0-0-0-0-0-0-0-0-0-0-0-0-0-0-0-0-----0-0-----0-0-|

Thats all i have folks.
I'm workin on fixingg some things, but other than that it sounds great.

END


Artist: Mastodon
Song: Hunters Of The Sky

Hunters Of The Sky - Mastodon - Blood Mountain (2006)

[Intro][x4]
D--------------------------------|
A--------------------------------|
F--------------------------------|
C---9~-----10~------12~----10~---|
G---9~-----10~------12~----10~---|
D---7~-----8~-------10~----8~----|

[Verse][x6]
F------------------------------------|
A------------------------------------| 
D------------------------------------|
G---9-9-9--9s12s9---9-9-9s10--9s10---|
C---9-9-9--9s12s9---9-9-9s10--9s10---|
D---7-7-7--7s10s7---7-7-7s8---7s8----|

[Pre Chorus][x1]
D--------------------------------------------------|
A--------------------------------------------------|
F---11---------9-----------11------14--13--11--9---|
C---11--10--9--9--10--10---11--10--14--13--11--9---|   x2
G---9---10--9--7--10--10---9---10--12--11--9---7---|
D-------8---7-----8---8--------8-------------------|

D------------------|
A------------------|
F---11-------------|
C---11---11---12---|
G---9----11---12---|
D--------9----10---|

[Verse][x4]

[Chorus][x1]
D-----------------------------------------------------|
A-----------------------------------------------------|
F---12-12--------------------12-12--------------------|
C---12-12---11-11-11s14-15---12-12---11-11-11s14-15---|
G---10-10---11-11-11s14-15---10-10---11-11-11s14-15---|
D-----------9--9---9s12-13-----------9--9---9s12-13---|

D--------------------------|
A--------------------------|
F---12-12------------------|
C---12-12---11---14---11---|
G---10-10---11---14---11---|
D-----------9----12---9----|

D-----------------------------------------------------|
A-----------------------------------------------------|
F---12-12--------------------12-12--------------------|
C---12-12---11-11-11s14-15---12-12---11-11-11s14-15---|
G---10-10---11-11-11s14-15---10-10---11-11-11s14-15---|
D-----------9--9---9s12-13-----------9--9---9s12-13---|

D--------------------------------------|
A--------------------------------------|
F---12-12------------------------------|
C---12-12---11---14---11---------------|
G---10-10---11---14---11---------------|
D-----------9----12---9----7--0--8p7---|

D-------------------------|
A-------------------------|
F-------------------------|
C---14-11-----------------|
G---14-11-----------------|
D---12--9--0--7--0--8p7---|

[Interlude][x1]




D------------------------------------------------------------------------|
A------------------------------------------------------------------------|
F------------------------------------------------------------------------|
C------------------------------------------------------------------------|
G------------------------------------------------------------------------|
D---0-0-0-7-0-8-7-5--0-0-0-7-0-8-7-5--0-0-0-7-0-8-7-5--0-0-0-7-0-8-7-5---|

D------------------------------------------|
A------------------------------------------|
F------------------------------------------|
C------------------------------------------|
G------------------------------------------|
D-0-0-0-10-0-11-10-8--0-0-0-10-0-11-10-8---|

D------------------------------------------|
A------------------------------------------|
F------------------------------------------|
C------------------------------------------|
G------------------------------------------|
D-0-0-0-10-0-11-10-8--0-0-0-10-0-11-10-8---|

D----------------------------------------------|
A----------------------------------------------|
F----------------------------------------------|
C----------------------------------------------|
G----------------------------------------------|
D---0-0-0-12-0-13-12-10--0-0-0-12-0-13-12-10---|

D------------------------------------------|
A------------------------------------------|
F------------------------------------------|
C------------------------------------------|
G------------------------------------------|
D-0-0-0-10-0-11-10-8--0-0-0-10-0-11-10-8---|

D------------------------------------------------------------------------|
A------------------------------------------------------------------------|
F------------------------------------------------------------------------|
C------------------------------------------------------------------------|
G------------------------------------------------------------------------|
D---0-0-0-7-0-8-7-5--0-0-0-7-0-8-7-5--0-0-0-7-0-8-7-5--0-0-0-7-0-8-7-5---|

D---------------------------------------------------------------|
A---------------------------------------------------------------|
F---------------------------------------------------------------|
C---9~-----10~-----12~-----10~-----9~-----10~-----12~-----10~---|
G---9~-----10~-----12~-----10~-----9~-----10~-----12~-----10~---|
D---7~------8~-----10~------8~-----7~------8~-----10~------8~---|

D------------------------------------------------------------------------|
A------------------------------------------------------------------------|
F------------------------------------------------------------------------|
C------------------------------------------------------------------------|
G------------------------------------------------------------------------|
D---0-0-0-7-0-8-7-5--0-0-0-7-0-8-7-5--0-0-0-7-0-8-7-5--0-0-0-7-0-8-7-5---|

D------------------------------------------|
A------------------------------------------|
F------------------------------------------|
C------------------------------------------|
G------------------------------------------|
D-0-0-0-10-0-11-10-8--0-0-0-10-0-11-10-8---|

D------------------------------------------|
A------------------------------------------|
F------------------------------------------|
C------------------------------------------|
G------------------------------------------|
D-0-0-0-10-0-11-10-8--0-0-0-10-0-11-10-8---|

D----------------------------------------------|
A----------------------------------------------|
F----------------------------------------------|
C----------------------------------------------|
G----------------------------------------------|
D---0-0-0-12-0-13-12-10--0-0-0-12-0-13-12-10---|

D------------------------------------------|
A------------------------------------------|
F------------------------------------------|
C------------------------------------------|
G------------------------------------------|
D-0-0-0-10-0-11-10-8--0-0-0-10-0-11-10-8---|

[Chorus][x1]

[Verse][x4]

[Outro][Fading]
D-----------------------|
A-----------------------|
F------------------13---|
C---9~---10---13---13---|
G---9~---10---13---11---|
D---7~---8----11--------|

END

Artist: Mastodon
Song: Hand Of Stone

Hand of stone - mastodon

D tuning

Verse

e-----------------------------|
b-----------------------------|
g-----------------------------|
d-----------------------------|
a-2-x-x-2-5-2-5---------------|  3x
e---------------3-x-x-3-6-3-6-|

e-----------------------------|
b-----------------------------|
g-----------------------------|
d-----------------------------|
a-----------------------------|
e-0-x-x-0-3-0-3-1-x-x-1-4-1-4-|


e-------------------------|
b-------------------------|
g-------------------------|
d-2-2---------1-1---------|   2x
a-----2-2-----------------|
e---------4-4-----4-4-0-0-|
      . . . .     . . . .


e-------------------------|
b-------------------------|
g-------------------------|
d-4-4---------3-3---------|   2x
a-----4-4---------1-1-0-0-|
e---------6-6-------------|
      . . . .     . . . .


e--------------------------|
b--------------------------|
g-------3-4-3-------5-6-5--|
d-2-----1-2-1-4-----3-4-3--|
a---2-----------4----------|
e-----4-----------6--------|


this is a harmony but one of the guitars wasnt fully tabbed
so i decided just to post one of the guitars

e---------------------------------------|
b---------------------------------------|
g-----------1-2---1-2-1---4-2-2-1-2-1---|
d-------2-4-----4-------4-------------4-|
a-2-4-5---------------------------------|
e---------------------------------------|


e---------------------------------------|
b---------------------------------------|
g-----------4-5---4-5-4---7-5-5-4-5-4---|
d-------5-7-----7-------7-------------7-|
a-5-7-8---------------------------------|
e---------------------------------------|


e----------------------------------------------|
b----------------------------------------------|
g----------------------------------------------|
d-------5-----------5-------7-----------7------|
a-5-6-3---6-3-5-6-3---7-8-5---8-5-7-8-5----8-5-|
e----------------------------------------------|

Breakdown


e-------------|
b-------------|
g-------------|
d-2-----1-----|  2x
a---2---------|
e-----4---4-0-|


e-------------|
b-------------|
g-------------|
d-4-----3-----|  2x
a---4-----1-0-|
e-----6-------|

Gtr 1

e---------------------------------------------------------------|
b---------------------------------------------------------------|
g---------------------------------------------------------------|
d-6------5------8------7-----10-------9-------12-------11-------|
a---7-------------8------7------10---------------12-------------|
e-----8-----8-7-----10-----8-------12----12-8-------13----14-10-|


Gtr 2

e-6------5------8-----7-----10-------|
b---6------6------8-----5------10----|
g-----6------6------9-----8-------10-|
d------------------------------------|
a------------------------------------|
e------------------------------------|

e-9------12-------11------14-------13-------|
b---6-------12-------9-------14-------11----|
g------9-------13------10-------15-------14-|
d-------------------------------------------|
a-------------------------------------------|
e-------------------------------------------|

(back to one guitar)

e-------------------------|
b-------------------------|
g-4-4-4-7-5-4-5-5-5-8-----|
d-2-2-2-5-3-2-3-3-3-6-5-7-|
a---------------------3-5-|
e-------------------------|

e-------------------------|
b-------------------------|
g-4-4-4-7-5-4-9-7-5-------|
d-2-2-2-5-3-2-7-5-3-4-5-7-|
a-------------------2-3-5-|
e-------------------------|

SOLO Yeehaw
(dont know if its good but im trusting its gonna be a good start
or its correct)

e----------------------------------------------------------------|
b----------------------------------------------------------------|
g----------------------------------------------------------------|
d----------10-------------10-------12-14-15-14-15-12-12-14-12-15-|
a-11-12-14----12p11h12-14----14-12-------------------------------|
e----------------------------------------------------------------|

e-------------------------------------------------------------|
b-------------------------------------------------12-12-------|
g-10-13-13-10-13----------13-14-14-------13-14-14-------14-16-|
d----------------12-14-15----------14-15----------------------|
a-------------------------------------------------------------|
e-------------------------------------------------------------|


e--------------------------------------------------------------|
b--------------------------------------------------------------|
g-14-13----13--------------------------------------------------|
d-------15----15-13B(15)----12---------------------------------|
a------------------------14----14-12-12-5-8-5---7-5-8-7-8-7-12-|
e---------------------------------------------7----------------|

e-------------------------------------------13----12-11B(13)-|
b-------------------------------12-------12----12------------|
g----------------13-14----14-13----13-14---------------------|
d-------12-15-12-------15------------------------------------|
a-14-12------------------------------------------------------|
e------------------------------------------------------------|

e----12-13-16-12----16-17---16-17-19-17-0-16-17--------------|
b-15-------------15-------0---------------------0-17-15-0-15-|
g------------------------------------------------------------|
d------------------------------------------------------------|
a------------------------------------------------------------|
e------------------------------------------------------------|

e-----------------------------|
b-----------------------------|
g----14-----------------------|
d-16----16-13----12-----------|
a-------------15--------12-14-|
e--------------------15-------|

Outro

e--------------------------------------------------|
b--------------------------------------------------|
g--------------------------------------------------|
d--------------------7-6----------------7-6---10-9-|
a-3-2----------------5-4---------3-2----5-4----8-7-|
e-1-0-00000000000000-----0000000-1-0-00-----00-----|

e---------------------------------------------|
b---------------------------------------------|
g---------------------------------------------|
d--------------------7-6-----------------7-6--|
a---------3-2--------5-4----------3-2----5-4--|
e-0000000-1-0-000000-----00000000-1-0-00------|

e---------------------------|
b---------------------------|
g---------------------------|
d-10-9~~~~~~~~~~~~~~~~~~~~~-|
a--8-7~~~~~~~~~~~~~~~~~~~~~-|
e---------------------------|


Sorry my tab isn't professional like all the other mastodon tabs
but at least its getting on the site

END


Artist: Mastodon
Song: This Mortal Soil

for the first part turn your pickup to 'solo mode' as i call it haha. theres more than 
time to turn it back when the intros over.

intro(x3)
D|----------------------------------------------------------------------------|
A|----------------------------------------------------------------------------|
F|-11s13r11~-11h-13^r-11h-13r-11s-9h-11~-13s15r13-13h-15^r-13h-15r-13s-11h-13-|
C|----------------------------------------------------------------------------|
G|----------------------------------------------------------------------------|
C|----------------------------------------------------------------------------|

bridge(x2)
|D|---------------------------------------------------------------|
|A|---------------------------------------------------------------|
|F|---------------------------------------------------------------|
|C|-4--6---------4--6-6------------4--6----------4--6-6-----------|
|G|-4---7-6-7-4--4------7-6-7-4-6--4----7-6-7-4--4------6-7-6-4-6-|
|C|-4------------4-----------------4-------------4----------------|
|
|D|-----------------------------|        |------------------------------|
|A|-----------------------------|on      |------------------------------|
|F|-----------------------------|second  |------------------------------|
|C|-7--9----------7--9-9-------6|time    |-7--6--4--2-2--6s4s2----------|
|G|-7----7-6-7-9--7------7-6-7--|through |-7--6--4--2-2--6s4s2----------|
|C|-7-------------7-------------|        |-7--6--4--2-2--6s4s2-2-6--2-4-|

D|---|--------------------|  |--------------------|
A|---|--------------------|  |--------------------|    (then first one
F|---|--------------------|  |--------------------|      again for 2)
C|-4-|---------------4-4--|x4|---------------2-2--|x2
G|-4-|-4h6r4r0-------4-4--|  |---------------2-2--|
C|-4-|--------6h9r6s-4-4~-|  |-6h9r6s4-4h6r4-2-2--|

(intro)
                                                   x x   x x   x x   x x
D|--------------------------------|  |------------------------------------|
A|--------------------------------|  |------------------------------------|
F|--------------------------------|  |-----------------11---13----14----16|
C|--------------------------------|x2|------9(x8)-------------------------|
G|----------4--7--9-11^r9h11r9s7h9|  |-7(x8)-----------9----11----12----14|
C|-4--7--9------------------------|  |------------------------------------|

D|----------------------------------------------------------------------|
A|----------------------------------------------------------------------|
F|----------------------------------------------------------------------|
C|-4~-4    -6-6-7-7-9-7-6-6-7-6~--2-4~--11    -9-9-7-7-6-7-6-6-7-6~-2-4~|x2
G|-4~-4(x4)-6-6-7-7-9-7-6-6-7-6~--2-4~--11(x4)-9-9-7-7-6-7-6-6-7-6~-2-4~|
C|-4~-4    -6-6-7-7-9-7-6-6-7-6~--2-4~--11    -9-9-7-7-6-7-6-6-7-6~-2-4~|

breakdown
|D|-----------------------------------------|
|A|-----------------------------------------|
|F|-----------------------------------------|
|C|-4-4-4-4-2-2-4-2-4-4-4-4-2-2-4-2-4-4-4-2-|
|G|-4-4-4-4-2-2-4-2-4-4-4-4-2-2-4-2-4-4-4-2-|
|C|-4-4-4-4-2-2-4-2-4-4-4-4-2-2-4-2-4-4-4-2-|
|
|D|-----------------------------------------|
|A|-----------------------------------------|
|F|-----------------------------------------|
|C|-7-7-7-7-6-6-7-6-7-7-7-7-6-6-7-6-7-7-7-6-|
|G|-7-7-7-7-6-6-7-6-7-7-7-7-6-6-7-6-7-7-7-6-|
|C|-7-7-7-7-6-6-7-6-7-7-7-7-6-6-7-6-7-7-7-6-|

slow breakdown
|D|---------------------------------------------|
|A|---------------------------------------------|
|F|---------------------------------------------|
|C|---------------------------------------------|
|G|---------------------------------------3---3-|
|C|-7~-7-9-10-12~-12-10-9-10r9s7~-7-9r7s5---5---|
|




|D|-----------------------------------------|
|A|-----------------------------------------|
|F|-----------------------------------------|
|C|-----------------------------------------|
|G|-----------------------------------o-----|o
|C|-4~-4-6-7~-s9-9-7-6-7r6s4~-4-6r4s2---2---|

breakdown

bridge

END


Artist: Mastodon
Song: Siberian Divide

----------------------------------------------------------------------------
			  Siberian Divide - Mastodon
----------------------------------------------------------------------------
Tabbed by: DeathTribble
Email:

Tuning:DGCFAD

Intro/First Verse
D|---------0---------0---3-------| 
A|-----4-----4-----0---0----0----|
F|-4h5---5-----5-4------------4--|
C|-------------------------------|
G|-------------------------------|
D|-------------------------------|

D|-----0----8-------------0----------|
A|---0---0----10--------9---9--------|
F|-9-------------9-9/10-------12-10--|
C|-----------------------------------|
G|-----------------------------------|
D|-----------------------------------|

      Fill                         Chorus
D|----------------------------------------------------|
A|----------------------------------------------------|
F|-4--------------------------------------------------|
C|-2-7-5-4-------------9--------------9---------------|
G|---5-3-2-5-3-2-------7---8---10-8---7---8---10-8----|
D|---------3-1-0---------0-6-0-8--6-0---0-6-0-8--6-0--|

         Chorus (Cont.)
D|---------------------------------------------|
A|---------------------------------------------|
F|------------------------------4--------------|
C|------------------------------2-7-5-4--------|
G|-2---3---5-3-----3---5-3--------5-3-2-5-3-2--|
D|-0-0-1-0-3-1-0-0-1-0-3-1--------------3-1-0--|

 Second Verse
D|-----0---7---------0---7---------0---7---------0---7------|
A|---8---8---8-----8---8---8-----8---8---8-----8---8---8----|
F|-9-----------9-9-----------9-9-----------9-9-----------9--|
C|----------------------------------------------------------|
G|----------------------------------------------------------|
D|----------------------------------------------------------|

D|-----0---2---------0---2---------0---2---------0---2------|
A|---0---0---3-----0---0---3-----0---0---3-----0---0---3----|
F|-4-----------4-4-----------4-4-----------4-4-----------4--|
C|----------------------------------------------------------|
G|----------------------------------------------------------|
D|----------------------------------------------------------|

D|-----0---7---------0---7---------0---7---------0---7------|
A|---8---8---8-----8---8---8-----8---8---8-----8---8---8----|
F|-9-----------9-9-----------9-9-----------9-9-----------9--|
C|----------------------------------------------------------|
G|----------------------------------------------------------|
D|----------------------------------------------------------|

D|-------12----14-------------12----14-------------12----14-------------12-|
A|----12----12----15-------12----12----15-------12----12----15-------12----|
F|-16----------------16-16----------------16-16----------------16-16-------|
C|-------------------------------------------------------------------------|
G|-------------------------------------------------------------------------|
D|-------------------------------------------------------------------------|

Bridge
D|--------------------------------------------------------------|
A|--------------------------------------------------------------|
F|--------------------------------------------------------------|
C|--------------------------------------------------------------|
G|-5---7---5-----5---7---5-----5---7---5-----5---7---5----------|
D|---0---0---4-7---0---0---4-7---0---0---4-7---0---0---4-5-7-8--|

D|------------------------------------------------------------|
A|------------------------------------------------------------|
F|------------------------------------------------------------|
C|-----6-------------6-------------6-------------6------------|
G|-5-------5-6---5-------5-6---5-------5-6---5-------------5--|
D|---0---0-----0---0---0-----0---0---0-----0---0---0-5-7-8----|

D|-------------------------------------------------------------------|
A|-------------------------------------------------------------------|
F|-------------------------------------------------------------------|
C|-------9--------------9---------------9--------------------7-------|
G|-----7-------7-9----7-------7-9-----7-------7-9-----7-9-10---10-9--|
D|-7h8-----7h8-----7h8----7h8-----7h8-----7h8-----7h8----------------|

 First End
D|-------------------|
A|-------------------|
F|-------------------|
C|-------------------|
G|-----7-9-10-9-7----|
D|-7h8------------8--|

 Second Ending
D|-----------------------------------------------------------------------|
A|-----------------------------------------------------------------------|
F|-----------------------------------------------------------------------|
C|-----------------------------7-----------------------------------------|
G|-----7-9-10-9-7-------7-9-10---10-9-----7-9-10-9-7------------7-5-3-2--|
D|-7h8------------8-7h8---------------7h8------------10-8-7-5-3----------|

D|----------|
A|----------|
F|----------|
C|----------|
G|----------|
D|-5-3-1-0--|

D|-----------1--------------0--------------1-------------|
A|-----------1--------------0--------------1-------------|
F|-------------------------------------------------------|
C|-7-\-\-\-3------7-\-\-\-3------7-\-\-\-3------3-3-2-2--|
G|-7-\-\-\-3------7-\-\-\-3------7-\-\-\-3------3-3-2-2--|
D|-5-\-\-\-1------5-\-\-\-1------5-\-\-\-1------1-1-0-0--|

D|----------------------------------------------------------|
A|----------------------------------------------------------|
F|----------------------------------------------------------|
C|-----------5-3-----------5-------------6-------------6----|
G|---5---7---------5---7-----6---5---7-----7---5---7-----7--|
D|-0---0---0-----0---0---0-----0---0---0-----0---0---0------|

D|-----------------------------------------------------------------------|
A|-----------------------------------------------------------------------|
F|-----------------------------------------------------------------------|
C|-----------------------------------------------------------------------|
G|-----------------------------------------------------------------------|
D|-13-0-13-0-13-0-13-0-10-10-0-10-0-0-13-0-13-12-0-12-0-0-0-0-15-0-0-15--|

D|----------|
A|----------|
F|----------|
C|----------|
G|----------|
D|-0-0-0-0--|

D|-----------------------------------------------------------------------|
A|-----------------------------------------------------------------------|
F|-----------------------------------------------------------------------|
C|-----------------------------------------------------------------------|
G|-15---15---15---15---12-12---12-----15---15-14---14---------13-----13--|
D|-13-0-13-0-13-0-13-0-10-10-0-10-0-0-13-0-13-12-0-12-0-0-0-0-15-0-0-15--|





D|----------|
A|----------|
F|----------|
C|----------|
G|----------|
D|-0-0-0-0--|

D|----------------------------------------|
A|----------------------------------------|
F|----------------------------------------|
C|-10/12\10-9---------10/12\10-9----------|
G|-8-/10\8--7---------8-/10\8--7----------|
D|-8-/10\8--7-0-0-0-0-8-/10\8--7-0-0-0-0--|

D|-----------1--------------0--------------1-------------|
A|-----------1--------------0--------------1-------------|
F|-------------------------------------------------------|
C|-7-\-\-\-3------7-\-\-\-3------7-\-\-\-3------3-3-2-2--|
G|-7-\-\-\-3------7-\-\-\-3------7-\-\-\-3------3-3-2-2--|
D|-5-\-\-\-1------5-\-\-\-1------5-\-\-\-1------1-1-0-0--|

| /  slide up
| \  slide down
| h  hammer-on
| p  pull-off
| ~  vibrato
| +  harmonic
| x  Mute note
============================================================================



END


Artist: Mastodon
Song: Pendulous Skin

PENDULOUS SKIN
As recorded by Mastodon
(From the 2006 Album BLOOD MOUNTAIN)

Transcribed by Tom Wall

Words and Music by Mastodon

Gtr I (D G C F A D) - 'Acoustic'
Gtr II (D G C F A D) - 'Distortion I'
Gtr III (D G C F A D) - 'Distortion II'
Gtr IV (D G C F A D) - 'Distortion III'
Gtr V (D G C F A D) - 'Acoustic II'

   Intro
    Q=153
    Dmadd9/Eb                           Dmadd9
   5/4                   3/4           5/4                   3/4
    Gtr I
    E E E E E E E E E E   E E E E E E   E E E E E E E E E E   E E E E E E
||----------------0-----|-------------|---------------0-----|--------------||
||o---------6-------6---|---------6---|---------6-------6---|---------6---o||
||------7-----7-------7-|-----7-----7-|-----7-----7-------7-|-----7-----7--||
||----0---0-----0-------|---0---0-----|---0---0-----0-------|---0---0------||
||o-6-------------------|-6-----------|-5-------------------|-5-----------o||
||----------------------|-------------|---------------------|--------------||


  Bb    Aadd11Dm7/F E5              Amadd9
 12/8                          7/8               9/8
  E E E E E E E E E E E E  a     E  E E E E E E   E E E E E E E E E
|-----------------------------|-----------7-----|---------------7---|
|-----------------------------|-------------0---|---------0-------0-|
|-----------------------------|-------5-------5-|-----5-----5-------|
|-----0-----0-----0-----2-(2)s|=(7)-7---7-------|---7---7-----7-----|
|---5-----4-----3-----2-------|-----------------|-0-----------------|
|-6-----5-----1-----0---------|-----------------|-------------------|


                                       1.
    G                                   Amadd9
   7/8             9/8                 7/8             9/8
    E E E E E E E   E E E E E E E E E   E E E E E E E   E E E E E E E E E
||----------7-----|---------7---------|---------7-----|---------------7----||
||o-----0-----0---|-----0-----0-----0-|-----------0---|---------0-------0-o||
||----7---7-----7-|---7---7-----7-----|-----5-------5-|-----5-----5--------||
||--5-------------|-5-------------5---|---7---7-------|---7---7-----7------||
||o---------------|-------------------|-0-------------|-0-----------------o||
||----------------|-------------------|---------------|--------------------||


  2.
  Gmaj7          D6                    Gmaj7         D6
 6/8            10/8                  6/8           10/8
   E E E E E E   E E E E E E E E E E   E E E E E E   E E E E E E E E E E
|------2-----2-|-----------------0---|-----2-----2-|-----------------0----|
|----------0---|-------7-----7-----0-|---------0---|-------7-----7-----0--|
|----4---4-----|-----------4---------|---4---4-----|-----------4----------|
|-/5-----------|---0-----0-----0-----|-5-----------|---0-----0-----0------|
|--------------|-5---5---------------|-------------|-5---5----------------|
|--------------|---------------------|-------------|----------------------|


  Gmaj7/B         Cmaj9               Gmaj7/B         Cmaj9
 7/8             9/8                 7/8             9/8
  E E E E E E E   E E E E E E E E E   E E E E E E E   E E E E E E E E E
|---------------|-------------0-----|---------------|-------------0------|
|---------0-----|---------3-----3---|---------0-----|---------3-----3----|
|-----0-----0---|-----4-----------4-|-----0-----0---|-----4-----------4--|
|---4---4-----4-|---2---2---2-------|---4---4-----4-|---2---2---2--------|
|-2-------------|-3-----------------|-2-------------|-3------------------|
|---------------|-------------------|---------------|--------------------|


  Q=111           H=H                                          Q=127

  Dadd11/F#                       Fadd9/A
 6/8
  E E E S S E E   E E E S S E E     E  E E S S E E   E E E S S E +e
|-------2p0-----|-------2p0-----|----------5p0-----|-------5p0--------|
|-----3-----3---|-----3-----3---|-/(6)---6-----6---|-----6-----6-(6)--|
|---0---------0-|---0---------0-|------0---------0-|---0--------------|
|-4-------------|-4-------------|--/7--------------|-7----------------|
|---------------|---------------|------------------|------------------|
|---------------|---------------|------------------|------------------|


  Q=141      H=H                                                   Q=280
  A7/C#
 5/8               8/8
      |----5----|   |----5----| |----5----|   |----5----| |----5----|
    E E E  E E  E   E E  E E  E E E  E E  E   E E  E E  E E E  E E  E
|-----9p0---------|-9p0---------9p0---------|-9p0---------9p0---------|
|---------10------|-----10----------10------|-----10----------10------|
|------------0----|--------0-----------0----|--------0-----------0----|
|-/11----------11-|----------11----------11-|----------11----------11-|
|-----------------|-------------------------|-------------------------|
|-----------------|-------------------------|-------------------------|


  Q=20H.=H                              Q=9H=H
  |----5----| |----5----|   |----5----|
  E E  E E  E E E  E E  E   E E  E E  E Q  +Q
|-9p0---------9p0---------|-9p0-----------------|
|-----10----------10------|-----10--------------|
|--------0-----------0----|--------0------------|
|----------11----------11-|----------11---------|
|-------------------------|-------------0--(0)--|
|-------------------------|---------------------|


  Q.=118
  Bmadd11/F#
 12/8
  E +E  E +E  E E H        +E  E   Q  E Q  E E E E Q  E
|-----------------0--------(0)---|-----------0----------||
|--------------------------------|-------------0--------||
|-------------7----------------7-|------7--------7------||
|-------9-(9)---9----------------|----9----9-------9----||
|-9-(9)--------------------------|-9--------------------||
|--------------------------------|--------------------7-||
|
| Gtr II
| E +E  E +E  E E Q.   +Q.         Q  E Q  E E E E Q  E
|-----------------0----(0)-------|-----------0----------||
|--------------------------------|-------------0--------||
|-------------7------------------|------7--------7------||
|-------9-(9)---9----------------|----9----9-------9----||
|-9-(9)--------------------------|-9--------------------||
|--------------------------------|--------------------7-||


 Verse
  Em
  Gtr I
  Q.   Q.    Q  E +Q    E   +Q   E Q   E Q  E Q   E
|-----------^9--7-(7)-----|--------------7----------|
|-----------^8--8-(8)---7-|-(7)--8-7--------8-------|
|-----------^9--9-(9)-----|-------------------9-----|
|-----------^9--9-(9)-----|------------9----------9-|
|-----------^7--7-(7)-----|-------------------------|
|-0----0------------------|-------------------------|
|
| Gtr II
| Q.   Q.    Q  E +Q    E   +Q   E Q   E Q  E Q   E







|-----------^9--7-(7)-----|--------------7----------|
|-----------^8--8-(8)---7-|-(7)--8-7--------8-7-----|
|-----------^9--9-(9)-----|-------------------------|
|-----------^9--9-(9)-----|------------9----------9-|
|-----------^7--7-(7)-----|-------------------------|
|-0----0------------------|-------------------------|
|
| Gtr III
|                     >
| Q.   Q.    Q  Q     Q      Q   Q   Q   Q  Q   Q
|-----------^7--7-----7---|--7---7---7---7--7---7---|
|-----------^8--8-----8---|--8---8---8---8--8---8---|
|-----------^9--9-----9---|--9---9---9---9--9---9---|
|-----------^9--9-----9---|--9---9---9---9--9---9---|
|-----------^7--7-----7---|--7---7---7---7--7---7---|
|-0----0------------------|-------------------------|


  Bmadd11
  Q  E +E  E E Q  E Q  E   Q  E Q  E E E E Q  E
|--------------0---------|-----------0-------------|
|--------------0---------|-------------0-----------|
|----------7------7----7-|------7--------7---------|
|----9-(9)---9------9----|----9----9-------9-------|
|-9----------------------|-9------------------9----|
|------------------------|-------------------------|
|
| Q  E +E  E E Q  E Q  E   Q  E Q  E E E E Q  E
|--------------0---------|-----------0-------------|
|--------------0---------|-------------0-----------|
|----------7------7----7-|------7--------7---------|
|----9-(9)---9------9----|----9----9-------9-------|
|-9----------------------|-9------------------9----|
|------------------------|-------------------------|
|
| W                        W
|------------------------|-------------------------|
|------------------------|-------------------------|
|------------------------|-------------------------|
|------------------------|-------------------------|
|------------------------|-------------------------|
|------------------------|-------------------------|


  Em
  Q.   Q.    Q  E Q   E   +Q   E Q   E Q  E Q   E
|-----------^9--7-------|--------------7----------|
|-----------^8--8-----7-|-(7)--8-7--------8-------|
|-----------^9--9-------|-------------------9-----|
|-----------^9--9-------|------------9----------9-|
|------7----^7--7-------|-------------------------|
|-0----0----------0-----|-------------------------|
|
| Q.   Q.    Q  E Q   E   +Q   E Q   E Q  E Q   E
|-----------^9--7-------|--------------7----------|
|-----------^8--8-----7-|-(7)--8-7--------8-7-----|
|-----------^9--9-------|-------------------------|
|-----------^9--9-------|------------9----------9-|
|------7----^7--7-------|-------------------------|
|-0----0----------0-----|-------------------------|
|
|                   >
| Q.   Q.    Q  Q   Q      Q   Q   Q   Q  Q   Q
|-----------^7--7---7---|--7---7---7---7--7---7---|
|-----------^8--8---8---|--8---8---8---8--8---8---|
|-----------^9--9---9---|--9---9---9---9--9---9---|
|-----------^9--9---9---|--9---9---9---9--9---9---|
|-----------^7--7---7---|--7---7---7---7--7---7---|
|-0----0----------------|-------------------------|


  Badd11         Cmaj7                            C#m7/F#
  Q  E Q  E Q  E  Q.      +Q   E Q  E  Q   E  Q   E



|------0----0----------|-------0-----------------------|
|---------0-0----------|---------0---------------------|
|-----------8-----x----|--(x)-------9------------------|
|----9------9--9-10----|-(10)---------10---------------|
|-----------9----10----|-(10)-------------10-10\--4----|
|-7---------7-----8----|--(8)--------------8--8\--2----|
|
| Q  E Q  E Q  E  Q.      +Q   E Q  E  Q   E  Q   E
|------0---------------|-------0-----------------------|
|---------0------------|---------0---------------------|
|-----------8----------|------------9------------------|
|----9------9--9-10----|-(10)---------10---------------|
|-----------9----10----|-(10)-------------10-10\--4----|
|-7---------7-----8----|--(8)--------------8--8\--2----|
|
| W                        W
|----------------------|-------------------------------|
|----------------------|-------------------------------|
|----------------------|-------------------------------|
|----------------------|-------------------------------|
|----------------------|-------------------------------|
|----------------------|-------------------------------|


                   G                             Am
 9/8              12/8
  Q  E Q  E Q  E   E E E E E E E E E E  a  E E   E  +E  E E E E  Q.    +Q    E
|------0---------|-----------------------------|-------------------------------|
|----0----0------|-----------------0---------3-|-----------------------------8-|
|----------------|-----------0-0h2---3-(3)s4---|-------------------------------|
|--------------4-|-----0-0h2-------------------|------------5----5-----(5)-----|
|-4---------4----|---0-------------------------|--------5h7---7----------------|
|-2---------2----|-2---------------------------|-5--(5)------------------------|
|
| Q  E Q  E Q  E   E E E E E E E E E E  a  E E   E  +E  E E E E  Q.    +Q    E
|------0---------|-----------------------------|-------------------------------|
|----0----0------|-----------------0---------3-|-----------------------------8-|
|----------------|-----------0-0h2---3-(3)s4---|-------------------------------|
|--------------4-|-----0-0h2-------------------|------------5----5-----(5)-----|
|-4---------4----|---0-------------------------|--------5h7---7----------------|
|-2---------2----|-2---------------------------|-5--(5)------------------------|
|
|                                                                          >
| W                W                             H.              Q   Q     Q
|----------------|-----------------------------|-------------------------------|
|----------------|-----------------------------|----------------^8---8-----8---|
|----------------|-----------------------------|----------------^7---7-----7---|
|----------------|-----------------------------|----------------^5---5-----5---|
|----------------|-----------------------------|-------------------------------|
|----------------|-----------------------------|-5-----------------------------|


  E  a  E E E  a   E  E  E   a  E  E E  a  E E
|--------------------------------------------0---|
|---------8----------13-----------10---------0---|
|-7-(7)s9---9-(9)s12----12-(12)s9----9-(9)s7-----|
|------------------------------------------------|
|------------------------------------------------|
|------------------------------------------------|
|
| E  a  E E E  a   E  E  E   a  E  E E  a  E E
|--------------------------------------------0---|
|---------8----------13-----------10---------0---|
|-7-(7)s9---9-(9)s12----12-(12)s9----9-(9)s7-----|
|------------------------------------------------|
|------------------------------------------------|
|------------------------------------------------|
|
| Q       Q        Q     Q         Q       Q
|------------------------------------------------|
|-8-------8--------8-----8---------8-------8-----|
|-7-------7--------7-----7---------7-------7-----|
|-5-------5--------5-----5---------5-------5-----|
|------------------------------------------------|
|------------------------------------------------|


  Gmaj7
  H.       E E E  E  E E   E E E E E  a  E E E  a  E E E E
|----------2p0-----------|---------------------------------|
|--------------3p(0)-----|-----------------0---------------|
|--------------------4p0-|-2p0---0h2-(2)s4---4-(4)s2p0h2p0-|
|------------------------|-----4---------------------------|
|------------------------|---------------------------------|
|-3----------------------|---------------------------------|
|
| H.       E E E  E  E E   E E E E E  a  E E E  a  E E E E
|----------2p0-----------|---------------------------------|
|--------------3---------|-----------------0---------------|
|--------------------4p0-|-2p0---0h2-(2)s4---4-(4)s2p0h2p0-|
|------------------------|-----4---------------------------|
|------------------------|---------------------------------|
|-3----------------------|---------------------------------|
|
|                    >
| H.       Q   Q     Q     Q   Q   Q       Q       Q   Q
|---------^2---2-----2---|-2---2---2-------2-------2---2---|
|---------^3---3-----3---|-3---3---3-------3-------3---3---|
|---------^0---0-----0---|-0---0---0-------0-------0---0---|
|---------^0---0-----0---|-0---0---0-------0-------0---0---|
|------------------------|---------------------------------|
|-3----------------------|---------------------------------|


  Am
   Q.   Q  E  S  E. S  E. +E  E   Q     E Q     E Q     E Q.
|-------------5-(5)-5-(5)-(5)-5-|-------5-------5-------5--------|
|-------------5-(5)-5-(5)-(5)---|-3b5-----3b5-----3b5------------|
|-------------5h=7--5h=7--(7)---|--------------------------------|
|-------------7-(7)-7-(7)-(7)---|--------------------------------|
|-------------------------------|--------------------------------|
|-/5----5--5--------------------|--------------------------------|
|
|  Q.   Q  E  S  E. S  E. +E  E   E   E E E   E E E   E E E E E
|-------------5-(5)-5-(5)-(5)-5-|-------5-------5-------5--------|
|-------------5-(5)-5-(5)-(5)---|--------------------------------|
|-------------5h=7--5h=7--(7)---|-5h==7---5h==7---5h==7----------|
|-------------7-(7)-7-(7)-(7)---|-------------------------5h7-5--|
|-------------------------------|--------------------------------|
|-/5----5--5--------------------|--------------------------------|
|
|                          >
|  H.         Q     Q      Q      Q     Q     Q   Q     Q   Q
|------------^5-----5------5----|-5-----5-----5---5-----5---5----|
|------------^5-----5------5----|-5-----5-----5---5-----5---5----|
|------------^7-----7------7----|-7-----7-----7---7-----7---7----|
|------------^7-----7------7----|-7-----7-----7---7-----7---7----|
|------------^5-----5------5----|-5-----5-----5---5-----5---5----|
|--5----------------------------|--------------------------------|


  Gmaj7                                N.C.
  Q.   Q.    Q  E +Q    E   +H.        Q   Q   Q
|------------2--2-(2)---2-|-(2)-------------------||
|------------3--3-(3)---3-|-(3)-------------------||
|------------0--0-(0)---0-|-(0)--------7---9--11--||
|------------0--0-(0)---0-|-(0)--------x---x---x--||
|------------x--x-(x)---x-|-(x)--------5---7---9--||
|-3----3-----3--3-(3)---3-|-(3)-------------------||
|
| Q.   Q.    Q  E +Q    E   +H.        Q   Q   Q
|------------2--2-(2)---2-|-(2)-------------------||
|------------3--3-(3)---3-|-(3)-------------------||
|------------0--0-(0)---0-|-(0)--------7---9--11--||
|------------0--0-(0)---0-|-(0)--------x---x---x--||
|------------x--x-(x)---x-|-(x)--------5---7---9--||
|-3----3-----3--3-(3)---3-|-(3)-------------------||
|
|                     >
| H.         Q  Q     Q      Q   Q  Q  H.


|-----------^2--2-----2---|--2---2--2-------------||
|-----------^3--3-----3---|--3---3--3-------------||
|-----------^0--0-----0---|--0---0--0-------------||
|-----------^0--0-----0---|--0---0--0-------------||
|-------------------------|-----------------------||
|-3-----------------------|-----------------------||


 Chorus
  G6                                N.C.
  Gtr I
   Q  Q  E E Q  E Q  E    Q  E Q  E Q  Q   Q
|------------0---------|----------------------|
|----------0-0---------|-------0--------------|
|--------7------7----7-|------------7--9--10--|
|-----9-----------9----|-----9----9-x--x---x--|
|-10-------------------|-10---------5--7---8--|
|----------------------|----------------------|
|
| Gtr II
|  Q  Q  E E Q  E Q  E    Q  E Q  E Q  Q   Q
|------------0---------|----------------------|
|----------0-0---------|-------0--------------|
|--------7------7----7-|------------7--9--10--|
|-----9-----------9----|-----9----9-x--x---x--|
|-10-------------------|-10---------5--7---8--|
|----------------------|----------------------|


  Bmadd11/F#                      N.C.
  Q  Q  E E Q  E Q  E   Q  E Q  E  Q   Q   Q
|-----------0---------|-------------------------||
|---------0-----------|------0----12------------||
|-------7------7----7-|------------x--12--11----||
|----9-----------9----|----9----9--9---x---x----||
|-9-------------------|-9-------------10---9----||
|---------------------|-------------------------||
|
| Q  Q  E E Q  E Q  E   Q  E Q  E  Q   Q   Q
|-----------0---------|-------------------------||
|---------0-----------|------0----12------------||
|-------7------7----7-|------------x--12--11----||
|----9-----------9----|----9----9--9---x---x----||
|-9-------------------|-9-------------10---9----||
|---------------------|-------------------------||


 Verse
  Em
   Q.   Q.    Q  E +Q    E   +Q   E Q   E Q  E Q   E
|------------^9--7-(7)-----|--------------7----------|
|------------^8--8-(8)---7-|-(7)--8-7--------8-------|
|-/9---------^9--9-(9)-----|-------------------9-----|
|--x---------^9--9-(9)-----|------------9----------9-|
|-/7---------^7--7-(7)-----|-------------------------|
|-------0------------------|-------------------------|
|
|  Q.   Q.    Q  E  Q    E   +Q   E Q   E Q  E Q   E
|------------^9--7---------|--------------7----------|
|------------^8--8-------7-|-(7)--8-7--------8-7-----|
|-/9---------^9--9---------|-------------------------|
|--x---------^9--9---------|------------9----------9-|
|-/7---------^7--7---------|-------------------------|
|-------0-----------0------|-------------------------|
|
| Gtr III
|                      >
|  H.         Q  Q     Q      Q   Q   Q   Q  Q   Q
|------------^7--7-----7---|--7---7---7---7--7---7---|
|------------^8--8-----8---|--8---8---8---8--8---8---|
|------------^9--9-----9---|--9---9---9---9--9---9---|
|------------^9--9-----9---|--9---9---9---9--9---9---|
|------------^7--7-----7---|--7---7---7---7--7---7---|
|--------------------------|-------------------------|


  Bmadd11
  Q  E +E  E E Q  E Q  E   Q  E Q  E E E E Q  E
|--------------0---------|-----------0-------------|
|--------------0---------|-------------0-----------|
|----------7------7----7-|------7--------7---------|
|----9-(9)---9------9----|----9----9-------9-------|
|------------------------|-9------------------9----|
|-7----------------------|-------------------------|
|
| Q  E +E  E E Q  E Q  E   Q  E Q  E E E E Q  E
|--------------0---------|-----------0-------------|
|--------------0---------|-------------0-----------|
|----------7------7----7-|------7--------7---------|
|----9-(9)---9------9----|----9----9-------9-------|
|-9----------------------|-9------------------9----|
|------------------------|-------------------------|
|
| W                        W
|------------------------|-------------------------|
|------------------------|-------------------------|
|------------------------|-------------------------|
|------------------------|-------------------------|
|------------------------|-------------------------|
|------------------------|-------------------------|


  Em
  Q.   Q.    Q  E +Q    E   +Q   E Q   E Q  E Q   E
|-----------^9--7-(7)-----|--------------7----------|
|-----------^8--8-(8)---7-|-(7)--8-7--------8-------|
|-----------^9--9-(9)-----|-------------------9-----|
|-----------^9--9-(9)-----|------------9----------9-|
|------7----^7--7-(7)-----|-------------------------|
|-0----0------------------|-------------------------|
|
| Q.   Q.    Q  E  Q    E   +Q   E Q   E Q  E Q   E
|-----------^9--7---------|--------------7----------|
|-----------^8--8-------7-|-(7)--8-7--------8-------|
|-----------^9--9---------|-------------------9-----|
|-----------^9--9---------|------------9----------9-|
|------7----^7--7---------|-------------------------|
|-0----------------0------|-------------------------|
|
|                     >
| H.         Q  Q     Q      Q   Q   Q   Q  Q   Q
|-----------^7--7-----7---|--7---7---7---7--7---7---|
|-----------^8--8-----8---|--8---8---8---8--8---8---|
|-----------^9--9-----9---|--9---9---9---9--9---9---|
|-----------^9--9-----9---|--9---9---9---9--9---9---|
|-----------^7--7-----7---|--7---7---7---7--7---7---|
|-------------------------|-------------------------|


  Badd11         Cmaj7                           C#m7/F#
  Q  E Q  E Q  E  Q.      +Q   E Q  E  Q   E  Q  E
|------0---------------|-------0----------------------|
|---------0------------|---------0--------------------|
|-----------8-----x----|--(x)-------9-----------------|
|----9------9--9-10----|-(10)---------10--------------|
|-----------9----10----|-(10)-------------10-10--4----|
|-7---------7-----8----|--(8)--------------8--8--2----|
|
| Q  E Q  E Q  E  Q.      +Q   E Q  E  Q   E  Q  E
|------0---------------|-------0----------------------|
|---------0------------|---------0--------------------|
|-----------8----------|------------9-----------------|
|----9------9--9-10----|-(10)---------10--------------|
|-----------9----10----|-(10)-------------10-10--4----|
|-7---------7-----8----|--(8)--------------8--8--2----|
|
| W                        W





|----------------------|------------------------------|
|----------------------|------------------------------|
|----------------------|------------------------------|
|----------------------|------------------------------|
|----------------------|------------------------------|
|----------------------|------------------------------|


                   G                             Am
 9/8              12/8
  Q  E Q  E Q  E   E E E E E E E E E E  a  E E   E  +E  E E E E  Q.    +Q    E
|------0---------|-----------------------------|-------------------------------|
|----0----0------|-----------------0---------3-|-----------------------------8-|
|----------------|-----------0-0h2---3-(3)s4---|-------------------------------|
|--------------4-|-----0-0h2-------------------|------------5----5-----(5)-----|
|-4---------4----|---0-------------------------|--------5h7---7----------------|
|-2---------2----|-2---------------------------|-5--(5)------------------------|
|
| Q  E Q  E Q  E   E E E E E E E E E E  a  E E   E  +E  E E E E  Q.    +Q    E
|------0---------|-----------------------------|-------------------------------|
|----0----0------|-----------------0---------3-|-----------------------------8-|
|----------------|-----------0-0h2---3-(3)s4---|-------------------------------|
|--------------4-|-----0-0h2-------------------|------------5----5-----(5)-----|
|-4---------4----|---0-------------------------|--------5h7---7----------------|
|-2---------2----|-2---------------------------|-5--(5)------------------------|
|
|                                                                          >
| W                W                             H.              Q   Q     Q
|----------------|-----------------------------|-------------------------------|
|----------------|-----------------------------|----------------^8---8-----8---|
|----------------|-----------------------------|----------------^7---7-----7---|
|----------------|-----------------------------|----------------^5---5-----5---|
|----------------|-----------------------------|-------------------------------|
|----------------|-----------------------------|-5-----------------------------|


  E  a  E E E  a   E  E  E   a   E  E  E   a   E E
|------------------------------------------------0---|
|---------8----------13------------15------------0---|
|-7-(7)s9---9-(9)s12----12-(12)s14----14-(14)s16-----|
|----------------------------------------------------|
|----------------------------------------------------|
|----------------------------------------------------|
|
| E  a  E E E  a   E  E  E   a   E  E  E   a   E E
|------------------------------------------------0---|
|---------8----------13------------15------------0---|
|-7-(7)s9---9-(9)s12----12-(12)s14----14-(14)s16-----|
|----------------------------------------------------|
|----------------------------------------------------|
|----------------------------------------------------|
|
| Q       Q        Q     Q          Q          Q
|----------------------------------------------------|
|-8-------8--------8-----8----------8----------8-----|
|-7-------7--------7-----7----------7----------7-----|
|-5-------5--------5-----5----------5----------5-----|
|----------------------------------------------------|
|----------------------------------------------------|


  Gmaj7
  H.       E E E E E E   E E E E E  a  E E E  a  E E E E
|----------2p0---------|---------------------------------|
|--------------3p0-----|-----------------0---------------|
|------------------4p0-|-2p0---0h2-(2)s4---4-(4)s2p0h2p0-|
|----------------------|-----4---------------------------|
|----------------------|---------------------------------|
|-3--------------------|---------------------------------|
|
| H.       E E E E E E   E E E E E  a  E E E  a  E E E E





|----------2p0---------|---------------------------------|
|--------------3p0-----|-----------------0---------------|
|------------------4p0-|-2p0---0h2-(2)s4---4-(4)s2p0h2p0-|
|----------------------|-----4---------------------------|
|----------------------|---------------------------------|
|-3--------------------|---------------------------------|
|
|                  >
| H.       Q   Q   Q     Q   Q   Q       Q       Q   Q
|---------^2---2---2---|-2---2---2-------2-------2---2---|
|---------^3---3---3---|-3---3---3-------3-------3---3---|
|---------^0---0---0---|-0---0---0-------0-------0---0---|
|---------^0---0---0---|-0---0---0-------0-------0---0---|
|----------------------|---------------------------------|
|-3--------------------|---------------------------------|


  Am
   Q.   Q  E  S  E. S  E. +E  E   Q     E Q     E Q     E Q.
|-------------5-(5)-5-(5)-(5)-5-|-------5-------5-------5--------|
|-------------5-(5)-5-(5)-(5)---|-3b5-----3b5-----3b5------------|
|-------------5h=7--5h=7--(7)---|--------------------------------|
|-------------7-(7)-7-(7)-(7)---|--------------------------------|
|-------------------------------|--------------------------------|
|-/5----5--5--------------------|--------------------------------|
|
|  Q.   Q  E  S  E. S  E. +E  E   E   E E E   E E E   E E E E E
|-------------5-(5)-5-(5)-(5)-5-|-------5-------5-------5--------|
|-------------5-(5)-5-(5)-(5)---|--------------------------------|
|-------------5h=7--5h=7--(7)---|-5h==7---5h==7---5h==7----------|
|-------------7-(7)-7-(7)-(7)---|-------------------------5h7-5--|
|-------------------------------|--------------------------------|
|-/5----5--5--------------------|--------------------------------|
|
|                          >
|  H.         Q     Q      Q      Q     Q     Q   Q     Q   Q
|------------^5-----5------5----|-5-----5-----5---5-----5---5----|
|------------^5-----5------5----|-5-----5-----5---5-----5---5----|
|------------^7-----7------7----|-7-----7-----7---7-----7---7----|
|------------^7-----7------7----|-7-----7-----7---7-----7---7----|
|------------^5-----5------5----|-5-----5-----5---5-----5---5----|
|--5----------------------------|--------------------------------|


  Gmaj7                                   N.C.
  Q.   Q.    Q  E +Q    E   +Q   E +Q.    Q   Q   Q
|------------2--2-(2)---2-|-(2)--2-(2)---------------||
|------------3--3-(3)---3-|-(3)--3-(3)---------------||
|------------0--0-(0)---0-|-(0)--0-(0)----7---9--11--||
|------------0--0-(0)---0-|-(0)--0-(0)----x---x---x--||
|------------x--x-(x)---x-|-(x)--x-(x)----5---7---9--||
|-3----3-----3--3-(3)---3-|-(3)--3-(3)---------------||
|
| Q.   Q.    Q  E +Q    E   +H.           Q   Q   Q
|------------2--2-(2)---2-|-(2)----------------------||
|------------3--3-(3)---3-|-(3)----------------------||
|------------0--0-(0)---0-|-(0)-----------7---9--11--||
|------------0--0-(0)---0-|-(0)-----------x---x---x--||
|------------x--x-(x)---x-|-(x)-----------5---7---9--||
|-3----3-----3--3-(3)---3-|-(3)----------------------||
|
|                     >
| H.         Q  Q     Q      Q   Q     Q  H.
|-----------^2--2-----2---|--2---2-----2-------------||
|-----------^3--3-----3---|--3---3-----3-------------||
|-----------^0--0-----0---|--0---0-----0-------------||
|-----------^0--0-----0---|--0---0-----0-------------||
|-------------------------|--------------------------||
|-3-----------------------|--------------------------||


 Chorus
  G6                                N.C.
  Gtr I
   Q  Q  E E Q  E Q  E    Q  E Q  E Q  Q   Q

|------------0---------|-------0--------------|
|----------0-0---------|-------0--------------|
|--------7------7----7-|------------7--9--10--|
|-----9-----------9----|-----9----9-x--x---x--|
|-10-------------------|-10---------5--7---8--|
|----------------------|----------------------|
|
| Gtr II
|  Q  Q  E E Q  E Q  E    Q  E Q  E Q  Q   Q
|------------0---------|-------0--------------|
|----------0-0---------|-------0--------------|
|--------7------7----7-|------------7--9--10--|
|-----9-----------9----|-----9----9-x--x---x--|
|-10-------------------|-10---------5--7---8--|
|----------------------|----------------------|


  Bmadd11/F#                      N.C.
  Q  Q  E E Q  E Q  E   Q  E Q  E  Q   Q   Q
|-----------0---------|-------------------------||
|---------0-0---------|------0----12------------||
|-------7------7----7-|------------x--12--11----||
|----9-----------9----|----9----9--9---x---x----||
|-9-------------------|-9-------------10---9----||
|---------------------|-------------------------||
|
| Q  Q  E E Q  E Q  E   Q  E Q  E  Q   Q   Q
|-----------0---------|-------------------------||
|---------0-0---------|------0----12------------||
|-------7------7----7-|------------x--12--11----||
|----9-----------9----|----9----9--9---x---x----||
|-9-------------------|-9-------------10---9----||
|---------------------|-------------------------||


 Verse
  Em
   Q.   Q.    Q  E +Q    E   +Q   E Q   E Q  E Q   E
|------------^9--7-(7)-----|--------------7----------|
|------------^8--8-(8)---7-|-(7)--8-7--------8-------|
|-/9---------^9--9-(9)-----|-------------------9-----|
|--x---------^9--9-(9)-----|------------9----------9-|
|-/7---------^7--7-(7)-----|-------------------------|
|-------0------------------|-------------------------|
|
|  Q.   Q.    Q  E +Q    E   +Q   E Q   E Q  E Q   E
|------------^9--7-(7)-----|--------------7----------|
|------------^8--8-(8)---7-|-(7)--8-7--------8-7-----|
|-/9---------^9--9-(9)-----|-------------------------|
|--x---------^9--9-(9)-----|------------9----------9-|
|-/7---------^7--7-(7)-----|-------------------------|
|-------0------------------|-------------------------|
|
| Gtr III
|                      >
|  H.         Q  Q     Q      Q   Q   Q   Q  Q   Q
|------------^7--7-----7---|--7---7---7---7--7---7---|
|------------^8--8-----8---|--8---8---8---8--8---8---|
|------------^9--9-----9---|--9---9---9---9--9---9---|
|------------^9--9-----9---|--9---9---9---9--9---9---|
|------------^7--7-----7---|--7---7---7---7--7---7---|
|--------------------------|-------------------------|


  Bmadd11
  Q  E +E  E E Q  E Q  E   Q  E Q  E E E E Q  E
|--------------0---------|-----------0-------------|
|--------------0---------|-------------0-----------|
|----------7------7----7-|------7--------7---------|
|----9-(9)---9------9----|----9----9-------9-------|
|-9----------------------|-9------------------9----|
|------------------------|-------------------------|
|
| Q  E +E  E E Q  E Q  E   Q  E Q  E E E E Q  E


|--------------0---------|-----------0-------------|
|--------------0---------|-------------0-----------|
|----------7------7----7-|------7--------7---------|
|----9-(9)---9------9----|----9----9-------9-------|
|-9----------------------|-9------------------9----|
|------------------------|-------------------------|
|
| W                        W
|------------------------|-------------------------|
|------------------------|-------------------------|
|------------------------|-------------------------|
|------------------------|-------------------------|
|------------------------|-------------------------|
|------------------------|-------------------------|


  Em
  Q.   Q.    Q  E +Q     E   +Q   E Q   E Q  E Q   E
|-----------^9--7-(7)------|--------------7----------|
|-----------^8--8-(8)---^7-|-(7)--8-7--------8-------|
|-----------^9--9-(9)---^9-|-------------------9-----|
|-----------^9--9-(9)---^9-|------------9----------9-|
|------7----^7--7-(7)------|-------------------------|
|-0----0-------------------|-------------------------|
|
| Q.   Q.    Q  E +Q     E   +Q   E Q   E Q  E Q   E
|-----------^9--7-(7)------|--------------7----------|
|-----------^8--8-(8)----7-|-(7)--8-7--------8-7-----|
|-----------^9--9-(9)------|-------------------------|
|-----------^9--9-(9)------|------------9----------9-|
|------7----^7--7-(7)------|-------------------------|
|-0------------------------|-------------------------|
|
|                     >
| H.         Q  Q     Q       Q   Q   Q   Q  Q   Q
|-----------^7--7-----7----|--7---7---7---7--7---7---|
|-----------^8--8-----8----|--8---8---8---8--8---8---|
|-----------^9--9-----9----|--9---9---9---9--9---9---|
|-----------^9--9-----9----|--9---9---9---9--9---9---|
|-----------^7--7-----7----|--7---7---7---7--7---7---|
|--------------------------|-------------------------|


  Badd11         Cmaj7                           C#m7/F#
  Q  E Q  E Q  E  Q.      +Q   E Q  E  Q   E  Q  E
|------0---------------|-------0----------------------|
|---------0------------|---------0--------------------|
|-----------8-----x----|--(x)-------9-----------------|
|----9------9--9-10----|-(10)---------10--------------|
|-----------9----10----|-(10)-------------10-10--4----|
|-7---------7-----8----|--(8)--------------8--8--2----|
|
| Q  E Q  E Q  E  Q.      +Q   E Q  E  Q   E  Q  E
|------0---------------|-------0----------------------|
|---------0------------|---------0--------------------|
|-----------8----------|------------9-----------------|
|----9------9--9-10----|-(10)---------10--------------|
|-----------9----10----|-(10)-------------10-10--4----|
|-7---------7-----8----|--(8)--------------8--8--2----|
|
| W                        W
|----------------------|------------------------------|
|----------------------|------------------------------|
|----------------------|------------------------------|
|----------------------|------------------------------|
|----------------------|------------------------------|
|----------------------|------------------------------|


                   G                             Am
 9/8              12/8
  Q  E Q  E Q  E   E E E E E E E E E E  a  E E   E  +E  E E E E  Q.    +Q    E




|------0---------|-----------------------------|-------------------------------|
|----0----0------|-----------------0---------3-|-----------------------------8-|
|----------------|-----------0-0h2---3-(3)s4---|-------------------------------|
|--------------4-|-----0-0h2-------------------|------------5----5-----(5)-----|
|-4---------4----|---0-------------------------|--------5h7---7----------------|
|-2---------2----|-2---------------------------|-5--(5)------------------------|
|
| Q  E Q  E Q  E   E E E E E E E E E E  a  E E   E  +E  E E E E  Q.    +Q    E
|------0---------|-----------------------------|-------------------------------|
|----0----0------|-----------------0---------3-|-----------------------------8-|
|----------------|-----------0-0h2---3-(3)s4---|-------------------------------|
|--------------4-|-----0-0h2-------------------|------------5----5-----(5)-----|
|-4---------4----|---0-------------------------|--------5h7---7----------------|
|-2---------2----|-2---------------------------|-5--(5)------------------------|
|
| Gtr III
|                                                                          >
| W                W                             H.              Q   Q     Q
|----------------|-----------------------------|-------------------------------|
|----------------|-----------------------------|----------------^8---8-----8---|
|----------------|-----------------------------|----------------^7---7-----7---|
|----------------|-----------------------------|----------------^5---5-----5---|
|----------------|-----------------------------|-------------------------------|
|----------------|-----------------------------|-5-----------------------------|


  E  a  E E E  a   E  E  E   a  E  E E  a  E E
|--------------------------------------------0---|
|---------8----------13-----------10---------0---|
|-7-(7)s9---9-(9)s12----12-(12)s9----9-(9)s7-----|
|------------------------------------------------|
|------------------------------------------------|
|------------------------------------------------|
|
| E  a  E E E  a   E  E  E   a  E  E E  a  E E
|--------------------------------------------0---|
|---------8----------13-----------10---------0---|
|-7-(7)s9---9-(9)s12----12-(12)s9----9-(9)s7-----|
|------------------------------------------------|
|------------------------------------------------|
|------------------------------------------------|
|
| Q       Q        Q     Q         Q       Q
|------------------------------------------------|
|-8-------8--------8-----8---------8-------8-----|
|-7-------7--------7-----7---------7-------7-----|
|-5-------5--------5-----5---------5-------5-----|
|------------------------------------------------|
|------------------------------------------------|


  Gmaj7
  H.       E E E E E E   E E E E E  a  E E E  a  E E E E
|----------2p0---------|---------------------------------|
|--------------3p0-----|-----------------0---------------|
|------------------4p0-|-2p0---0h2-(2)s4---4-(4)s2p0h2p0-|
|----------------------|-----4---------------------------|
|----------------------|---------------------------------|
|-3--------------------|---------------------------------|
|
| H.       E E E E E E   E E E E E  a  E E E  a  E E E E
|----------2p0---------|---------------------------------|
|--------------3p0-----|-----------------0---------------|
|------------------4p0-|-2p0---0h2-(2)s4---4-(4)s2p0h2p0-|
|----------------------|-----4---------------------------|
|----------------------|---------------------------------|
|-3--------------------|---------------------------------|
|
|                  >
| H.       Q   Q   Q     Q   Q   Q       Q       Q   Q
|---------^2---2---2---|-2---2---2-------2-------2---2---|
|---------^3---3---3---|-3---3---3-------3-------3---3---|
|---------^0---0---0---|-0---0---0-------0-------0---0---|
|---------^0---0---0---|-0---0---0-------0-------0---0---|
|----------------------|---------------------------------|
|-3--------------------|---------------------------------|


  Am
   Q.   Q  E  S  E. S  E. +E  E   Q     E Q     E Q     E Q.
|-------------5-(5)-5-(5)-(5)-5-|-------5-------5-------5--------|
|-------------5-(5)-5-(5)-(5)---|-3b5-----3b5-----3b5------------|
|-------------5h=7--5h=7--(7)---|--------------------------------|
|-------------7-(7)-7-(7)-(7)---|--------------------------------|
|-------------------------------|--------------------------------|
|-/5----5--5--------------------|--------------------------------|
|
|  Q.   Q  E  S  E. S  E. +E  E   E   E E E   E E E   E E E E E
|-------------5-(5)-5-(5)-(5)-5-|-------5-------5-------5--------|
|-------------5-(5)-5-(5)-(5)---|--------------------------------|
|-------------5h=7--5h=7--(7)---|-5h==7---5h==7---5h==7----------|
|-------------7-(7)-7-(7)-(7)---|-------------------------5h7-5--|
|-------------------------------|--------------------------------|
|-/5----5--5--------------------|--------------------------------|
|
|                          >
|  H.         Q     Q      Q      Q     Q     Q   Q     Q   Q
|------------^5-----5------5----|-5-----5-----5---5-----5---5----|
|------------^5-----5------5----|-5-----5-----5---5-----5---5----|
|------------^7-----7------7----|-7-----7-----7---7-----7---7----|
|------------^7-----7------7----|-7-----7-----7---7-----7---7----|
|------------^5-----5------5----|-5-----5-----5---5-----5---5----|
|--5----------------------------|--------------------------------|


  Gmaj7                                     N.C.
  Q.   Q.     Q  E +Q    E   +Q   E +Q    E Q   Q   Q
|-------------2--2-(2)---2-|-(2)--2-(2)---0-------------|
|-------------3--3-(3)---3-|-(3)--3-(3)---0-------------|
|-------------0--0-(0)---0-|-(0)--0-(0)---0-4---5---7---|
|-------------0--0-(0)---0-|-(0)--0-(0)---0-5---7---9---|
|-------------x--x-(x)---x-|-(x)--x-(x)-----------------|
|-3----3------3--3-(3)---3-|-(3)--3-(3)-----------------|
|
| Q.   Q   E  Q  E +Q    E   +H.            Q   Q   Q
|-------------2--2-(2)---2-|-(2)------------------------|
|-------------3--3-(3)---3-|-(3)------------------------|
|-------------0--0-(0)---0-|-(0)------------4---5---7---|
|-------------0--0-(0)---0-|-(0)------------5---7---9---|
|-------------x--x-(x)---x-|-(x)------------------------|
|-3----3---3--3--3-(3)---3-|-(3)------------------------|
|
|                      >
| H.          Q  Q     Q      Q   Q     Q   E E E E E E
|------------^2--2-----2---|--2---2-----2---------------|
|------------^3--3-----3---|--3---3-----3---------------|
|------------^0--0-----0---|--0---0-----0---------------|
|------------^0--0-----0---|--0---0-----0-------------5-|
|--------------------------|--------------------3-5h7---|
|-3------------------------|----------------3h5---------|


 Guitar Solo
  Cmaj7/G
  Gtr III
   E.   S S S S E   +Q.         e.     Q.
|----------------------------------------------|
|----------------------------------------------|
|-------7-7-7-7-7---(7)---------9--------------|
|-/9-------------------------------------------|
|----------------------------------------------|
|----------------------------------------------|
|
| Gtrs I, II
|  H.                      Q.         +Q     E







|----------------------------------------------|
|----------------------------------------------|
|--9-----------------------9----------(9)----9-|
|-10----------------------10---------(10)---10-|
|----------------------------------------------|
|----------------------------------------------|
|
| Gtrs IV, V
|  E  E   E   E   E     E  E  E    E   E  E  E
|----------------------------------------------|
|-------------5------------5-------5------5----|
|-----5-----------5-----------5--------------5-|
|--9------9-------------9--------------9-------|
|----------------------------------------------|
|----------------------------------------------|


   Q.      S  S S S S S  S  S  S S  S S  S  S  S  S      S  S
|-------------------------------------------------------------|
|----------7--7-7-7-8-8-10-10-10-8--8-8-10-10-10-10b12==10-10-|
|-------------------------------------------------------------|
|-------------------------------------------------------------|
|-------------------------------------------------------------|
|-------------------------------------------------------------|
|
|  Q.      Q.            Q          Q          Q
|-------------------------------------------------------------|
|-------------------------------------------------------------|
|--9-------9-------------9---------10----------9--------------|
|-10------10------------10---------12---------10--------------|
|-------------------------------------------------------------|
|-------------------------------------------------------------|
|
|  E  E E  E    E   E    E     E    E    E     E         E
|-------------------------------------------------------------|
|--5-------5--------------------------------------------------|
|-----5---------5--------------7------------------------------|
|-------9-----------9----9----------9----------9--------------|
|---------------------------------------10--------------10----|
|-------------------------------------------------------------|


  G
   S  S S  S  S  S  +E.    E.     H.
|----------------------------------------------|
|-10r10-7-10-10-10-(10)---10b12----------------|
|----------------------------------------------|
|----------------------------------------------|
|----------------------------------------------|
|----------------------------------------------|
|
|  H.                             H.
|----------------------------------------------|
|----------------------------------------------|
|--7------------------------------7------------|
|--9------------------------------9------------|
|----------------------------------------------|
|----------------------------------------------|
|
|  E    E     E      E  E       E E  E E E E E
|--------------------------------------0-------|
|-------------0-----------------0--------------|
|--7-----------------7------------7--------7---|
|-------9---------------9------------9---9---9-|
|----------------------------------------------|
|----------------------------------------------|


  Q.      E   E  E  E  E  E  E  E  E







|------------------------------------|
|--------12--13----12-15-13----13-12-|
|---------------14----------14-------|
|------------------------------------|
|------------------------------------|
|------------------------------------|
|
| Q.      Q.        Q     Q     Q
|------------------------------------|
|------------------------------------|
|-7-------7---------7-----9-----7----|
|-9-------9---------9----10-----9----|
|------------------------------------|
|------------------------------------|
|
| E  E E  E   E  E  E  E  E  E  E  E
|------------------------------------|
|-------------------------0--------0-|
|----7----7---------7--------7-------|
|-9----9------9--------9--------9----|
|---------------10-------------------|
|------------------------------------|


                                     Am
   S  S  S  S S S  S   S  S  S  S  S  S   S  S  S  S  S  S  S  S  S  S  S
|-------------------------------------------------------------------------|
|-12h13p12----------------------------------------------------------------|
|----------14-x-x-12-----14----12h14p12h=14p12h14p12h14p12h14p12h14p12h14p|
|---------------------14----14--------------------------------------------|
|-------------------------------------------------------------------------|
|-------------------------------------------------------------------------|
|
|  Q          E   +Q            E     Q            H
|-------------------------------------------------------------------------|
|-------------------------------------------------------------------------|
|-------------7---(7)-----------7-----7\-----------5----------------------|
|-/9----------9---(9)-----------------9\-----------7----------------------|
|-------------------------------------------------------------------------|
|-------------------------------------------------------------------------|
|
|  E     E    E    E      E     E     E      E     E     E     E     E
|-------------------------0-----------------------------------------------|
|--------0----------------------0------------0----------------------------|
|-------------7------------------------------------5-----------5----------|
|--9---------------9------------------7------------------7-----------7----|
|-------------------------------------------------------------------------|
|-------------------------------------------------------------------------|


   S  S  S  S  S  S  S  S  S  S  S S  S.  S.  S.    S.  +E.  E.
|-------------------------------------------------------------------|
|-------------------------------------------------------------------|
|-12h14p12h14p12-14p12h14p12----14-x--------------------------------|
|----------------------------14------14--12-----------------10------|
|--------------------------------------------12----12--(12)---------|
|-------------------------------------------------------------------|
|
|  H.                                 Q          E       Q      E
|-------------------------------------------------------------------|
|-------------------------------------------------------------------|
|--5---------------------------------/7----------5-------4------5---|
|--7---------------------------------/9----------7-------5------7---|
|-------------------------------------------------------------------|
|-------------------------------------------------------------------|
|
|  E     E     E     E     E     E    Q          E       Q      E
|--------------------0----------------------------------------------|
|--0-----------------------0----------------------------------------|
|--------5-----------------------0---/5----------4-------2------5---|
|--------------7---------------------/7----------5-------4------7---|
|-------------------------------------------------------------------|
|-------------------------------------------------------------------|



  G6
   Q.      +Q     a  E  Q.      +E.    S.    S.
|-----------------------------------------------|
|-----------------------------------------------|
|-----------------------------------------------|
|-12------(12)---12h14-12------(12)---12----14--|
|-----------------------------------------------|
|-----------------------------------------------|
|
|  H.                   H.
|-----------------------------------------------|
|-----------------------------------------------|
|--4--------------------4-----------------------|
|--5--------------------5-----------------------|
|-----------------------------------------------|
|-----------------------------------------------|
|
|  E  E E   E  E     E  E  E E   E  E     E
|--------------------------------0--------------|
|-------0------0-------------0------0-----------|
|-----4-----4--------4-----4--------------4-----|
|--5--------------------5-----------------------|
|-----------------------------------------------|
|-----------------------------------------------|


          ~~~~~~~~~~~~~~~~~~
   Q.     H.            +E.   +E.
|------------------------------------|
|------------------------------------|
|------------------------------------|
|-\7------7b8-----------(7)---(7)\---|
|------------------------------------|
|------------------------------------|
|
| +H.             Q   Q     Q
|------------------------------------|
|------------------------------------|
|-(4)-------------4---5-----7--------|
|-(5)-------------5---7-----9--------|
|------------------------------------|
|------------------------------------|
|
|  E  E E E   E E E E E  E  E      E
|------------------------------------|
|-------0-----0-------0------------0-|
|-----4---4-----4---4-------4--------|
|--5--------------5------5-----------|
|------------------------------------|
|------------------------------------|


  Cmaj7/G
   E.  E.   +E.   E   E     E.   +e    E  S +E.
|--------------------------------------------------|
|--------------------------------------------------|
|--------------------------------------------------|
|-----------------5---4-----5----(5)---5s=7-(7)----|
|--5s==7----(7)------------------------------------|
|--------------------------------------------------|
|
|  H.                    Q.           +Q         E
|--------------------------------------------------|
|--------------------------------------------------|
|--9---------------------9------------(9)--------9-|
|-10--------------------10-----------(10)-------10-|
|--------------------------------------------------|
|--------------------------------------------------|
|
|  E E    E  E  E   E    E     E  E    E  E      E
|--------------------------------------------------|
|------------5-----------5--------5-------5--------|
|----5----------5--------------5-----------------5-|
|--9------9---------9------------------9-----------|
|--------------------------------------------------|
|--------------------------------------------------|


  +S. S.   S.   S.  S. e   e   e    S.   S.    S.  S. S.    S.    S.
|----------------------------------------------------------------------|
|-----------------------------------------------------------8----------|
|----------------------4-------4----7----5-----4---7--9-----------9----|
|-(7)-7----5----4---5------7-------------------------------------------|
|----------------------------------------------------------------------|
|----------------------------------------------------------------------|
|
|  Q.               Q.            Q          Q            Q
|----------------------------------------------------------------------|
|----------------------------------------------------------------------|
|--9----------------9-------------9---------10------------9------------|
|-10---------------10------------10---------12-----------10------------|
|----------------------------------------------------------------------|
|----------------------------------------------------------------------|
|
|  E     E    E     E    E   E    E    E     E     E      E     E
|----------------------------------------------------------------------|
|--5----------------5--------------------------------------------------|
|--------5---------------5-------------7-------------------------------|
|-------------9--------------9----9----------9------------9------------|
|-------------------------------------------------10-----------10------|
|----------------------------------------------------------------------|


  G
  E E E  E E  E E E E  a   E E E    E  E E E  E  E E E  E E E E
|---------------7h8-8-(8)s10-----|-10----7---------8------------|
|-8p7-8-10-8-10--------------8-7-|-----8---8--7------8----8-7---|
|--------------------------------|---------------9------9-----9-|
|--------------------------------|------------------------------|
|--------------------------------|------------------------------|
|--------------------------------|------------------------------|
|
| H.            H.                  Q.     Q.      Q    Q   Q
|--------------------------------|------------------------------|
|--------------------------------|------------------------------|
|-7-------------7----------------|--7------7-------7----9---7---|
|-9-------------9----------------|--9------9-------9---10---9---|
|--------------------------------|------------------------------|
|--------------------------------|------------------------------|
|
| E E E  E E  E E E E      E E E    E  E E E  E  E E E  E E E E
|-------------------0------------|------------------------------|
|-----0-------0------------------|----------------------0-----0-|
|-7------7------7------------7---|-----7---7-------7------7-----|
|---9------9------9--------9---9-|--9----9----9------9------9---|
|--------------------------------|--------------10--------------|
|--------------------------------|------------------------------|


                              Am
                           ~~~~~~~~~~~~~~~~~~
   S S S  S e  E   E      +E   +Q.      +E    E E
|-------------------------------------------------|
|-------------------------------------------------|
|--7-9-7------------------------------------------|
|--------10-9-10--10b12==(10)-(10)-----(10)r-10-9-|
|-------------------------------------------------|
|-------------------------------------------------|
|
|  Q        E +Q           E    Q    H
|-------------------------------------------------|
|-------------------------------------------------|
|-----------7-(7)----------7----7\---5------------|
|-/9--------9-(9)---------------9\---7------------|
|-------------------------------------------------|
|-------------------------------------------------|
|
|  E   E    E  E   E       E    E  E E   E    E E




|------------------0------------------------------|
|------0-------------------0-------0--------------|
|-----------7------------------------5--------5---|
|--9-----------9----------------7--------7------7-|
|-------------------------------------------------|
|-------------------------------------------------|


           ~~~~~~~~
   E   E  +E   +Q    E  E E E E E E
|-----------------------------------|
|-----------------------------------|
|-----------------------------------|
|-10--10-(10)-(10)---9-10-9-7-9-7-5-|
|-----------------------------------|
|-----------------------------------|
|
|  H.                   Q   E Q   E
|-----------------------------------|
|-----------------------------------|
|--5-------------------/7---5-4---5-|
|--7-------------------/9---7-5---7-|
|-----------------------------------|
|-----------------------------------|
|
|  E   E   E    E  E E  Q   E Q   E
|---------------0-------------------|
|--0---------------0----------------|
|------5-------------0-/5---4-2---5-|
|----------7-----------/7---5-4---7-|
|-----------------------------------|
|-----------------------------------|


  G6
  TP     TP     TP     TP        TP     TP     TP  TP  TP
  Q.     Q.     Q.     Q.        Q.     Q.     Q   Q   Q
|-----------------------------|----------------------------|
|-----------------------------|----------------------------|
|-----------------------------|----------------------------|
|-7------5------4-------------|----------------------------|
|----------------------7------|--5------3------3-----------|
|-----------------------------|--------------------7---5---|
|
| H.            H.              +H.            Q   Q   Q
|-----------------------------|----------------------------|
|-----------------------------|----------------------------|
|-4-------------4-------------|-(4)------------4---5---7---|
|-5-------------5-------------|-(5)------------5---7---9---|
|-----------------------------|----------------------------|
|-----------------------------|----------------------------|
|
| E  E E E  E E E  E E E  E E    E  E E E  E E E E E E E E
|----------------------0------|----------------------------|
|------0----0--------0----0---|-------0----0-------0-----0-|
|----4---4----4----4--------4-|-----4---4----4---4-----4---|
|-5-------------5-------------|--5-------------5-----5-----|
|-----------------------------|----------------------------|
|-----------------------------|----------------------------|


  Cmaj7/G
   TP      TP          TP~
   Q.     +E.   S S S  H.
|---------------------------------------|
|---------------------------------------|
|---------------------------------------|
|---------------------------------------|
|---------------------------------------|
|--7------(7)---7h8p5h=7----------------|
|
|  H.                  Q.      +Q     E




|---------------------------------------|
|---------------------------------------|
|--9-------------------9-------(9)----9-|
|-10------------------10------(10)---10-|
|---------------------------------------|
|---------------------------------------|
|
|  E  E E  E  E   E    E  E E   E  E  E
|---------------------------------------|
|----------5-----------5----5------5----|
|-----5-------5-----------5-----------5-|
|--9----9---------9-------------9-------|
|---------------------------------------|
|---------------------------------------|


   TP      TP        TP       TP
   Q.     +Q    S S  Q.      +E   E  E
|---------------------------------------|
|---------------------------------------|
|---------------------------------------|
|---------------------------------------|
|---------------------------------------|
|--7------(7)---8-5--7-------(7)--5--3--|
|
|  Q.      Q.        Q     Q      Q
|---------------------------------------|
|---------------------------------------|
|--9-------9---------9----10------9-----|
|-10------10--------10----12-----10-----|
|---------------------------------------|
|---------------------------------------|
|
|  E  E E  E  E E    E  E  E  E   E  E
|---------------------------------------|
|--5-------5----------------------------|
|-----5-------5---------7---------------|
|-------9-------9----9-----9------9-----|
|----------------------------10-----10--|
|---------------------------------------|


  G
                      ~~~~~~~~~~~~~~~~~~~~~
  Q    E   +Q    E   +H.               +Q.     E E  E E E  E E  E E
|------------------------------------|------------------------------|
|------------------------------------|------------------------------|
|------------------------------------|------------------------------|
|------------------------------------|---------------------5------5-|
|------------------------------------|--------------3h5------5-/7---|
|-5----5b7-(5)---5b7-(5)b7-----------|-(5)-----3h5------0-----------|
|
| H.                  H.                Q.     Q.     Q    Q    Q
|------------------------------------|------------------------------|
|------------------------------------|------------------------------|
|-7-------------------7--------------|--7------7------7----9----7---|
|-9-------------------9--------------|--9------9------9---10----9---|
|------------------------------------|------------------------------|
|------------------------------------|------------------------------|
|
| E  E E    E  E E    E    E E E E E    E  E E E E  E E E  E E  E E
|----------------------------0-------|------------------------------|
|------0---------0-------------------|---------------------0------0-|
|-7---------7---------7----------7---|-----7---7------7------7------|
|----9---------9-----------9---9---9-|--9----9---9------9-------9---|
|------------------------------------|-------------10---------------|
|------------------------------------|------------------------------|


                             Am
   E.   S S  S S +E    +Q.        e.   Q.





|---------------------------------------------|
|---------------------------------------------|
|-------7-7--7-7-(7)---(7)--------9-----------|
|-/9------------------------------------------|
|---------------------------------------------|
|---------------------------------------------|
|
|  Q      Q.               E Q       H
|---------------------------------------------|
|---------------------------------------------|
|---------7----------------7-7\------5--------|
|-/9------9------------------9\------7--------|
|---------------------------------------------|
|---------------------------------------------|
|
|  E  E   E    E     E     E E  E    E E  E E
|--------------------0------------------------|
|-----0--------------------0----0-------------|
|---------7--------------------------5----5---|
|--9-----------9-------------7---------7----7-|
|---------------------------------------------|
|---------------------------------------------|


  Q.     S  S  S S  S S  S S  S S  S  S  S  S  S  S  S  S
|---------------------------------------------------------|
|---------------------------------------------10-------10-|
|--------------------------9------11-12-11-12----12-11----|
|--------9-------9h10-9h10---12-9-------------------------|
|----------12-10------------------------------------------|
|---------------------------------------------------------|
|
| H.                     Q         E     Q           E
|---------------------------------------------------------|
|---------------------------------------------------------|
|-5---------------------/7---------5-----4-----------5----|
|-7---------------------/9---------7-----5-----------7----|
|---------------------------------------------------------|
|---------------------------------------------------------|
|
| E  E E E     E    E    Q         E     Q           E
|--------0------------------------------------------------|
|-0------------0------------------------------------------|
|----5--------------0---/5---------4-----2-----------5----|
|------7----------------/7---------5-----4-----------7----|
|---------------------------------------------------------|
|---------------------------------------------------------|


  G6
   S   S  S  S  S  S  S  S  S  S S  S  S  S  S  S  S  S S  S  S  S  S  S
|-----------------------12----12-x-15p14p12----17----17-x-20p19p17----17-|
|-----10-12-15-13-12-15----15---------------20----20---------------20----|
|-12---------------------------------------------------------------------|
|------------------------------------------------------------------------|
|------------------------------------------------------------------------|
|------------------------------------------------------------------------|
|
|  H.                                  H.
|------------------------------------------------------------------------|
|------------------------------------------------------------------------|
|--4-----------------------------------4---------------------------------|
|--5-----------------------------------5---------------------------------|
|------------------------------------------------------------------------|
|------------------------------------------------------------------------|
|
|  E      E     E     E     E    E     E     E     E    E     E     E
|-------------------------------------------------------0----------------|
|---------------0-----------0----------------------0----------0----------|
|---------4-----------4----------4-----------4----------------------4----|
|--5-----------------------------------5---------------------------------|
|------------------------------------------------------------------------|
|------------------------------------------------------------------------|



   S   S  S  S  S  S  S  S  S  S  S  S  S  S  S  S  S  S  S  S  S  S  S     S
|-----17-20p19p17----17----17-20p19p17----17----17----20----17----17-------17--|
|-17--------------20----17-------------20----17----17----20----17----20b22-----|
|------------------------------------------------------------------------------|
|------------------------------------------------------------------------------|
|------------------------------------------------------------------------------|
|------------------------------------------------------------------------------|
|
| +H.                                   Q           Q           Q
|------------------------------------------------------------------------------|
|------------------------------------------------------------------------------|
|-(4)-----------------------------------4-----------5-----------7--------------|
|-(5)-----------------------------------5-----------7-----------9--------------|
|------------------------------------------------------------------------------|
|------------------------------------------------------------------------------|
|
|  E      E     E     E     E     E     E     E     E     E     E     E
|------------------------------------------------------------------------------|
|---------------0-----------0-----------------------0-----------------0--------|
|---------4-----------4-----------4-----------4-----------------4--------------|
|--5------------------------------------5-----------------5--------------------|
|------------------------------------------------------------------------------|
|------------------------------------------------------------------------------|


  Cmaj7/G
                                                                            ~~~~~~~~~
   S.    S.    S.      S.  S.    S.    S.      S.  S.    S.    S.      S.   Q.
|-------17------------17--------17------------17--------17------------17------------|
|-20b22-------20b22-------20b22-------20b22-------20b22-------20b22--------20-------|
|-----------------------------------------------------------------------------------|
|-----------------------------------------------------------------------------------|
|-----------------------------------------------------------------------------------|
|-----------------------------------------------------------------------------------|
|
|  H.                                              Q.                      +Q     E
|-----------------------------------------------------------------------------------|
|-----------------------------------------------------------------------------------|
|--9-----------------------------------------------9-----------------------(9)----9-|
|-10----------------------------------------------10----------------------(10)---10-|
|-----------------------------------------------------------------------------------|
|-----------------------------------------------------------------------------------|
|
|  E        E       E      E        E       E      E        E       E       E  E  E
|-----------------------------------------------------------------------------------|
|--------------------------5-----------------------5----------------5----------5----|
|-----------5-----------------------5-----------------------5---------------------5-|
|--9----------------9-----------------------9-------------------------------9-------|
|-----------------------------------------------------------------------------------|
|-----------------------------------------------------------------------------------|


    >
 ~~~~~~
   +H.              H.
|-------------------------------------|
|-(20)--------------------------------|
|-------------------------------------|
|-------------------------------------|
|-------------------------------------|
|-------------------------------------|
|
|   Q.      Q.      Q     Q     Q
|-------------------------------------|
|-------------------------------------|
|---9-------9-------9----10-----9-----|
|--10------10------10----12----10-----|
|-------------------------------------|
|-------------------------------------|
|
|   E  E E  E  E E  E  E  E  E  E  E





|-------------------------------------|
|---5-------5-------------------------|
|------5-------5-------7--------------|
|--------9-------9--9-----9-----9-----|
|---------------------------10----10--|
|-------------------------------------|


  G
   ~~~~~
                   |---------5---------|
   H.              S.  S.    S.  S.    S.  S.  S.    S.    S.
|-----------------12------------------------------------------|
|-15b17---------------15----13--12----13--12--10----12----10--|
|-------------------------------------------------------------|
|-------------------------------------------------------------|
|-------------------------------------------------------------|
|-------------------------------------------------------------|
|
|  H.              H.
|-------------------------------------------------------------|
|-------------------------------------------------------------|
|--7---------------7------------------------------------------|
|--9---------------9------------------------------------------|
|-------------------------------------------------------------|
|-------------------------------------------------------------|
|
|  E    E E E E E  E      E         E      E      E     E
|-----------------------------------0-------------------------|
|---------0-----0---------------------------------------------|
|--7--------7------7------------------------------7-----------|
|-------9-----9-----------9----------------9------------9-----|
|-------------------------------------------------------------|
|-------------------------------------------------------------|


                |---------5----------|     |---------5---------|
   S. S.   S.   S. S.     a  S.   S. S.    S. S.   S.   S.  a  S.    Q     +S.  E
|-----------------------------------------------------------------------------------|
|---------------8----------------------------------------------------8-----(8)-10---|
|-12--9----9-------9-----(9)s7----5--------5-------5----7--(7)s9--------------------|
|------------------------------------7--------7-------------------------------------|
|-----------------------------------------------------------------------------------|
|-----------------------------------------------------------------------------------|
|
|  Q.                 Q.                         Q                 Q     Q
|-----------------------------------------------------------------------------------|
|-----------------------------------------------------------------------------------|
|--7------------------7--------------------------7-----------------9-----7----------|
|--9------------------9--------------------------9----------------10-----9----------|
|-----------------------------------------------------------------------------------|
|-----------------------------------------------------------------------------------|
|
|  E     E    E       E         E        E       E    E            E   E E      E
|-----------------------------------------------------------------------------------|
|------------------------------------------------------------------0------------0---|
|--------7------------7--------------------------7---------------------7------------|
|--9----------9-----------------9---------------------9------------------9----------|
|---------------------------------------10------------------------------------------|
|-----------------------------------------------------------------------------------|


                      Amadd9
   Q.       +E   E  E  Q.      +E   E  E
|----------------------------------------|
|-10-------(10)-12-13-12------(12)-13-12-|
|----------------------------------------|
|----------------------------------------|
|----------------------------------------|
|----------------------------------------|
|
|  Q    Q.          E  Q    H




|----------------------------------------|
|----------------------------------------|
|-------7-----------7--7\---5------------|
|-/9----9--------------9\---7------------|
|----------------------------------------|
|----------------------------------------|
|
|  E  E E    E   E  E  E  E E   E   E  E
|----------------0-----------------------|
|-----0-------------0-----0--------------|
|-------7-------------------5-------5----|
|--9---------9---------7--------7------7-|
|----------------------------------------|
|----------------------------------------|


   E   E  E  E  E  E  E      +E    E   +E   +E    E
|---------------------------------15--(15)-(15)---------|
|---------------------------------15--(15)-(15)---------|
|-14--16-14-12-14-12-14b16==(14)-(14)-(14)-(14)r-14b16==|
|-------------------------------------------------------|
|-------------------------------------------------------|
|-------------------------------------------------------|
|
|  H.                 Q            E    Q         E
|-------------------------------------------------------|
|-------------------------------------------------------|
|--5-----------------/7------------5----4---------5-----|
|--7-----------------/9------------7----5---------7-----|
|-------------------------------------------------------|
|-------------------------------------------------------|
|
|  E   E  E  E  E  E  Q            E    Q         E
|------------0------------------------------------------|
|--0------------0---------------------------------------|
|------5-----------0-/5------------4----2---------5-----|
|---------7----------/7------------5----4---------7-----|
|-------------------------------------------------------|
|-------------------------------------------------------|


  G6
   +Q.      +E   +E    E  E    a   E  E  E.    S  E
|---------------------15----------------------------|
|---------------------------------------------------|
|-(14)-----(14)-(14)r----16--(16)s14-12-12----12h14-|
|---------------------------------------------------|
|---------------------------------------------------|
|---------------------------------------------------|
|
|   H.                    H.
|---------------------------------------------------|
|---------------------------------------------------|
|---4---------------------4-------------------------|
|---5---------------------5-------------------------|
|---------------------------------------------------|
|---------------------------------------------------|
|
|   E  E E   E    E    E  E        E  E  E  E     E
|----------------------------------------0----------|
|--------0--------0-------------------0-----0-------|
|------4-----4---------4-----------4--------------4-|
|---5---------------------5-------------------------|
|---------------------------------------------------|
|---------------------------------------------------|


   Q     +W                  Q
|--------------------------------||
|--------------------------------||
|-12----(12)\--------------------||
|--------------------------------||
|--------------------------------||
|--------------------------------||
|

| +H.               Q   Q    Q
|--------------------------------||
|--------------------------------||
|-(4)---------------7---9---11---||
|-(5)---------------x---x----x---||
|-------------------5---7----9---||
|--------------------------------||
|
|  E  E   E   E E E E E E E  E E
|--------------------------------||
|---------0-----0-------0------0-||
|-----4-------4---4---4------4---||
|--5----------------5-----5------||
|--------------------------------||
|--------------------------------||


 Chorus
  G6                                N.C.
  Gtr I
   Q  Q  E E Q  E Q  E    Q  E Q  E Q  Q   Q
|------------0---------|----------------------|
|----------0-----------|-------0--------------|
|--------7------7----7-|------------7--9--10--|
|-----9-----------9----|-----9----9-x--x---x--|
|-10-------------------|-10---------5--7---8--|
|----------------------|----------------------|
|
| Gtr II
|  Q  Q  E E Q  E Q  E    Q  E Q  E Q  Q   Q
|------------0---------|----------------------|
|----------0-----------|-------0--------------|
|--------7------7----7-|------------7--9--10--|
|-----9-----------9----|-----9----9-x--x---x--|
|-10-------------------|-10---------5--7---8--|
|----------------------|----------------------|


  Bmadd11/F#                      N.C.
  Q  Q  E E Q  E Q  E   Q  E Q  E  Q   Q   Q
|-----------0---------|-------------------------||
|---------0-----------|------0----12------------||
|-------7------7----7-|------------x--12--11----||
|----9-----------9----|----9----9--9---x---x----||
|-9-------------------|-9-------------10---9----||
|---------------------|-------------------------||
|
| Q  Q  E E Q  E Q  E   Q  E Q  E  Q   Q   Q
|-----------0---------|-------------------------||
|---------0-----------|------0----12------------||
|-------7------7----7-|------------x--12--11----||
|----9-----------9----|----9----9--9---x---x----||
|-9-------------------|-9-------------10---9----||
|---------------------|-------------------------||


 Verse
  Em
   Q.   Q.    Q  E +Q    E   +Q   E Q   E Q  E Q   E
|------------^9--7-(7)-----|--------------7----------|
|------------^8--8-(8)---7-|-(7)--8-7--------8-------|
|-/9---------^9--9-(9)-----|-------------------9-----|
|--x---------^9--9-(9)-----|------------9----------9-|
|-/7---------^7--7-(7)-----|-------------------------|
|-------0------------------|-------------------------|
|
|  Q.   Q.    Q  E +Q    E   +Q   E Q   E Q  E Q   E
|------------^9--7-(7)-----|--------------7----------|
|------------^8--8-(8)---7-|-(7)--8-7--------8-7-----|
|-/9---------^9--9-(9)-----|-------------------------|
|--x---------^9--9-(9)-----|------------9----------9-|
|-/7---------^7--7-(7)-----|-------------------------|
|-------0------------------|-------------------------|
|
| Gtr III

|                      >
|  H.         Q  Q     Q      Q   Q   Q   Q  Q   Q
|------------^7--7-----7---|--7---7---7---7--7---7---|
|------------^8--8-----8---|--8---8---8---8--8---8---|
|------------^9--9-----9---|--9---9---9---9--9---9---|
|------------^9--9-----9---|--9---9---9---9--9---9---|
|------------^7--7-----7---|--7---7---7---7--7---7---|
|--------------------------|-------------------------|


  Bmadd11
  Q  E +E  E E Q  E Q  E   Q  E Q  E E E E Q  E
|--------------0---------|-----------0-------------|
|--------------0---------|-----------0-0-----------|
|----------7------7----7-|------7--------7---------|
|----9-(9)---9------9----|----9----9-------9-------|
|-9----------------------|-9------------------9----|
|------------------------|-------------------------|
|
| Q  E +E  E E Q  E Q  E   Q  E Q  E E E E Q  E
|--------------0---------|-----------0-------------|
|--------------0---------|-------------0-----------|
|----------7------7----7-|------7--------7---------|
|----9-(9)---9------9----|----9----9-------9-------|
|-9----------------------|-9------------------9----|
|------------------------|-------------------------|
|
| W                        W
|------------------------|-------------------------|
|------------------------|-------------------------|
|------------------------|-------------------------|
|------------------------|-------------------------|
|------------------------|-------------------------|
|------------------------|-------------------------|


  Em
  Q.   Q.    Q  E +Q    E   +Q   E Q   E Q  E Q   E
|-----------^9--7-(7)-----|--------------7----------|
|-----------^8--8-(8)---7-|-(7)--8-7--------8-------|
|-----------^9--9-(9)-----|-------------------9-----|
|-----------^9--9-(9)-----|------------9----------9-|
|------7----^7--7-(7)-----|-------------------------|
|-0----0------------------|-------------------------|
|
| Q.   Q.    Q  E +Q    E   +Q   E Q   E Q  E Q   E
|-----------^9--7-(7)-----|--------------7----------|
|-----------^8--8-(8)---7-|-(7)--8-7--------8-7-----|
|-----------^9--9-(9)-----|-------------------------|
|-----------^9--9-(9)-----|------------9----------9-|
|------7----^7--7-(7)-----|-------------------------|
|-0----0------------------|-------------------------|
|
|                     >
| H.         Q  Q     Q      Q   Q   Q   Q  Q   Q
|-----------^7--7-----7---|--7---7---7---7--7---7---|
|-----------^8--8-----8---|--8---8---8---8--8---8---|
|-----------^9--9-----9---|--9---9---9---9--9---9---|
|-----------^9--9-----9---|--9---9---9---9--9---9---|
|-----------^7--7-----7---|--7---7---7---7--7---7---|
|-------------------------|-------------------------|


  Badd11         Cmaj7                           C#m7/F#
  Q  E Q  E Q  E  Q.      +Q   E Q  E  Q   E  Q  E
|------0---------------|-------0----------------------|
|---------0------------|---------0--------------------|
|-----------8-----x----|--(x)-------9-----------------|
|----9------9--9-10----|-(10)---------10--------------|
|-----------9----10----|-(10)-------------10-10--4----|
|-7---------7-----8----|--(8)--------------8--8--2----|
|
| Q  E Q  E Q  E  Q.      +Q   E Q  E  Q   E  Q  E



|------0---------------|-------0----------------------|
|---------0------------|---------0--------------------|
|-----------8----------|------------9-----------------|
|----9------9--9-10----|-(10)---------10--------------|
|-----------9----10----|-(10)-------------10-10--4----|
|-7---------7-----8----|--(8)--------------8--8--2----|
|
| W                        W
|----------------------|------------------------------|
|----------------------|------------------------------|
|----------------------|------------------------------|
|----------------------|------------------------------|
|----------------------|------------------------------|
|----------------------|------------------------------|


                   G                             Am
 9/8              12/8
  Q  E Q  E Q  E   E E E E E E E E E E  a  E E   E  +E  E E E E  Q.    +Q    E
|------0---------|-----------------------------|-------------------------------|
|----0----0------|-----------------0---------3-|-----------------------------8-|
|----------------|-----------0-0h2---3-(3)s4---|-------------------------------|
|--------------4-|-----0-0h2-------------------|------------5----5-----(5)-----|
|-4---------4----|---0-------------------------|--------5h7---7----------------|
|-2---------2----|-2---------------------------|-5--(5)------------------------|
|
| Q  E Q  E Q  E   E E E E E E E E E E  a  E E   E  +E  E E E E  Q.    +Q    E
|------0---------|-----------------------------|-------------------------------|
|----0----0------|-----------------0---------3-|-----------------------------8-|
|----------------|-----------0-0h2---3-(3)s4---|-------------------------------|
|--------------4-|-----0-0h2-------------------|------------5----5-----(5)-----|
|-4---------4----|---0-------------------------|--------5h7---7----------------|
|-2---------2----|-2---------------------------|-5--(5)------------------------|
|
|                                                                          >
| W                W                             H.              Q   Q     Q
|----------------|-----------------------------|-------------------------------|
|----------------|-----------------------------|----------------^8---8-----8---|
|----------------|-----------------------------|----------------^7---7-----7---|
|----------------|-----------------------------|----------------^5---5-----5---|
|----------------|-----------------------------|-------------------------------|
|----------------|-----------------------------|-5-----------------------------|


  E  a  E E E  a   E  E  E   a   E  E  E   a   E E
|------------------------------------------------0---|
|---------8----------13------------15------------0---|
|-7-(7)s9---9-(9)s12----12-(12)s14----14-(14)s16-----|
|----------------------------------------------------|
|----------------------------------------------------|
|----------------------------------------------------|
|
| E  a  E E E  a   E  E  E   a   E  E  E   a   E E
|------------------------------------------------0---|
|---------8----------13------------15------------0---|
|-7-(7)s9---9-(9)s12----12-(12)s14----14-(14)s16-----|
|----------------------------------------------------|
|----------------------------------------------------|
|----------------------------------------------------|
|
| Q       Q        Q     Q          Q          Q
|----------------------------------------------------|
|-8-------8--------8-----8----------8----------8-----|
|-7-------7--------7-----7----------7----------7-----|
|-5-------5--------5-----5----------5----------5-----|
|----------------------------------------------------|
|----------------------------------------------------|


  Gmaj7
  H.         E E E E E E   E E E E E  a  E E E  a  E E E E





|------------2p0---------|---------------------------------|
|----------------3p0-----|-----------------0---------------|
|--------------------4p0-|-2p0---0h2-(2)s4---4-(4)s2p0h2p0-|
|------------------------|-----4---------------------------|
|------------------------|---------------------------------|
|-3----------------------|---------------------------------|
|
| Q.   Q.    E E E E E E   E E E E E  a  E E E  a  E E E E
|------------2p0---------|---------------------------------|
|----------------3-------|-----------------0---------------|
|--------------------4p0-|-2p0---0h2-(2)s4---4-(4)s2p0h2p0-|
|------------------------|-----4---------------------------|
|------------------------|---------------------------------|
|-3----3-----------------|---------------------------------|
|
|                    >
| H.         Q   Q   Q     Q   Q   Q       Q       Q   Q
|-----------^2---2---2---|-2---2---2-------2-------2---2---|
|-----------^3---3---3---|-3---3---3-------3-------3---3---|
|-----------^0---0---0---|-0---0---0-------0-------0---0---|
|-----------^0---0---0---|-0---0---0-------0-------0---0---|
|------------------------|---------------------------------|
|-3----------------------|---------------------------------|


  Am
   Q.   Q  E  S  E. S  E. +E  E   Q     E Q     E Q     E Q.
|-------------5-(5)-5-(5)-(5)-5-|-------5-------5-------5--------|
|-------------5-(5)-5-(5)-(5)---|-3b5-----3b5-----3b5------------|
|-------------5h=7--5h=7--(7)---|--------------------------------|
|-------------7-(7)-7-(7)-(7)---|--------------------------------|
|-------------------------------|--------------------------------|
|-/5----5--5--------------------|--------------------------------|
|
|  Q.   Q  E  S  E. S  E. +E  E   E   E E E   E E E   E E E E E
|-------------5-(5)-5-(5)-(5)-5-|-------5-------5-------5--------|
|-------------5-(5)-5-(5)-(5)---|--------------------------------|
|-------------5h=7--5h=7--(7)---|-5h==7---5h==7---5h==7----------|
|-------------7-(7)-7-(7)-(7)---|-------------------------5h7-5--|
|-------------------------------|--------------------------------|
|-/5----5--5--------------------|--------------------------------|
|
|                          >
|  H.         Q     Q      Q      Q     Q     Q   Q     Q   Q
|------------^5-----5------5----|-5-----5-----5---5-----5---5----|
|------------^5-----5------5----|-5-----5-----5---5-----5---5----|
|------------^7-----7------7----|-7-----7-----7---7-----7---7----|
|------------^7-----7------7----|-7-----7-----7---7-----7---7----|
|------------^5-----5------5----|-5-----5-----5---5-----5---5----|
|--5----------------------------|--------------------------------|


  H.=H
  Gmaj7
  Gtrs I, II
  H.      +Q.   T T T T T E..   +H.      +H.        +H.      +H.
|---------------2-------------|-------------------|-----------------*|
|-----------------3-----------|-------------------|-----------------*|
|-------------------0---------|-------------------|-----------------*|
|---------------------0-------|-------------------|-----------------*|
|-----------------------x-----|-------------------|-----------------*|
|-3-------(3)-------------3---|-(3)------(3)------|-(3)------(3)----*|




--------------------------------------------------------------------------------


Duration Legend
---------------
W - whole; H - half; Q - quarter; E - 8th; S - 16th; T - 32nd; X - 64th; a - acciaccatura
+ - note tied to previous; . - note dotted; .. - note double dotted
Uncapitalized letters represent notes that are staccato (1/2 duration)
Irregular groupings are notated above the duration line

Duration letters will always appear directly above the note/fret number it represents the
duration for.  Duration letters with no fret number below them represent rests.  Multi-
bar rests are notated in the form Wxn, where n is the number of bars to rest for.  Low
melody durations appear below the staff

Tablature Legend
----------------
 h   - hammer-on
 p   - pull-off
 b   - bend
 pb  - pre-bend
 r   - bend release (if no number after the r, then release immediately)
 /\  - slide into or out of (from/to "nowhere")
 s   - legato slide
 S   - shift slide
 - natural harmonic
[n]  - artificial harmonic
n(n) - tapped harmonic
 ~   - vibrato
 tr  - trill
 T   - tap
 TP  - trem. picking
 PM  - palm muting
\n/  - tremolo bar dip; n = amount to dip
 \n  - tremolo bar down
 n/  - tremolo bar up
/n\  - tremolo bar inverted dip
 =   - hold bend; also acts as connecting device for hammers/pulls
 <> - volume swell (louder/softer)
 x   - on rhythm slash represents muted slash
 o   - on rhythm slash represents single note slash

Misc LegendArtist: Mastodon
Song: Wofl Is Loose

Song: The Wolf Is Loose
Band: Mastodon
Album: Blood Mountain
Tuning: D Standard (DGCFAD)
Contact: robbington@gmail.com

Note: Repetitions not noted

 Intro/Verse
|---------------------------------------------|
|---------------------------------------------|
|----9-5555----9-5555-----12-8888----12-8888--|
|--2-9-5555--2-9-5555---2-12-8888--2-12-8888--|
|--2-7-3333--2-7-3333---2-10-6666--2-10-6666--|
|--0---------0----------0----------0----------|

 Pre Chorus
|-------------------------------------------|
|-------------------------------------------|
|--11-12-11---11-12-11---11-9-12---11-9-12--|
|--XX-XX-XX---XX-XX-XX---XX-X-XX---XX-X-XX--|
|---9-10--9----9-10--9----9-7-10----9-7-10--|
|-------------------------------------------|

|-----------------------------------------------------|
|-----------------------------------------------------|
|--11-12-11---11-12-11--11-9-14-14-14-14-14-14-14-14--|
|--11-12-11---11-12-11--XX-X-XX-XX-XX-XX-XX-XX-XX-XX--|
|---9-10--9----9-10--9---9-7-12-12-12-12-12-12-12-12--|
|-----------------------------------------------------|

  Chorus
|----------------------------------------------------|
|----------------------------------------------------|
|--16-12-11---14-11-9--11-9-11-12-12-12-12-12-12-12--|
|--XX-XX-XX---14-11-9--11-7-11-XX-XX-XX-XX-XX-XX-XX--|
|--14-10--9---12--9-7---9-7--9-10-10-10-10-10-10-10--|
|----------------------------------------------------|

 Bridge
|-------------------------|
|-------------------------|
|-------------------------|
|--2-0-22-0-22-0----------|
|----------------1-1-0----|
|----------------------3--|

|-------------------------------------------------------------|
|-------------------------------------------------------------|
|-------------------------------------------------------------|
|--2-0-33333333---2-0-55555555---2-0-55555555---2-0-77777777--|
|-------------------------------------------------------------|
|-------------------------------------------------------------|

|-------------------------|
|-------------------------|
|-------------------------|
|--2-0-22-0-22-0----------|
|----------------1-1-0----|
|----------------------3--|

|-------------------------------------------------------------|
|-------------------------------------------------------------|
|-------------------------------------------------------------|
|--2-0-33333333---2-0-55555555---2-0-55555555---2-0-77777777--|
|-------------------------------------------------------------|
|-------------------------------------------------------------|

|-----------------------------------------------|
|-----------------------------------------------|
|-----------------------------------------------|
|-----------------------------------------------|
|----7-----------7-----------7---------3-3-3-3--|
|--0---0000000-0---0000000-0---0000000-1-1-1-1--|


|-------------------------|
|-------------------------|
|-------------------------|
|--2-0-22-0-22-0----------|
|----------------1-1-0----|
|----------------------3--|

|---------------------------------------------------------------------------------|
|---------------------------------------------------------------------------------|
|-------------------------------------------------------------7777777799999999----|
|--2-0-33333333---2-0-55555555---2-0-77777777---2-0-99999999----------------------|
|---------------------------------------------------------------------------------|
|---------------------------------------------------------------------------------|

 Solo
|----------------------------------|
|----------------------------------|
|--9-7-----------------------------|
|------10-9-7----------------------|
|-------------10-8-7---------------|
|--------------------10-8-7-5-3-0--|

|--------------------------------|
|--------------------------------|
|--10-9-7------------------------|
|---------10-9-7-----------------|
|----------------10-8-7-5-7-8-7--|
|--------------------------------|

|----------------------------------|
|----------------------------------|
|--9-7-----------------------------|
|------10-9-7----------------------|
|-------------10-8-7---------------|
|--------------------10-8-7-5-3-0--|

|--------------------------------|
|--------------------------------|
|--10-9-7------------------------|
|---------10-9-7-----------------|
|----------------10-8-7-5-7-8-7--|
|--------------------------------|

|----------------------------------|
|----------------------------------|
|--9-7-----------------------------|
|------10-9-7----------------------|
|-------------10-8-7---------------|
|--------------------10-8-7-5-3-0--|

|--------------------------------|
|--------------------------------|
|--10-9-7------------------------|
|---------10-9-7-----------------|
|----------------10-8-7-5-7-8-7--|
|--------------------------------|

|-----------------------------------------|
|-----------------------------------------|
|--9-7------------------------------------|
|------10-9-7-----------------------3--5--|
|-------------10-8-7----------------3--5--|
|--------------------10-8-7-5-3-0---1--3--|

 Post... Solo? LOL!
|---------------------------------------------------------------------------------------------|
|---------------------------------------------------------------------------------------------|
|---------------------------------------------------------------------------------------------|
|--777-5-7----777-5-7-9--101010-9-10-----101010-9-10-12--14-14-14-12-14----14-14-14-12-14-12--|
|--777-5-7----777-5-7-9--101010-9-10-----101010-9-10-12--14-14-14-12-14----14-14-14-12-14-12--|
|--555-3-5-0--555-3-5-7---8-8-8-7--8--0---8-8-8-7--8-10--12-12-12-10-12-0--12-12-12-10-12-10--|





|---------------------------------|
|---------------------------------|
|---------------------------------|
|--101010-9-10-----101010-9-10-9--|
|--101010-9-10-----101010-9-10-9--|
|---8-8-8-7--8--0---8-8-8-7--8-7--|

|--------------------------------------------------------|
|--------------------------------------------------------|
|--------------------------------------------------------|
|--777-5-7----777-5-7-9--101010-9-10-----101010-9-10-12--|
|--777-5-7----777-5-7-9--101010-9-10-----101010-9-10-12--|
|--555-3-5-0--555-3-5-7---8-8-8-7--8--0---8-8-8-7--8-10--|

|-------------------------------------------------------------|
|--10-9-7------------9-7----------------7---------------------|
|---------10-9-7---------10-9-7-----------10-9-7--------------|
|----------------11-------------10-7-------------10-7--8--10--|
|-------------------------------------------------------------|
|-------------------------------------------------------------|

|--------------------------------------------------------|
|--------------------------------------------------------|
|--------------------------------------------------------|
|--777-5-7----777-5-7-9--101010-9-10-----101010-9-10-12--|
|--777-5-7----777-5-7-9--101010-9-10-----101010-9-10-12--|
|--555-3-5-0--555-3-5-7---8-8-8-7--8--0---8-8-8-7--8-10--|

|-----------------------------------------------------------------|
|--10-9-7------------9-7----------------7-------------------------|
|---------10-9-7---------10-9-7-----------10-9-7------------------|
|----------------11-------------10-7-------------10-7--8--10--12--|
|-----------------------------------------------------------------|
|-----------------------------------------------------------------|

 Outro
|---------------------------------------------|
|---------------------------------------------|
|----9-5555----9-5555-----12-8888----12-8888--|
|--2-9-5555--2-9-5555---2-12-8888--2-12-8888--|
|--2-7-3333--2-7-3333---2-10-6666--2-10-6666--|
|--0---------0----------0----------0----------|

|------------------------------------------------------------------------------|
|------------------------------------------------------------------------------|
|------------------------------------------------------------------------------|
|--2-0--2-0--2-0-33333333--2-0--2-0--2-0-33333333--2-0-33333333--2-0-33333333--|
|---2----2------------------0----0---------------------------------------------|
|------------------------------------------------------------------------------|

|------------------------------|
|------------------------------|
|------------------------------|
|--2-0-55555555--2-0-55555555--|
|------------------------------|
|------------------------------|

|--------------------------------------|
|--------------------------------------|
|--------------------------------------|
|--2-0--------------3-2-0--------------|
|------3-2-0--------------3-2-0--------|
|------------3-1-0--------------1s3-0--|

Note: Does not having timing for repeated riffs.
Note 2: Jono = loves mansecks.

Artist: Mastodon
Song: Crystal Skull

Band:  MASTODON
Album: BLOOD MOUNTAIN
Song:  CRYSTAL SKULL

Transcribed By: (The Kraken)
Email:          (the_kraken_awakes@yahoo.co.uk)


.  - palm mute           /  - slide up to
\  - slide down to       ~  - vibrato
h  - hammer on           b  - Bend
p  - pull off            Suffixes for bend
t  - tap                 f  - full bend    h - half bend
ph - pinched harmonic    q  - quarter bend t - tap bend
*  - see comment         ^  - Hold bend    r release bend
x  - Stuccatto           ~  - vibrato bend
,  - slight palm mute    () - ghost note, sustained note
"  - tremolo note        <> - Trill

Tuning D G C F A D

Solo is untabbed unfortunately but this is the main body of the song

Main riff
D-------------------------------------------------------------------|
A-------------------------------------------------------------------|
F-------------------------------------------------------------------|
C-------------------------------------------------------------------| X 6
G-------------------7-7-7-6~----6~----------------------------------|
D-0-0-0-7-7-7-8-8-8---------8-7---8-7-------------------------------|

Verse riff
"Into the black hole..."
|-------------------------------------------------------------------|
|-------------------------------------------------------------------|
|-------------------------------------------------------------------|
|-------------------------------------------------------------------|
|--10-10-10--9-9-9--7-7-7-------10-10-10--9-9-9--7-7-7--------------|
|---8--8--8--7-7-7--5-5-5--------8--8--8--7-7-7--5-5-5--------------|

|-------------------------------------------------------------------|
|-------------------------------------------------------------------|
|--9-9-9--8-8-8--5-5-5-----------9-9-9--8-8-8--5-5-5----------------|
|--9-9-9--8-8-8--5-5-5-----------9-9-9--8-8-8--5-5-5----------------|
|--7-7-7--6-6-6--3-3-3-----------7-7-7--6-6-6--3-3-3----------------|
|-------------------------------------------------------------------|
                             Gtr 2 plays
                             |------------------------------------|
                             |------------------------------------|
                             |------------------------------------|
                             |------------------------------------|
                             |---16-16-16--13-15-15--10-12-12-----|
                             |---14-14-14--13-15-15--10-12-12-----|
-
|-------------------------------------------------------------------|
|-------------------------------------------------------------------|
|-------------------------------------------------------------------|
|-------------------------------------------------------------------|
|--10-10-10--9-9-9--7-7-7-------10-10-10--9-9-9--7-7-7--------------|
|---8--8--8--7-7-7--5-5-5--------8--8--8--7-7-7--5-5-5--------------|

|-------------------------------------------------------------------|
|-------------------------------------------------------------------|
|--9-9-9--8-8-8--5-5-5-----------9--11--8---------------------------|
|--9-9-9--8-8-8--5-5-5-----------x---x--x--------------------------|
|--7-7-7--6-6-6--3-3-3-----------7---9--6---------------------------|
|-------------------------------------------------------------------|

Main riff
"the source of consciousness..."
D-------------------------------------------------------------------|
A-------------------------------------------------------------------|
F-------------------------------------------------------------------|
C-------------------------------------------------------------------| X4
G-------------------7-7-7-6~----6~----------------------------------|
D-0-0-0-7-7-7-8-8-8---------8-7---8-7-------------------------------|

Verse riff
"Into the black hole..."
|-------------------------------------------------------------------|
|-------------------------------------------------------------------|
|-------------------------------------------------------------------|
|-------------------------------------------------------------------|
|--10-10-10--9-9-9--7-7-7-------10-10-10--9-9-9--7-7-7--------------|
|---8--8--8--7-7-7--5-5-5--------8--8--8--7-7-7--5-5-5--------------|

|-------------------------------------------------------------------|
|-------------------------------------------------------------------|
|--9-9-9--8-8-8--5-5-5-----------9-9-9--8-8-8--5-5-5----------------|
|--9-9-9--8-8-8--5-5-5-----------9-9-9--8-8-8--5-5-5----------------|
|--7-7-7--6-6-6--3-3-3-----------7-7-7--6-6-6--3-3-3----------------|
|-------------------------------------------------------------------|
                             Gtr 2 plays
                             |------------------------------------|
                             |------------------------------------|
                             |------------------------------------|
                             |------------------------------------|
                             |---16-16-16--13-15-15--10-12-12-----|
                             |---14-14-14--13-15-15--10-12-12-----|

|-------------------------------------------------------------------|
|-------------------------------------------------------------------|
|-------------------------------------------------------------------|
|-------------------------------------------------------------------|
|--10-10-10--9-9-9--7-7-7-------10-10-10--9-9-9--7-7-7--------------|
|---8--8--8--7-7-7--5-5-5--------8--8--8--7-7-7--5-5-5--------------|

|-------------------------------------------------------------------|
|-------------------------------------------------------------------|
|--9-9-9--8-8-8--5-5-5-----------9--11--8---------------------------|
|--9-9-9--8-8-8--5-5-5-----------x---x--x---------------------------|
|--7-7-7--6-6-6--3-3-3-----------7---9--6---------------------------|
|-------------------------------------------------------------------|


Interlude
|-------------------------------------------------------------------|
|-------------------------------------------------------------------|
|-------------------------------------------------------------------|
|---7-10-9-10-7----7-10-9-10-7-----7-9-6---7-9-6--------------------|
|-------------------------------------------------------------------|
|-0--------------0---------------0-------0--------------------------|

|-------------------------------------------------------------------|
|-------------------------------------------------------------------|
|------------------------------------7------7-----------------------|
|---7-10-9-10-7----7-10-9-10-7-----7---9--7---9---------------------|
|-------------------------------------------------------------------|
|-0--------------0---------------0-------0--------------------------|

|-------------------------------------------------------------------|
|-------------------------------------------------------------------|
|--9-7--------------------------------------------------------------|
|------10-9-10-9-7---10-9-6---9-7h9p7-------------------------------|
|------------------7--------7---------10----------------------------|
|-------------------------------------------------------------------|
                              Gtr 2 plays harmony
                              |----------------|
                              |-12-10h12p10----|
                              |------------12--|
                              |----------------|
                              |----------------|
                              |----------------|

|-------------------------------------------------------------------|
|-------------------------------------------------------------------|
|--9-7--------------------------------------------------------------|
|------10-9-10-9-7---10-9-6---9-7h9p7-------------------------------|
|------------------7--------7---------10----------------------------|
|-------------------------------------------------------------------|
                              Gtr 2 plays harmony

                              |------------|
                              |-8-6h8p6----|
                              |---------9--|
                              |------------|
                              |------------|
                              |------------|

|-------------------------------------------------------------------|
|-------------------------------------------------------------------|
|-------------------------------------------------------------------|
|---7-10-9-10-7----7-10-9-10-7-----7-9-9-9-6---7-9-9-9-6------------|
|-------------------------------------------------------------------|
|-0--------------0---------------0-----------0----------------------|

|-------------------------------------------------------------------|
|-------------------------------------------------------------------|
|------------------------------------7-7-7--------7-7-7-------------|
|---7-10-9-10-7----7-10-9-10-7-----7-------9----7-------9-----------|
|-------------------------------------------------------------------|
|-0--------------0---------------0------------0---------------------|

|-------------------------------------------------------------------|
|-------------------------------------------------------------------|
|--9-7--------------------------------------------------------------|
|------10-9-10-9-7---10-9-6---9-7h9p7-------------------------------|
|------------------7--------7---------10----------------------------|
|-------------------------------------------------------------------|
                              Gtr 2 plays harmony
                              |----------------|
                              |-12-10h12p10----|
                              |------------12--|
                              |----------------|
                              |----------------|
                              |----------------|

|-------------------------------------------------------------------|
|-------------------------------------------------------------------|
|--9-7--------------------------------------------------------------|
|------10-9-10-9-7---10-9-6---9-7h9p7-------------------------------|
|------------------7--------7---------------------------------------|
|-------------------------------------------------------------------|
                              Gtr 2 plays harmony
                              |------------|
                              |-8-6h8p6----|
                              |------------|
                              |------------|
                              |------------|
                              |------------|

Riff 2
"One million voice!"
|-------------------------------------------------------------------|
|-------------------------------------------------------------------|
|-9--11--12--8-(8)--------------------9--11--12--8-(8)--------------|
|-x--x----x--x-(x)--------------------x--x----x--x-(x)--------------|
|-7--9---10--6-(6)-6h7p6--------------7--9---10--6-(6)-6h7p6--------|
|------------------------8-7---------------------------------8-7----|

|-------------------------------------------------------------------|
|-------------------------------------------------------------------|
|-9--11--12--8-(8)--------------------9--11--12--8-(8)--------------|
|-x--x----x--x-(x)--------------------x--x----x--x-(x)--------------|
|-7--9---10--6-(6)-6h7p6--------------7--9---10--6-(6)-6h7p6--------|
|------------------------8-7---------------------------------8-7----|

|-------------------------------------------------------------------|
|-------------------------------------------------------------------|
|-------------------------------------------------------------------|
|--7h8p7------------------------------------------------------------|
|--------9-8---2h3p2p0----------------------------------------------|
|----------------------2--------------------------------------------|

"Running thru the darkness!"



|-------------------------------------------------------------------|
|-------------------------------------------------------------------|
|-------------------------------------------------------------------|
|-------8-(8)--------------------8-(8)------------------------------|
|-2-4-5-6-(6)-6h7p6--------2-4-5-6-(6)-6h7p6------------------------|
|-0-2-3-------------8-7----0-2-3-------------8-7--------------------|

|-------------------------------------------------------------------|
|-------------------------------------------------------------------|
|-------------------------------------------------------------------|
|-------8-(8)--------------------8-(8)------------------------------|
|-2-4-5-6-(6)-6h7p6--------2-4-5-6-(6)-6h7p6------------------------|
|-0-2-3-------------8-7----0-2-3-------------8-7--------------------|

|-------------------------------------------------------------------|
|-------------------------------------------------------------------|
|-------------------------------------------------------------------|
|--7h8p7------------------------------------------------------------|
|--------9-8---2h3p2p0----------------------------------------------|
|----------------------2--------------------------------------------|

"The touch is cold!"
|-------------------------------------------------------------------|
|-------------------------------------------------------------------|
|-------------------------------------------------------------------|
|-9-9---------------9-9---------------------------------------------|
|-7-7---------------7-7---------------------------------------------|
|-----.3-2-0-3-2-0------.3-2-0-3-2-0--------------------------------|

|-------------------------------------------------------------------|
|-------------------------------------------------------------------|
|-------------------------------------------------------------------|
|-12--12----------------12-12---------------------------------------| X4
|-10--10----------------10-10---------------------------------------|
|--------.3-2-0-3-2-0---------.3-2-0-3-2-0--------------------------|

Riff 3
|-------------------------------------------------------------------|
|-------------------------------------------------------------------|
|-------------------------------------------------------------------|
|-0h2-2-0h2p0-2-----0-2---0-----0h2-2-0h2p0-2-----0-2---0-----------|
|---------------2-2-----2---------------------2-2-----2-------------|
|-------------------------------------------------------------------|

|-------------------------------------------------------------------|
|-------------------------------------------------------------------|
|-------------------------------------------------------------------|
|-0h2-2-0h2p0-2-----0-2---0-----0h2-2-0h2p0-2-----0-2---0-----------|
|---------------2-2-----2---------------------2-2-----2-------------|
|-------------------------------------------------------------------|
Gtr 2 plays harmony
|-------------------------------------------------------------------|
|-------------------------------------------------------------------|
|-------------------------------------------------------------------|
|--4h5-5-4h5p4-5-----4-5---4-----4h5-5-4h5p4-5-----4-5---4----------|
|----------------5-5-----5---------------------5-5-----5------------|
|-------------------------------------------------------------------|

SOLO over riff 3 repeated
then back to...

Main riff
D-------------------------------------------------------------------|
A-------------------------------------------------------------------|
F-------------------------------------------------------------------|
C-------------------------------------------------------------------| X4
G-------------------7-7-7-6~----6~----------------------------------|
D-0-0-0-7-7-7-8-8-8---------8-7---8-7-------------------------------|








|-------------------------------------------------------------------|
|-------------------------------------------------------------------|
|-------------------------------------------------------------------|
|-0h2-2-0h2p0-2-----0-2---0-----------------------------------------|
|---------------2-2-----2-------------------------------------------|
|-------------------------------------------------------------------|
Gtr 2 plays harmony
|-------------------------------------------------------------------|
|-------------------------------------------------------------------|
|-------------------------------------------------------------------|
|--4h5-5-4h5p4-5-----4-5---4----------------------------------------|
|----------------5-5-----5------------------------------------------|
|-------------------------------------------------------------------|

Finish
|-------------------------------------------------------------------|
|-------------------------------------------------------------------|
|-------------------------------------------------------------------|
|-9-/-2-------------------------------------------------------------|
|-7-/-2-------------------------------------------------------------|
|-----0-------------------------------------------------------------|

END

Artist: Mastodon
Song: Sleeping Giant

-------------------------------------------------------------------------------
			     SLEEPING GIANT - MASTODON
-------------------------------------------------------------------------------
Tabbed by:Shaun McLellan
Email:theshizon@hotmail.com

ive seen some really $h!!ty guitar pro tabs and unfinished tabs for this
 so HERE IT IS. if you want it right DO IT YOURSELF. it might not
be completely perfect but its damn close. try it out and post any changes if
you think it helps.  im just going to tab out the riff and you
can piece them together.

Tuning:Drop C CGCFAD

e|------------------------------------------------------let these ring-------|
B|---------------------------------------------------------10----------------|
G|----------------------------------------0----------------------------------|
D|--------------------5----------5-----------------------------14------------|
A|----5-7-8-----5-7-8------5-7-8---8-7-5-------5/7-8/10/12--------12---------|
E|--0---------0----------0---------------------------------------------------|

for this riff i think you can play it in the open Am postion but it has a nice flow
up at the 5th with the slides  it sounds smoother

e|--------------------------------------------0------------------------------|
B|---------0-----------0--------------------3--3-----------------------------|
G|--------5-5---------4- 4h5p4\2h4p2------4-----5----------------------------|
D|-----------7----------------------0-2-3--3-3-------------------------------|
A|--0h5/7-------0h5/7--------------------------------------------------------|
E|---------------------------------------------------------------------------|
play that 2x then to an open Am

e|-----0---------------------------------------------------------------------|
B|----1-1------0-------------------------------------------------------------|
G|---2---2----2-2----1-/---4-------------------------------------------------|
D|--2--------3---3--2-2/--5-5------------------------------------------------|
A|-0--------2----------------------------------------------------------------|
E|-----------------2---2/5---------------------------------------------------|

heres the delay lead.  i have a POD and a jcm 800 amp with analog delay set
to dotted eigth notes works very nicely :) this is the jist of it and you can
fiddle around with this scale(in brackets)

e|-22\------17\------------------------------(13-15-17-20-22)----------------|
B|------18-------15-17-18--------------------(13-15-17------)----------------|
G|------------------------14-15-14-15-14-----(12-14-15------)----------------|
D|---------------------------------------15--(12-14-15------)----------------|
A|---------------------------------------------------------------------------|
E|---------------------------------------------------------------------------|
the verse riff... all barre chords(its the same shape all the way through so 
im just going to write the root note to save time) pick AND slide them
at the same time 

e|-5-5--------------------------------------------0--------------------------|
B|-6-6--------------------------------------------1--------------------------|
G|-7-7--------------------------------------------2--------------------------|
D|-7-7--------------------------------------------2--------------------------|
A|-5-5----5--5\4/5/7\5\4/5--5-5-----5---8-8--5-7--0-0----0--8\4/5/7\5\4------|
E|-----00-----------------------0-0-------------------00---------------------|

e|--------------------0----------------------5-------------------------------|
B|--------------------1----------------------6-------------------------------|
G|--------------------2----------------------7----------10101010101010-------|
D|--------------------2----------------------7----------10101010101010-------|
A|-5-5----5--88--5-7--0-0----0--88/5/7\5\4---5-5----5---8-8-8-8-8-8-8--------|
E|-----00-----------------00---------------------00--------------------------|

e|---------------------0-0----0-0----0---------------------------------------|
B|---------------------6-6----6-6----6---------------------------------------|
G|---------------------7-7----7-7----7---------------------------------------|
D|-2-2----2-3333333----7-7----7-7----7---------------------------------------|
A|-2-2----2-3333333----5-5----5-5----5---------------------------------------|
E|-2-2-00-2-3333333--------00-----00-----------------------------------------|

go back to the 2nd riff then

do the delay lead
then another verse
then this (im not to sure about the slide to the 3rd fret.  maybe its the bass?)

e|---------------------------------------------------------------------------|
B|---------------------------------------------------------------------------|
G|----0-----0----------0-----0------4x---------------------------------------|
D|-----------5----------------4---------4-7-5-8------------------------------|
A|------------654--------------654------4-7-5-8------------------------------|
E|-0----0/3------6---0---0/3------6-----4-7-5-8------------------------------|

play that a couple times then..

  P.M                                    ^
e|---------------------------------------|-----------------------------------|
B|---------------------------------------|-----------------------------------|
G|-------------------------------4x--that riff-then--------------------------|
D|-0-2---0-4-0-0-4---0-5-2-0-1-----------------------4/7-7-9/12--------------|
A|-----3-----------3-----------3---------------------4/7-7-9/12--------------|
E|---------------------------------------------------4/7-7-9/12--------------|

then the diddlely diddlely tapping riff(imn just going to write it once but 
play each 3 times)

   T        T       T       T       T      T      T      T
e|-22p10p0--21p9p0--19p7p0--18p6p0-------------------------------------------|
B|----------------------------------21p9p0-20p8p0-18p6p0-17p5p0--------------|
G|---------------------------------------------------------------------------|
D|---------------------------------------------------------------------------|
A|---------------------------------------------------------------------------|
E|---------------------------------------------------------------------------|
  ^-------------------------------^
then just the first half and this at the end

e|-10-9-7---------10-9-7-----------------------------------------------------|
B|--------10-8-7---------10-8-7----------------------------------------------|
G|------------------------------9-7-6----------------------------------------|
D|---------------------------------------------------------------------------|
A|---------------------------------------------------------------------------|
E|---------------------------------------------------------------------------|

then go back to that other one and you got er beat!
thats it thats all!  enjoy.

| /  slide up
| \  slide down
| h  hammer-on
| p  pull-off
| ~  vibrato
| +  harmonic
| x  Mute note
===============================================================================

END


Artist: Mastodon
Song: Capillarian Crest

Mastodon Capillarian Crest


Tuning-down 1 step

Intro									x3
|---------8----------8--------------------------------12----------------|
|------10---10---------6--------------0------------10----10-------------|
|--0-9---------9------------------------8-9---0--9----------9-----------|
|----------------10-------10----9-10--------------------------10--------|
|----------------------------10-----------------------------------------|
|-----------------------------------------------------------------------|

|-----------------------------------------------------------------------|
|-----------------------------------------------------------------------|
|-----------------------------------------------------------------------|
|---5-------5-----5-----5-----5-----5-----5-----------------------------|
|-----5---7-----7-----7-----7-----2-----3-------------------------------|
|-5-----7-----8-----6-----8-----2-----3---------------------------------|

Riff1 x2
|--------------------------|----------------------------|
|--------------------------|----------------------------|
|--------------------------|--------------------4/9-----|
|----10---6-6---------4-5--|----10---6/------5-5--------|
|-----8---4-4-----5-5------|-----8---4/--0-4------------|
|-0-0---0-----0-0----------|-0-0---0--------------------|

Riff2  x2
|----------------------------------------------------------------------|
|----------------------------------------------------------------------|
|----------------------------------------------------------------------|
|----10---6--6---3---3-----------------10---6/10---3---3---------------|
|-----8---4--4---1---1------------------8---4/8----5---5-----7-7-8-10--|
|-0-0---0------0---0---0-0-4-3-4-6—-0-0---0------0---0---0-0-----------|

Repeat intro, riff2, riff1

Instrumental part:
1                           2              3	     
|-0----0--8-----0*----8*-8*-|-------------|--------------------|
|---10------8-----10*-------|-0---0-------|-0----0--------8*---|
|-------------9-------------|---8---9-8-5-|---10---9-10-7---9*-|
|---------------------------|-------------|--------------------|
|---------------------------|-------------|--------------------|
|---------------------------|-------------|--------------------|
4                    *3rd time only                    *4th time only
|------------------------|
|-0----0------------8----|
|---10---(9-10-7)x7---9--|
|------------------------|
|------------------------|
|------------------------|
order
1 x3
2 x4
1 x3
3 x4
1 x3
2 x4
1 x3
4 x1
1 x3
 
Faster section:
1								
|---10---------------------10---------------------|
|-0----8---0-8---0-8---0-0----8---0-8---0-10----0-|
|--------9-----9-----9----------9-----9------11---|
|-------------------------------------------------|
|-------------------------------------------------|
|-------------------------------------------------|
2					



|---------------------------------|
|-0-------8---------------11------|
|---8-9-9—-9-9-9------8-9-------9-|
|----------------9/10--------10---|
|---------------------------------|
|---------------------------------|
3                                                    4
|------------10-------------------------13----12----|----------------|
|-0-11-12-12----11-12-12----------11-12----12----12-|----------------|
|------------------------11-12-12-------------------|-11-11-11-11-12-|
|---------------------------------------------------|----------------|
|---------------------------------------------------|----------------|
|---------------------------------------------------|----------------|

Order:
1 x2
2 x2
1 x2
3 x2
1 x2
2 x2
1 x2
3 x2
1 x2
4 x1

|------------------------|-----------|------------------------|-----------|
|------------------------|-----------|------------------------|-----------|
|------------------------|-----------|------------------------|--3--3---3-|
|------------------------|--3—-3---3-|-2—-2--2-2—-2--2-2--2-2-|--3--3---3-|
|-2--2—-2-2—-2—-2-2—-2-2-|--3—-3---3-|-0—-0--0-0—-0--0-0--0-0-|--1-—1---1-|
|-0—-0-—0-0—-0--0-0--0-0-|--1—-1---1-|------------------------|-----------|

Riff 5:
|---------------------------------------------------|
|---------------------------------------------------|
|---------------------------------------------------|
|---------------------------------------------------|
|-----------------------------------4-4-4-4-5-5-5-5-|
|-0-1-1-1-1-1-1-1-1-1-1-1-1-0-0-0-0-----------------|

|-------------------------------------|
|-------------------------------------|
|-------------------------4-4-6-6—p.h-|
|-----------------4-4-5-5----------8--|
|-8-8-----5-5-4-4---------------------|
|-----6-6-----------------------------| x2
 
Riff6:
|---------------------|---------------------|
|---------------------|---------------------|
|---------------------|---------------------|
|-----------------3-3-|-------------3-3-----|
|---------4-4-5-5-----|-----4-4-5-5-----5-5-|
|-0-0-4-4-------------|-0-0-----------------| x8

Riff 5 x1

Riff7:
|-----------|---------------------------|
|-----------|---------------------------|
|-----------|---------------------------|
|-7-6-------|---------------------------|
|-5-4-8-7-2-|---------------------------|
|-----6-5-0-|-0-2-2-2-2-2-2-2-2-2-2-2-2-|

|-------------|---------------------------------|
|-------------|---------------------------------|
|-------------|---------------------------------|
|-7-6---------|---------------------------------|
|-5-4-8-7-----|---------------------------------|
|-----6-5-0h2-|-0-1-1-1-1-1-1-1-1-1-1-1-1-1-1-1-| x2

Riff9:


|---------------------------------|---------------------------------|
|---------------------------------|---------------------------------|
|---------------------------------|---------------------------------|
|---------------------------------|---------------------------------|
|---------------------------------|---------------------------------|
|-0-0-0-0-0-0-1-1-1-1-1-1-6-6-6-6-|-5-5-5-5-5-5-5-5-5-5-5-5-5-5-5-5-|

|-------------------------------------|-------------------------------------|
|-------------------------------------|-------------------------------------|
|-------------------------------------|-------------------------------------|
|-------------------------------------|-------------------------------------|
|-------------------------------------|-------------------------------------|
|-5-5-5-5-5-5-8-8-8-8-8-8-10-10-10-10-|-12-12-12-12-12-12-12-12-12-12-12-12-|

Ending:
|---------------------------------------------------|
|---------------------------------------------------|
|---------------------------------------------------|
|-9-9----------7-7----------4-4---------2-2---------|
|-----7-7----------4-4----------2-2---------0-0-----|
|---------9-9----------7-7----------5-5---------2-2-|

|-------------------------------------------------|----------|
|-------------------------------------------------|----------|
|-------------------------------------------------|----------|
|-------------------------------------------------|-7//////0-|
|-------------------------------------------------|-7//////0-|
|-2-2-2-2-4-4-4-4-5-5-5-5-5-5-5-5-5-5-5-5-5-5-5-5-|-5//////0-|


END


Artist: Mastodon
Song: Circle Of Cysquatch

Circle Cysquatch
By Mastodon
Label: Warner bors.
From the Blood Mountain album

Tabbed by: Simon L Sweden
Mail: simon.lilja@hotmail.com

/ = slide up
\ = slide down


Tune down the whole guitar one step to D and then Low D sown to A.

Intro

D--12--0--12--0--12/15--0--11--0--11--0--8--0--0--8\7--||   Play 8 times
A------------------------------------------------------||
F------------------------------------------------------||
C------------------------------------------------------||
G------------------------------------------------------||
A------------------------------------------------------||

Vers

Part 1

D--------------------------||     Play 4 times
A--------------------------||
F--------------------------||
C--9-9---12--8-8---5--454--||
G--7-7---10--6-6---3--232--||
A--------------------------||

Vers

Part 2

D------------------------------------------------------------||  Play 2 times
A------------------------------------------------------------||
F------------------------------------------------------------||
C--5--6---10-9---9-10-9--9-10-12-----5--6--10-9--------------||
G--3--4---8--7---7-8--7--7-8--10-----3--4--8--7--------------||
A-------------------------------------------------1-2-1-2-3--||

Play once again from the top.

Could't figure the next part out jet, but after that its something like this....

D------------------------------------------------------------------------------------||
A------------------------------------------------------------------------------------||
G------------------------------------------------------------------------------------||
C------------------------------------------------------------------------------------||
G--2-----2---3-----2---3-----2---3-----4---5-------4---5-------4---5-------4---5-----||
A--0-0-0-0---0-0-0---0---0-0-0---0---0-0-0---0---2-2-2---2--2-2-2--2---2-2-2---2--2-2-2--||

Then something I could't do.

Song ending...

D--------------------------------------------------------------------------||  Play 
some lyrics and then just endpart!
A--------------------------------------------------------------------------||
F--------------------------------------------------------------------------||
C--9-8-8-------------9-8-8-----------------9-8-8--------------------9-8-8--||
G--7-6-6-------------7-6-6-----------------7-6-6--------------------7-6-6--||
A--------3-1-0-1-0-1-------3-1-0-1-3-1-0-1-------3-1-0-1-3-1-0-1-0-1-------||


Thats all I've figured for now. Please contact me with questions or corrections....

END

Artist: Mastodon
Song: Bladecatcher

-------------------------------------------------------------------------------
			     SONG NAME - Band Name
-------------------------------------------------------------------------------
Tabbed by: Somebody some1
Email: antihero-777@hotmail.com

Great song. by an even better band! Theres some tricky bits in it. eg. intro which is 
picked. good luck with it!

Tuning: D standard (D G C F A D low to high) everything downtuned a whole tone.

| /  slide up
| \  slide down
| h  hammer-on
| p  pull-off
| ~  vibrato
| +  harmonic
| x  Mute note
| .  Palm mute
| bu bend up to note in ()
| bd bend down to note in ()

Intro   (pick and fingers)

Guitar 1

                     [    x2            ] [        x2        ]
d|------------------0-|------------------0-|------------------0-|
A|------14----15------|-0----14----15------|-0----15----17------|
F|--------------------|--------------------|--------------------|
C|---14----16----16---|---14----16----16---|---16----18----18---|
G|--------------------|--------------------|--------------------|
D|--------------------|--------------------|--------------------|

Guitar 2
                     [         x2       ] [        x2         ]
d|------------------0-|------------------0-|------------------0-|
A|------2-----3-------|-0----2-----3-------|-0----3-----5-------|
F|--------------------|--------------------|--------------------|
C|---2-----4-----4----|----2-----4-----4---|---4-----6-----6----|
G|--------------------|--------------------|--------------------|
D|--------------------|--------------------|--------------------|

Guitar 1
  [          x2      ] [         x2       ]
d|------------------0-|------------------0-|------------------0------|
A|-0----17----19------|-0----19----21------|-0----19----21------0----|
F|--------------------|--------------------|----------------------0--|
C|---18----19----19---|---19----21----21---|---19----21----21--------|
G|--------------------|--------------------|-------------------------|
D|--------------------|--------------------|-------------------------|

Guitar 2
  [         x2       ] [        x2        ]
d|------------------0-|------------------0-|------------------0------|
A|-0----5-----7-------|-0----7-----9-------|-0----7-----9------------|
F|--------------------|--------------------|-------------------------|
C|---6-----7-----7----|---7-----9-----9----|---7-----9-----9----x/---|
G|-----------------------------------------|--------------------x/---|
D|--------------------|--------------------|-------------------------|

Stabs

d|-0---------|-----------------------|-0---------|
A|-0---------|-6-------9-------------|-0---------|
F|-9---------|-8--(10)-11--(13)------|-9---------|
C|-9---------|--bu-------bu-----3-7--|-9---------|
G|-7---------|------------------3-7--|-7---------|
D|-0------0--|------------------1-5--|--------0--|

d|-----------------------------------------|-----------|
A|-6-------7-------8--------9--------------|-----------|
F|-8--(10)-9--(11)-10--(12)-11--(13)--(11)-|-----------|
C|--bu------bu-------bu-------bu----bd-----|-3-5-7-9-\-|
G|-----------------------------------------|-3-5-7-9-\-|
D|-----------------------------------------|-1-3-5-7-\-|

Blast beat riff

  [                  x2                    ]
d|-----------------------------------------|
A|-----------------------------------------|
F|-----------------------------------------|
C|-----------------------------------------|
G|-----------------------------------------|
D|-2-2-2-2-2-2-5-2-5-2-3-3-3-3-3-3-6-3-6-3-|

  [                   x2                  ]
d|-----------------------------------------|
A|-----------------------------------------|
F|-----------------------------------------|
C|-----------------------------------------|
G|-3-3-3-3-3-3-6-3-6-3-2-2-2-2-2-2-5-2-5-2-|
D|-----------------------------------------|

  [                   x2                  ]
d|-----------------------------------------|
A|-----------------------------------------|
F|-----------------------------------------|
C|-----------------------------------------|
G|-----------------------------------------|
D|-2-2-2-2-2-2-5-2-5-2-3-3-3-3-3-3-6-3-6-3-|

Melody 1

d|-------------|-------------|-------------|
A|-------------|-------------|---0-8h10----|
F|-------------|-------0-7-7/|/9--------9~~|
C|-------0h5h7-|-7/9-9-------|-------------|
G|-0h5h9-------|-------------|-------------|
D|-------------|-------------|-------------|

  [                                            x3                            ]
d|---------10-----------------|---------10------------------|--------10--------|
A|-0-10h12----12----0-8h10----|-0-10-12----12----0-8-10-----|0-10-12----12-----|
F|---------------12--------9~~|---------------12--------9~~-|---------------12-|
C|----------------------------|-----------------------------|------------------|
G|----------------------------|-----------------------------|------------------|
D|----------------------------|-----------------------------|------------------|

  [                1st and 2 times        ]
d|-------------|-------------|-------------|
A|-------------|---------0---|---0h8h10----|
F|-------------|-0-----0---7/|/9--------9~~|
C|-------0h5h7-|---7/9-------|-------------|
G|-0h5h7-------|-------------|-------------|
D|-------------|-------------|-------------|

  [                         3rd time                ]
d|-------------|-------------|-------------|--------|
A|-------------|---------0---|---0h8h10----|--------|
F|-------------|-0-----0---7/|/9--------9~~|~~~~~~~~|
C|-------0h5h7-|---7/9-------|-------------|--------|
G|-0h5h7-------|-------------|-------------|--------|
D|-------------|-------------|-------------|--------|

Melody 2

  [                          x2                        ]
d|-0-7-----------------------|--------------------------|
A|-----8-0-8-----------------|-------------------0-7----|
F|-----------9-0-9-----------|-------------0h7h9-----9~~|
C|-----------------10-0-7----|-------0h7h9--------------|
G|------------------------9~~|-0h7h9--------------------|
D|---------------------------|--------------------------|

d|-------------------------|-----------------------------------------------|
A|-------------------------|-----------------------------------------------|
F|---------------------4/7-|---------12h16h12------------------------------|
C|---0h2h0-5h4---4h5p0-----|-0-12h14----------14h12----14h12---------------|
G|-------------0-----------|------------------------14-------14-12/10------|
D|-0-----------------------|------------------------------------------12~~-|

d|--------------------------|-------------------------|-----------------|
A|--------------------------|-------5-----------------|-----------------|
F|--------------------4-----|-5-7-8---8-7-5---7---5-2~|~~~~~~~~~~~~~~~~~|
C|---0h2h0-5p4--4h5p0---6~~-|---------------7---7---2~|~~~~~~~~~~~~~~~~~|
G|-------------0------------|-----------------------0~|~~~~~~~~~~~~~~~~~|
D|-0------------------------|-------------------------|-----------------|

Ascending bridge (speeds up)

d|-----------------|---------------------|---------|-------|-------|-------|
A|-----------------|------------10----12-|---------|-------|-------|-------|
F|-----------------|---8---10-9----11----|-11~~~~~~|~~~~~~~|~~~~~~~|~~~~~~~|
C|-----------7---9-|-7---9---------------|---------|-------|-------|-------|
G|---6---8-6---8---|---------------------|---------|-------|-------|-------|
D|-5---7-----------|---------------------|---------|-------|-------|-------|

Stabs

d|-0---------|-----------------------|-0---------|
A|-0---------|-6-------9-------------|-0---------|
F|-9---------|-8--(10)-11--(13)------|-9---------|
C|-9---------|--bu-------bu-----3-7--|-9---------|
G|-7---------|------------------3-7--|-7---------|
D|-0------0--|------------------1-5--|--------0--|

d|-----------------------------------------|-----------|
A|-6-------7-------8--------9--------------|-----------|
F|-8--(10)-9--(11)-10--(12)-11--(13)--(11)-|-----------|
C|--bu------bu-------bu-------bu----bd-----|-3-5-7-9-\-|
G|-----------------------------------------|-3-5-7-9-\-|
D|-----------------------------------------|-1-3-5-7-\-|

Blast beat riff

  [                  x2                    ]
d|-----------------------------------------|
A|-----------------------------------------|
F|-----------------------------------------|
C|-----------------------------------------|
G|-----------------------------------------|
D|-2-2-2-2-2-2-5-2-5-2-3-3-3-3-3-3-6-3-6-3-|

  [                   x2                  ]
d|-----------------------------------------|
A|-----------------------------------------|
F|-----------------------------------------|
C|-----------------------------------------|
G|-3-3-3-3-3-3-6-3-6-3-2-2-2-2-2-2-5-2-5-2-|
D|-----------------------------------------|

  [                   x2                  ]
d|-----------------------------------------|
A|-----------------------------------------|
F|-----------------------------------------|
C|-----------------------------------------|
G|-----------------------------------------|
D|-2-2-2-2-2-2-5-2-5-2-3-3-3-3-3-3-6-3-6-3-|

Melody 1

d|-------------|-------------|-------------|
A|-------------|-------------|---0-8h10----|
F|-------------|-------0-7-7/|/9--------9~~|
C|-------0h5h7-|-7/9-9-------|-------------|
G|-0h5h9-------|-------------|-------------|
D|-------------|-------------|-------------|

  [                                            x3                            ]
d|--------10-----------------|---------10------------------|--------10---------|
A|-0-10h12----12----0-8h10----|-0-10-12----12----0-8-10-----|0-10-12----12-----|
F|---------------12--------9~~|---------------12--------9~~-|---------------12-|
C|----------------------------|-----------------------------|------------------|
G|----------------------------|-----------------------------|------------------|
D|----------------------------|-----------------------------|------------------|

  [                1st and 2 times        ]
d|-------------|-------------|-------------|
A|-------------|---------0---|---0h8h10----|
F|-------------|-0-----0---7/|/9--------9~~|
C|-------0h5h7-|---7/9-------|-------------|
G|-0h5h7-------|-------------|-------------|
D|-------------|-------------|-------------|

  [                         3rd time                ]
d|-------------|-------------|-------------|--------|
A|-------------|---------0---|---0h8h10----|--------|
F|-------------|-0-----0---7/|/9--------9~~|~~~~~~~~|
C|-------0h5h7-|---7/9-------|-------------|--------|
G|-0h5h7-------|-------------|-------------|--------|
D|-------------|-------------|-------------|--------|

Melody 2

  [                          x2                        ]
d|-0-7-----------------------|--------------------------|
A|-----8-0-8-----------------|-------------------0-7----|
F|-----------9-0-9-----------|-------------0h7h9-----9~~|
C|-----------------10-0-7----|-------0h7h9--------------|
G|------------------------9~~|-0h7h9--------------------|
D|---------------------------|--------------------------|

d|-------------------------|-----------------------------------------------|
A|-------------------------|-----------------------------------------------|
F|---------------------4/7-|---------12h16h12------------------------------|
C|---0h2h0-5h4---4h5p0-----|-0-12h14----------14h12----14h12---------------|
G|-------------0-----------|------------------------14-------14-12/10------|
D|-0-----------------------|------------------------------------------12~~-|

d|--------------------------|-------------------------|-----------------|
A|--------------------------|-------5-----------------|-----------------|
F|--------------------4-----|-5-7-8---8-7-5---7---5-2~|~~~~~~~~~~~~~~~~~|
C|---0h2h0-5p4--4h5p0---6~~-|---------------7---7---2~|~~~~~~~~~~~~~~~~~|
G|-------------0------------|-----------------------0~|~~~~~~~~~~~~~~~~~|
D|-0------------------------|-------------------------|-----------------|

Ascending bridge (speeds up)

d|-----------------|---------------------|---------|-------|-------|-------|
A|-----------------|------------10----12-|---------|-------|-------|-------|
F|-----------------|---8---10-9----11----|-11~~~~~~|~~~~~~~|~~~~~~~|~~~~~~~|
C|-----------7---9-|-7---9---------------|---------|-------|-------|-------|
G|---6---8-6---8---|---------------------|---------|-------|-------|-------|
D|-5---7-----------|---------------------|---------|-------|-------|-------|

Outro
                                                     [       x8           ]
d|-0------------|-----------|-----------|-----------|----------------------|
A|-0------------|-----------|-----------|-----------|----------------------|
F|-9------------|-----------|-----------|-----------|-6-4------------------|
C|-9------------|-----------|-----------|-----------|-----4-7-6------------|
G|-7------------|-----------|-----------|-----------|-----------5\4--------|
D|--------------|-0~~~~~~~~~|~~~~~~~~~~~|~~~~~~~~~~~|----------------------|

   [        x8            ]
d|-------------------------|----------|
A|-------------------------|----------|
F|-------------------------|----------|
C|-------------------------|----------|
G|-------------------------|----------|
D|-2-2-2-3-3-3-2-2-2-4-4-4-|-2-2-X----|
   . . . . . . . . . . . .

===============================================================================

END


Artist: Mastodon
Song: Colony Of Birchmen

E-Mail: Jose_DC_Shoes@yahoo.com
Tabbed By: Jose_Aviles

Artist:Mastodon
Song:Colony Of Birchmen
Album:Blood Mountain

Tuning: DGCFAD

| /  slide up
| \  slide down
| h  hammer-on
| p  pull-off
| ~  vibrato


Intro (x1)
D|----------------------------------------------------------------------|
A|----------------------------------------------------------------------|
F|-------12---12\11---------4---4/5-----12-12-12\14-11----------------0-|
C|------------------------------------------------------------0-----0---|
G|-2-----10---10\9----2-----2---2/3---2-10-10-10\12-9-------0---3/5-----|
D|-0-0-0----0-------0-0-0-0---0-----0-0-----------------3h5-------------|

Verse: (x3)
D|-------------------------------------------------------|
A|-------------------------------------------------------|
F|-------------------------------------------------------|
C|--------9---6--9----------9---6--9----------9---6--9---|
G|-2-----11---8-11---7-----11---8-11---7-----11---8-11---|
D|-0-0-0----0------0-0-0-0----0------0-0-0-0----0------0-|

|--------------------|
|--------------------|
|--------------------|
|--------------------|
|-11------9-----9--9-|
|-9--9-9-10-10-11-11-|


Chorus: (x1)
D|--------------------------------------------------------------|
A|--------------------------------------------------------------|
F|-9--------------11--------------7--------------9--------------|
C|--------------------------------------------------------------|
G|-7--------------9---------------5--------------7--------------|
D|---000000000000----000000000000---000000000000---000000000000-|


D|-------------------------------------------------------------|
A|-------------------------------------------------------------|
F|-------------------------------------------------------------|
C|-------------------------------------------------------5-4-5-|
G|-------------------------------------------------------7-5-7-|
D|---0000000000000000---2222222222222222-----3333333333--------|

D|-------------------------------------------------------------|
A|-------------------------------------------------------------|
F|-------------------------------------------------------------|
C|-------------------------------------------------------5-4-5-|
G|-------------------------------------------------------7-5-7-|
D|---0000000000000000---2222222222222222-----3333333333--------|

Verse: (x3)
D|-------------------------------------------------------|
A|-------------------------------------------------------|
F|-------------------------------------------------------|
C|--------9---6--9----------9---6--9----------9---6--9---|
G|-2-----11---8-11---7-----11---8-11---7-----11---8-11---|
D|-0-0-0----0------0-0-0-0----0------0-0-0-0----0------0-|






|--------------------|
|--------------------|
|--------------------|
|--------------------|
|-11------9-----9--9-|
|-9--9-9-10-10-11-11-|

Chorus: (x1)
D|--------------------------------------------------------------|
A|--------------------------------------------------------------|
F|-9--------------11--------------7--------------9--------------|
C|--------------------------------------------------------------|
G|-7--------------9---------------5--------------7--------------|
D|---000000000000----000000000000---000000000000---000000000000-|


D|-------------------------------------------------------------|
A|-------------------------------------------------------------|
F|-------------------------------------------------------------|
C|-------------------------------------------------------5-4-5-|
G|-------------------------------------------------------7-5-7-|
D|---0000000000000000---2222222222222222-----3333333333--------|

D|-------------------------------------------------------------|
A|-------------------------------------------------------------|
F|-------------------------------------------------------------|
C|-------------------------------------------------------5-4-5-|
G|-------------------------------------------------------7-5-7-|
D|---0000000000000000---2222222222222222-----3333333333--------|


Bridge:
D|-------------------------------------------------------------|
A|-------------------------------------------------------------|
F|-----------------------4/5/7\5\4-------12-12-12/14-11--------|
C|----------------------------------------------------------7~-|
G|-2-----5---5-4---2-----2/3/5\3\2-2-----10-10-10/12-9--5/7----|
D|-0-0-0-3-0-3-2-0-0-0-0-----------0-0-0-----------------------|

D|---------------------------------------------------------------------|
A|---------------------------------------------------------------------|
F|-----------------------4/5/7\5\4-------12-12-12/14-11--------------0-|
C|-----------------------------------------------------------0-----0---|
G|-2-----5---5-4---2-----2/3/5\3\2-2-----10-10-10/12-9-----0---3/5-----|
D|-0-0-0-3-0-3-2-0-0-0-0-----------0-0-0----------------3h5------------|

D|------------------------------------------------|
A|------------------------------------------------|
F|------------------------------------------------|
C|------------------------------------------------| (x2)
G|-7-------7-----6h7-----7-----7-------7----------|
D|-7h8-8-8-8-8-8-7---7-7-7-7-7-7h8-8-8-8h10-10-10-|

D|-----0-----------0-----------------0-|
A|-------0-----------0-----------------|
F|---------4-----------4-------4---4---|
C|---2-------2---2-------2---2---0-----|(x4)
G|-3-----------2-----------3-----------|
D|-------------------------------------|

Chorus: (x1)
D|--------------------------------------------------------------|
A|--------------------------------------------------------------|
F|-9--------------11--------------7--------------9--------------|
C|--------------------------------------------------------------|
G|-7--------------9---------------5--------------7--------------|
D|---000000000000----000000000000---000000000000---000000000000-|

D|-------------------------------------------------------------|
A|-------------------------------------------------------------|
F|-------------------------------------------------------------|
C|-------------------------------------------------------5-4-5-|
G|-------------------------------------------------------7-5-7-|
D|---0000000000000000---2222222222222222-----3333333333--------|


D|-------------------------------------------------------------|
A|-------------------------------------------------------------|
F|-------------------------------------------------------------|
C|-------------------------------------------------------5-4-5-|
G|-------------------------------------------------------7-5-7-|
D|---0000000000000000---2222222222222222-----3333333333--------|

Bridge:
D|-------------------------------------------------------------|
A|-------------------------------------------------------------|
F|-----------------------4/5/7\5\4-------12-12-12/14-11--------|
C|----------------------------------------------------------7~-|
G|-2-----5---5-4---2-----2/3/5\3\2-2-----10-10-10/12-9--5/7----|
D|-0-0-0-3-0-3-2-0-0-0-0-----------0-0-0-----------------------|

D|---------------------------------------------------------------------|
A|---------------------------------------------------------------------|
F|-----------------------4/5/7\5\4-------12-12-12/14-11--------------0-|
C|-----------------------------------------------------------0-----0---|
G|-2-----5---5-4---2-----2/3/5\3\2-2-----10-10-10/12-9-----0---3/5-----|
D|-0-0-0-3-0-3-2-0-0-0-0-----------0-0-0----------------3h5------------|

D|------------------------------------------------|
A|------------------------------------------------|
F|------------------------------------------------|
C|------------------------------------------------| (x2)
G|-7-------7-----6h7-----7-----7-------7----------|
D|-7h8-8-8-8-8-8-7---7-7-7-7-7-7h8-8-8-8h10-10-10-|

D|-----0-----------0-----------------0-|
A|-------0-----------0-----------------|
F|---------4-----------4-------4---4---|
C|---2-------2---2-------2---2---0-----|(x4)
G|-3-----------2-----------3-----------|
D|-------------------------------------|

Outro: (play untill song ends)
D|-------------------------------------------------------|
A|-------------------------------------------------------|
F|-------------------------------------------------------|
C|-------------------------------------------------------|
G|-2---------7-7---------5-5-------------7p5-----5h7-----|
D|-0-0-0-0-0-0-0-0-0-0-0-0-0-0-0-0-0-0-0-----0-0-----0-0-|

Thats all i have folks.
I'm workin on fixingg some things, but other than that it sounds great.

END


Artist: Mastodon
Song: Hunters Of The Sky

Hunters Of The Sky - Mastodon - Blood Mountain (2006)

[Intro][x4]
D--------------------------------|
A--------------------------------|
F--------------------------------|
C---9~-----10~------12~----10~---|
G---9~-----10~------12~----10~---|
D---7~-----8~-------10~----8~----|

[Verse][x6]
F------------------------------------|
A------------------------------------| 
D------------------------------------|
G---9-9-9--9s12s9---9-9-9s10--9s10---|
C---9-9-9--9s12s9---9-9-9s10--9s10---|
D---7-7-7--7s10s7---7-7-7s8---7s8----|

[Pre Chorus][x1]
D--------------------------------------------------|
A--------------------------------------------------|
F---11---------9-----------11------14--13--11--9---|
C---11--10--9--9--10--10---11--10--14--13--11--9---|   x2
G---9---10--9--7--10--10---9---10--12--11--9---7---|
D-------8---7-----8---8--------8-------------------|

D------------------|
A------------------|
F---11-------------|
C---11---11---12---|
G---9----11---12---|
D--------9----10---|

[Verse][x4]

[Chorus][x1]
D-----------------------------------------------------|
A-----------------------------------------------------|
F---12-12--------------------12-12--------------------|
C---12-12---11-11-11s14-15---12-12---11-11-11s14-15---|
G---10-10---11-11-11s14-15---10-10---11-11-11s14-15---|
D-----------9--9---9s12-13-----------9--9---9s12-13---|

D--------------------------|
A--------------------------|
F---12-12------------------|
C---12-12---11---14---11---|
G---10-10---11---14---11---|
D-----------9----12---9----|

D-----------------------------------------------------|
A-----------------------------------------------------|
F---12-12--------------------12-12--------------------|
C---12-12---11-11-11s14-15---12-12---11-11-11s14-15---|
G---10-10---11-11-11s14-15---10-10---11-11-11s14-15---|
D-----------9--9---9s12-13-----------9--9---9s12-13---|

D--------------------------------------|
A--------------------------------------|
F---12-12------------------------------|
C---12-12---11---14---11---------------|
G---10-10---11---14---11---------------|
D-----------9----12---9----7--0--8p7---|

D-------------------------|
A-------------------------|
F-------------------------|
C---14-11-----------------|
G---14-11-----------------|
D---12--9--0--7--0--8p7---|

[Interlude][x1]




D------------------------------------------------------------------------|
A------------------------------------------------------------------------|
F------------------------------------------------------------------------|
C------------------------------------------------------------------------|
G------------------------------------------------------------------------|
D---0-0-0-7-0-8-7-5--0-0-0-7-0-8-7-5--0-0-0-7-0-8-7-5--0-0-0-7-0-8-7-5---|

D------------------------------------------|
A------------------------------------------|
F------------------------------------------|
C------------------------------------------|
G------------------------------------------|
D-0-0-0-10-0-11-10-8--0-0-0-10-0-11-10-8---|

D------------------------------------------|
A------------------------------------------|
F------------------------------------------|
C------------------------------------------|
G------------------------------------------|
D-0-0-0-10-0-11-10-8--0-0-0-10-0-11-10-8---|

D----------------------------------------------|
A----------------------------------------------|
F----------------------------------------------|
C----------------------------------------------|
G----------------------------------------------|
D---0-0-0-12-0-13-12-10--0-0-0-12-0-13-12-10---|

D------------------------------------------|
A------------------------------------------|
F------------------------------------------|
C------------------------------------------|
G------------------------------------------|
D-0-0-0-10-0-11-10-8--0-0-0-10-0-11-10-8---|

D------------------------------------------------------------------------|
A------------------------------------------------------------------------|
F------------------------------------------------------------------------|
C------------------------------------------------------------------------|
G------------------------------------------------------------------------|
D---0-0-0-7-0-8-7-5--0-0-0-7-0-8-7-5--0-0-0-7-0-8-7-5--0-0-0-7-0-8-7-5---|

D---------------------------------------------------------------|
A---------------------------------------------------------------|
F---------------------------------------------------------------|
C---9~-----10~-----12~-----10~-----9~-----10~-----12~-----10~---|
G---9~-----10~-----12~-----10~-----9~-----10~-----12~-----10~---|
D---7~------8~-----10~------8~-----7~------8~-----10~------8~---|

D------------------------------------------------------------------------|
A------------------------------------------------------------------------|
F------------------------------------------------------------------------|
C------------------------------------------------------------------------|
G------------------------------------------------------------------------|
D---0-0-0-7-0-8-7-5--0-0-0-7-0-8-7-5--0-0-0-7-0-8-7-5--0-0-0-7-0-8-7-5---|

D------------------------------------------|
A------------------------------------------|
F------------------------------------------|
C------------------------------------------|
G------------------------------------------|
D-0-0-0-10-0-11-10-8--0-0-0-10-0-11-10-8---|

D------------------------------------------|
A------------------------------------------|
F------------------------------------------|
C------------------------------------------|
G------------------------------------------|
D-0-0-0-10-0-11-10-8--0-0-0-10-0-11-10-8---|

D----------------------------------------------|
A----------------------------------------------|
F----------------------------------------------|
C----------------------------------------------|
G----------------------------------------------|
D---0-0-0-12-0-13-12-10--0-0-0-12-0-13-12-10---|

D------------------------------------------|
A------------------------------------------|
F------------------------------------------|
C------------------------------------------|
G------------------------------------------|
D-0-0-0-10-0-11-10-8--0-0-0-10-0-11-10-8---|

[Chorus][x1]

[Verse][x4]

[Outro][Fading]
D-----------------------|
A-----------------------|
F------------------13---|
C---9~---10---13---13---|
G---9~---10---13---11---|
D---7~---8----11--------|

END

Artist: Mastodon
Song: Hand Of Stone

Hand of stone - mastodon

D tuning

Verse

e-----------------------------|
b-----------------------------|
g-----------------------------|
d-----------------------------|
a-2-x-x-2-5-2-5---------------|  3x
e---------------3-x-x-3-6-3-6-|

e-----------------------------|
b-----------------------------|
g-----------------------------|
d-----------------------------|
a-----------------------------|
e-0-x-x-0-3-0-3-1-x-x-1-4-1-4-|


e-------------------------|
b-------------------------|
g-------------------------|
d-2-2---------1-1---------|   2x
a-----2-2-----------------|
e---------4-4-----4-4-0-0-|
      . . . .     . . . .


e-------------------------|
b-------------------------|
g-------------------------|
d-4-4---------3-3---------|   2x
a-----4-4---------1-1-0-0-|
e---------6-6-------------|
      . . . .     . . . .


e--------------------------|
b--------------------------|
g-------3-4-3-------5-6-5--|
d-2-----1-2-1-4-----3-4-3--|
a---2-----------4----------|
e-----4-----------6--------|


this is a harmony but one of the guitars wasnt fully tabbed
so i decided just to post one of the guitars

e---------------------------------------|
b---------------------------------------|
g-----------1-2---1-2-1---4-2-2-1-2-1---|
d-------2-4-----4-------4-------------4-|
a-2-4-5---------------------------------|
e---------------------------------------|


e---------------------------------------|
b---------------------------------------|
g-----------4-5---4-5-4---7-5-5-4-5-4---|
d-------5-7-----7-------7-------------7-|
a-5-7-8---------------------------------|
e---------------------------------------|


e----------------------------------------------|
b----------------------------------------------|
g----------------------------------------------|
d-------5-----------5-------7-----------7------|
a-5-6-3---6-3-5-6-3---7-8-5---8-5-7-8-5----8-5-|
e----------------------------------------------|

Breakdown


e-------------|
b-------------|
g-------------|
d-2-----1-----|  2x
a---2---------|
e-----4---4-0-|


e-------------|
b-------------|
g-------------|
d-4-----3-----|  2x
a---4-----1-0-|
e-----6-------|

Gtr 1

e---------------------------------------------------------------|
b---------------------------------------------------------------|
g---------------------------------------------------------------|
d-6------5------8------7-----10-------9-------12-------11-------|
a---7-------------8------7------10---------------12-------------|
e-----8-----8-7-----10-----8-------12----12-8-------13----14-10-|


Gtr 2

e-6------5------8-----7-----10-------|
b---6------6------8-----5------10----|
g-----6------6------9-----8-------10-|
d------------------------------------|
a------------------------------------|
e------------------------------------|

e-9------12-------11------14-------13-------|
b---6-------12-------9-------14-------11----|
g------9-------13------10-------15-------14-|
d-------------------------------------------|
a-------------------------------------------|
e-------------------------------------------|

(back to one guitar)

e-------------------------|
b-------------------------|
g-4-4-4-7-5-4-5-5-5-8-----|
d-2-2-2-5-3-2-3-3-3-6-5-7-|
a---------------------3-5-|
e-------------------------|

e-------------------------|
b-------------------------|
g-4-4-4-7-5-4-9-7-5-------|
d-2-2-2-5-3-2-7-5-3-4-5-7-|
a-------------------2-3-5-|
e-------------------------|

SOLO Yeehaw
(dont know if its good but im trusting its gonna be a good start
or its correct)

e----------------------------------------------------------------|
b----------------------------------------------------------------|
g----------------------------------------------------------------|
d----------10-------------10-------12-14-15-14-15-12-12-14-12-15-|
a-11-12-14----12p11h12-14----14-12-------------------------------|
e----------------------------------------------------------------|

e-------------------------------------------------------------|
b-------------------------------------------------12-12-------|
g-10-13-13-10-13----------13-14-14-------13-14-14-------14-16-|
d----------------12-14-15----------14-15----------------------|
a-------------------------------------------------------------|
e-------------------------------------------------------------|


e--------------------------------------------------------------|
b--------------------------------------------------------------|
g-14-13----13--------------------------------------------------|
d-------15----15-13B(15)----12---------------------------------|
a------------------------14----14-12-12-5-8-5---7-5-8-7-8-7-12-|
e---------------------------------------------7----------------|

e-------------------------------------------13----12-11B(13)-|
b-------------------------------12-------12----12------------|
g----------------13-14----14-13----13-14---------------------|
d-------12-15-12-------15------------------------------------|
a-14-12------------------------------------------------------|
e------------------------------------------------------------|

e----12-13-16-12----16-17---16-17-19-17-0-16-17--------------|
b-15-------------15-------0---------------------0-17-15-0-15-|
g------------------------------------------------------------|
d------------------------------------------------------------|
a------------------------------------------------------------|
e------------------------------------------------------------|

e-----------------------------|
b-----------------------------|
g----14-----------------------|
d-16----16-13----12-----------|
a-------------15--------12-14-|
e--------------------15-------|

Outro

e--------------------------------------------------|
b--------------------------------------------------|
g--------------------------------------------------|
d--------------------7-6----------------7-6---10-9-|
a-3-2----------------5-4---------3-2----5-4----8-7-|
e-1-0-00000000000000-----0000000-1-0-00-----00-----|

e---------------------------------------------|
b---------------------------------------------|
g---------------------------------------------|
d--------------------7-6-----------------7-6--|
a---------3-2--------5-4----------3-2----5-4--|
e-0000000-1-0-000000-----00000000-1-0-00------|

e---------------------------|
b---------------------------|
g---------------------------|
d-10-9~~~~~~~~~~~~~~~~~~~~~-|
a--8-7~~~~~~~~~~~~~~~~~~~~~-|
e---------------------------|


Sorry my tab isn't professional like all the other mastodon tabs
but at least its getting on the site

END


Artist: Mastodon
Song: This Mortal Soil

for the first part turn your pickup to 'solo mode' as i call it haha. theres more than 
time to turn it back when the intros over.

intro(x3)
D|----------------------------------------------------------------------------|
A|----------------------------------------------------------------------------|
F|-11s13r11~-11h-13^r-11h-13r-11s-9h-11~-13s15r13-13h-15^r-13h-15r-13s-11h-13-|
C|----------------------------------------------------------------------------|
G|----------------------------------------------------------------------------|
C|----------------------------------------------------------------------------|

bridge(x2)
|D|---------------------------------------------------------------|
|A|---------------------------------------------------------------|
|F|---------------------------------------------------------------|
|C|-4--6---------4--6-6------------4--6----------4--6-6-----------|
|G|-4---7-6-7-4--4------7-6-7-4-6--4----7-6-7-4--4------6-7-6-4-6-|
|C|-4------------4-----------------4-------------4----------------|
|
|D|-----------------------------|        |------------------------------|
|A|-----------------------------|on      |------------------------------|
|F|-----------------------------|second  |------------------------------|
|C|-7--9----------7--9-9-------6|time    |-7--6--4--2-2--6s4s2----------|
|G|-7----7-6-7-9--7------7-6-7--|through |-7--6--4--2-2--6s4s2----------|
|C|-7-------------7-------------|        |-7--6--4--2-2--6s4s2-2-6--2-4-|

D|---|--------------------|  |--------------------|
A|---|--------------------|  |--------------------|    (then first one
F|---|--------------------|  |--------------------|      again for 2)
C|-4-|---------------4-4--|x4|---------------2-2--|x2
G|-4-|-4h6r4r0-------4-4--|  |---------------2-2--|
C|-4-|--------6h9r6s-4-4~-|  |-6h9r6s4-4h6r4-2-2--|

(intro)
                                                   x x   x x   x x   x x
D|--------------------------------|  |------------------------------------|
A|--------------------------------|  |------------------------------------|
F|--------------------------------|  |-----------------11---13----14----16|
C|--------------------------------|x2|------9(x8)-------------------------|
G|----------4--7--9-11^r9h11r9s7h9|  |-7(x8)-----------9----11----12----14|
C|-4--7--9------------------------|  |------------------------------------|

D|----------------------------------------------------------------------|
A|----------------------------------------------------------------------|
F|----------------------------------------------------------------------|
C|-4~-4    -6-6-7-7-9-7-6-6-7-6~--2-4~--11    -9-9-7-7-6-7-6-6-7-6~-2-4~|x2
G|-4~-4(x4)-6-6-7-7-9-7-6-6-7-6~--2-4~--11(x4)-9-9-7-7-6-7-6-6-7-6~-2-4~|
C|-4~-4    -6-6-7-7-9-7-6-6-7-6~--2-4~--11    -9-9-7-7-6-7-6-6-7-6~-2-4~|

breakdown
|D|-----------------------------------------|
|A|-----------------------------------------|
|F|-----------------------------------------|
|C|-4-4-4-4-2-2-4-2-4-4-4-4-2-2-4-2-4-4-4-2-|
|G|-4-4-4-4-2-2-4-2-4-4-4-4-2-2-4-2-4-4-4-2-|
|C|-4-4-4-4-2-2-4-2-4-4-4-4-2-2-4-2-4-4-4-2-|
|
|D|-----------------------------------------|
|A|-----------------------------------------|
|F|-----------------------------------------|
|C|-7-7-7-7-6-6-7-6-7-7-7-7-6-6-7-6-7-7-7-6-|
|G|-7-7-7-7-6-6-7-6-7-7-7-7-6-6-7-6-7-7-7-6-|
|C|-7-7-7-7-6-6-7-6-7-7-7-7-6-6-7-6-7-7-7-6-|

slow breakdown
|D|---------------------------------------------|
|A|---------------------------------------------|
|F|---------------------------------------------|
|C|---------------------------------------------|
|G|---------------------------------------3---3-|
|C|-7~-7-9-10-12~-12-10-9-10r9s7~-7-9r7s5---5---|
|




|D|-----------------------------------------|
|A|-----------------------------------------|
|F|-----------------------------------------|
|C|-----------------------------------------|
|G|-----------------------------------o-----|o
|C|-4~-4-6-7~-s9-9-7-6-7r6s4~-4-6r4s2---2---|

breakdown

bridge

END


Artist: Mastodon
Song: Siberian Divide

----------------------------------------------------------------------------
			  Siberian Divide - Mastodon
----------------------------------------------------------------------------
Tabbed by: DeathTribble
Email:

Tuning:DGCFAD

Intro/First Verse
D|---------0---------0---3-------| 
A|-----4-----4-----0---0----0----|
F|-4h5---5-----5-4------------4--|
C|-------------------------------|
G|-------------------------------|
D|-------------------------------|

D|-----0----8-------------0----------|
A|---0---0----10--------9---9--------|
F|-9-------------9-9/10-------12-10--|
C|-----------------------------------|
G|-----------------------------------|
D|-----------------------------------|

      Fill                         Chorus
D|----------------------------------------------------|
A|----------------------------------------------------|
F|-4--------------------------------------------------|
C|-2-7-5-4-------------9--------------9---------------|
G|---5-3-2-5-3-2-------7---8---10-8---7---8---10-8----|
D|---------3-1-0---------0-6-0-8--6-0---0-6-0-8--6-0--|

         Chorus (Cont.)
D|---------------------------------------------|
A|---------------------------------------------|
F|------------------------------4--------------|
C|------------------------------2-7-5-4--------|
G|-2---3---5-3-----3---5-3--------5-3-2-5-3-2--|
D|-0-0-1-0-3-1-0-0-1-0-3-1--------------3-1-0--|

 Second Verse
D|-----0---7---------0---7---------0---7---------0---7------|
A|---8---8---8-----8---8---8-----8---8---8-----8---8---8----|
F|-9-----------9-9-----------9-9-----------9-9-----------9--|
C|----------------------------------------------------------|
G|----------------------------------------------------------|
D|----------------------------------------------------------|

D|-----0---2---------0---2---------0---2---------0---2------|
A|---0---0---3-----0---0---3-----0---0---3-----0---0---3----|
F|-4-----------4-4-----------4-4-----------4-4-----------4--|
C|----------------------------------------------------------|
G|----------------------------------------------------------|
D|----------------------------------------------------------|

D|-----0---7---------0---7---------0---7---------0---7------|
A|---8---8---8-----8---8---8-----8---8---8-----8---8---8----|
F|-9-----------9-9-----------9-9-----------9-9-----------9--|
C|----------------------------------------------------------|
G|----------------------------------------------------------|
D|----------------------------------------------------------|

D|-------12----14-------------12----14-------------12----14-------------12-|
A|----12----12----15-------12----12----15-------12----12----15-------12----|
F|-16----------------16-16----------------16-16----------------16-16-------|
C|-------------------------------------------------------------------------|
G|-------------------------------------------------------------------------|
D|-------------------------------------------------------------------------|

Bridge
D|--------------------------------------------------------------|
A|--------------------------------------------------------------|
F|--------------------------------------------------------------|
C|--------------------------------------------------------------|
G|-5---7---5-----5---7---5-----5---7---5-----5---7---5----------|
D|---0---0---4-7---0---0---4-7---0---0---4-7---0---0---4-5-7-8--|

D|------------------------------------------------------------|
A|------------------------------------------------------------|
F|------------------------------------------------------------|
C|-----6-------------6-------------6-------------6------------|
G|-5-------5-6---5-------5-6---5-------5-6---5-------------5--|
D|---0---0-----0---0---0-----0---0---0-----0---0---0-5-7-8----|

D|-------------------------------------------------------------------|
A|-------------------------------------------------------------------|
F|-------------------------------------------------------------------|
C|-------9--------------9---------------9--------------------7-------|
G|-----7-------7-9----7-------7-9-----7-------7-9-----7-9-10---10-9--|
D|-7h8-----7h8-----7h8----7h8-----7h8-----7h8-----7h8----------------|

 First End
D|-------------------|
A|-------------------|
F|-------------------|
C|-------------------|
G|-----7-9-10-9-7----|
D|-7h8------------8--|

 Second Ending
D|-----------------------------------------------------------------------|
A|-----------------------------------------------------------------------|
F|-----------------------------------------------------------------------|
C|-----------------------------7-----------------------------------------|
G|-----7-9-10-9-7-------7-9-10---10-9-----7-9-10-9-7------------7-5-3-2--|
D|-7h8------------8-7h8---------------7h8------------10-8-7-5-3----------|

D|----------|
A|----------|
F|----------|
C|----------|
G|----------|
D|-5-3-1-0--|

D|-----------1--------------0--------------1-------------|
A|-----------1--------------0--------------1-------------|
F|-------------------------------------------------------|
C|-7-\-\-\-3------7-\-\-\-3------7-\-\-\-3------3-3-2-2--|
G|-7-\-\-\-3------7-\-\-\-3------7-\-\-\-3------3-3-2-2--|
D|-5-\-\-\-1------5-\-\-\-1------5-\-\-\-1------1-1-0-0--|

D|----------------------------------------------------------|
A|----------------------------------------------------------|
F|----------------------------------------------------------|
C|-----------5-3-----------5-------------6-------------6----|
G|---5---7---------5---7-----6---5---7-----7---5---7-----7--|
D|-0---0---0-----0---0---0-----0---0---0-----0---0---0------|

D|-----------------------------------------------------------------------|
A|-----------------------------------------------------------------------|
F|-----------------------------------------------------------------------|
C|-----------------------------------------------------------------------|
G|-----------------------------------------------------------------------|
D|-13-0-13-0-13-0-13-0-10-10-0-10-0-0-13-0-13-12-0-12-0-0-0-0-15-0-0-15--|

D|----------|
A|----------|
F|----------|
C|----------|
G|----------|
D|-0-0-0-0--|

D|-----------------------------------------------------------------------|
A|-----------------------------------------------------------------------|
F|-----------------------------------------------------------------------|
C|-----------------------------------------------------------------------|
G|-15---15---15---15---12-12---12-----15---15-14---14---------13-----13--|
D|-13-0-13-0-13-0-13-0-10-10-0-10-0-0-13-0-13-12-0-12-0-0-0-0-15-0-0-15--|





D|----------|
A|----------|
F|----------|
C|----------|
G|----------|
D|-0-0-0-0--|

D|----------------------------------------|
A|----------------------------------------|
F|----------------------------------------|
C|-10/12\10-9---------10/12\10-9----------|
G|-8-/10\8--7---------8-/10\8--7----------|
D|-8-/10\8--7-0-0-0-0-8-/10\8--7-0-0-0-0--|

D|-----------1--------------0--------------1-------------|
A|-----------1--------------0--------------1-------------|
F|-------------------------------------------------------|
C|-7-\-\-\-3------7-\-\-\-3------7-\-\-\-3------3-3-2-2--|
G|-7-\-\-\-3------7-\-\-\-3------7-\-\-\-3------3-3-2-2--|
D|-5-\-\-\-1------5-\-\-\-1------5-\-\-\-1------1-1-0-0--|

| /  slide up
| \  slide down
| h  hammer-on
| p  pull-off
| ~  vibrato
| +  harmonic
| x  Mute note
============================================================================



END


Artist: Mastodon
Song: Pendulous Skin

PENDULOUS SKIN
As recorded by Mastodon
(From the 2006 Album BLOOD MOUNTAIN)

Transcribed by Tom Wall

Words and Music by Mastodon

Gtr I (D G C F A D) - 'Acoustic'
Gtr II (D G C F A D) - 'Distortion I'
Gtr III (D G C F A D) - 'Distortion II'
Gtr IV (D G C F A D) - 'Distortion III'
Gtr V (D G C F A D) - 'Acoustic II'

   Intro
    Q=153
    Dmadd9/Eb                           Dmadd9
   5/4                   3/4           5/4                   3/4
    Gtr I
    E E E E E E E E E E   E E E E E E   E E E E E E E E E E   E E E E E E
||----------------0-----|-------------|---------------0-----|--------------||
||o---------6-------6---|---------6---|---------6-------6---|---------6---o||
||------7-----7-------7-|-----7-----7-|-----7-----7-------7-|-----7-----7--||
||----0---0-----0-------|---0---0-----|---0---0-----0-------|---0---0------||
||o-6-------------------|-6-----------|-5-------------------|-5-----------o||
||----------------------|-------------|---------------------|--------------||


  Bb    Aadd11Dm7/F E5              Amadd9
 12/8                          7/8               9/8
  E E E E E E E E E E E E  a     E  E E E E E E   E E E E E E E E E
|-----------------------------|-----------7-----|---------------7---|
|-----------------------------|-------------0---|---------0-------0-|
|-----------------------------|-------5-------5-|-----5-----5-------|
|-----0-----0-----0-----2-(2)s|=(7)-7---7-------|---7---7-----7-----|
|---5-----4-----3-----2-------|-----------------|-0-----------------|
|-6-----5-----1-----0---------|-----------------|-------------------|


                                       1.
    G                                   Amadd9
   7/8             9/8                 7/8             9/8
    E E E E E E E   E E E E E E E E E   E E E E E E E   E E E E E E E E E
||----------7-----|---------7---------|---------7-----|---------------7----||
||o-----0-----0---|-----0-----0-----0-|-----------0---|---------0-------0-o||
||----7---7-----7-|---7---7-----7-----|-----5-------5-|-----5-----5--------||
||--5-------------|-5-------------5---|---7---7-------|---7---7-----7------||
||o---------------|-------------------|-0-------------|-0-----------------o||
||----------------|-------------------|---------------|--------------------||


  2.
  Gmaj7          D6                    Gmaj7         D6
 6/8            10/8                  6/8           10/8
   E E E E E E   E E E E E E E E E E   E E E E E E   E E E E E E E E E E
|------2-----2-|-----------------0---|-----2-----2-|-----------------0----|
|----------0---|-------7-----7-----0-|---------0---|-------7-----7-----0--|
|----4---4-----|-----------4---------|---4---4-----|-----------4----------|
|-/5-----------|---0-----0-----0-----|-5-----------|---0-----0-----0------|
|--------------|-5---5---------------|-------------|-5---5----------------|
|--------------|---------------------|-------------|----------------------|


  Gmaj7/B         Cmaj9               Gmaj7/B         Cmaj9
 7/8             9/8                 7/8             9/8
  E E E E E E E   E E E E E E E E E   E E E E E E E   E E E E E E E E E
|---------------|-------------0-----|---------------|-------------0------|
|---------0-----|---------3-----3---|---------0-----|---------3-----3----|
|-----0-----0---|-----4-----------4-|-----0-----0---|-----4-----------4--|
|---4---4-----4-|---2---2---2-------|---4---4-----4-|---2---2---2--------|
|-2-------------|-3-----------------|-2-------------|-3------------------|
|---------------|-------------------|---------------|--------------------|


  Q=111           H=H                                          Q=127

  Dadd11/F#                       Fadd9/A
 6/8
  E E E S S E E   E E E S S E E     E  E E S S E E   E E E S S E +e
|-------2p0-----|-------2p0-----|----------5p0-----|-------5p0--------|
|-----3-----3---|-----3-----3---|-/(6)---6-----6---|-----6-----6-(6)--|
|---0---------0-|---0---------0-|------0---------0-|---0--------------|
|-4-------------|-4-------------|--/7--------------|-7----------------|
|---------------|---------------|------------------|------------------|
|---------------|---------------|------------------|------------------|


  Q=141      H=H                                                   Q=280
  A7/C#
 5/8               8/8
      |----5----|   |----5----| |----5----|   |----5----| |----5----|
    E E E  E E  E   E E  E E  E E E  E E  E   E E  E E  E E E  E E  E
|-----9p0---------|-9p0---------9p0---------|-9p0---------9p0---------|
|---------10------|-----10----------10------|-----10----------10------|
|------------0----|--------0-----------0----|--------0-----------0----|
|-/11----------11-|----------11----------11-|----------11----------11-|
|-----------------|-------------------------|-------------------------|
|-----------------|-------------------------|-------------------------|


  Q=20H.=H                              Q=9H=H
  |----5----| |----5----|   |----5----|
  E E  E E  E E E  E E  E   E E  E E  E Q  +Q
|-9p0---------9p0---------|-9p0-----------------|
|-----10----------10------|-----10--------------|
|--------0-----------0----|--------0------------|
|----------11----------11-|----------11---------|
|-------------------------|-------------0--(0)--|
|-------------------------|---------------------|


  Q.=118
  Bmadd11/F#
 12/8
  E +E  E +E  E E H        +E  E   Q  E Q  E E E E Q  E
|-----------------0--------(0)---|-----------0----------||
|--------------------------------|-------------0--------||
|-------------7----------------7-|------7--------7------||
|-------9-(9)---9----------------|----9----9-------9----||
|-9-(9)--------------------------|-9--------------------||
|--------------------------------|--------------------7-||
|
| Gtr II
| E +E  E +E  E E Q.   +Q.         Q  E Q  E E E E Q  E
|-----------------0----(0)-------|-----------0----------||
|--------------------------------|-------------0--------||
|-------------7------------------|------7--------7------||
|-------9-(9)---9----------------|----9----9-------9----||
|-9-(9)--------------------------|-9--------------------||
|--------------------------------|--------------------7-||


 Verse
  Em
  Gtr I
  Q.   Q.    Q  E +Q    E   +Q   E Q   E Q  E Q   E
|-----------^9--7-(7)-----|--------------7----------|
|-----------^8--8-(8)---7-|-(7)--8-7--------8-------|
|-----------^9--9-(9)-----|-------------------9-----|
|-----------^9--9-(9)-----|------------9----------9-|
|-----------^7--7-(7)-----|-------------------------|
|-0----0------------------|-------------------------|
|
| Gtr II
| Q.   Q.    Q  E +Q    E   +Q   E Q   E Q  E Q   E







|-----------^9--7-(7)-----|--------------7----------|
|-----------^8--8-(8)---7-|-(7)--8-7--------8-7-----|
|-----------^9--9-(9)-----|-------------------------|
|-----------^9--9-(9)-----|------------9----------9-|
|-----------^7--7-(7)-----|-------------------------|
|-0----0------------------|-------------------------|
|
| Gtr III
|                     >
| Q.   Q.    Q  Q     Q      Q   Q   Q   Q  Q   Q
|-----------^7--7-----7---|--7---7---7---7--7---7---|
|-----------^8--8-----8---|--8---8---8---8--8---8---|
|-----------^9--9-----9---|--9---9---9---9--9---9---|
|-----------^9--9-----9---|--9---9---9---9--9---9---|
|-----------^7--7-----7---|--7---7---7---7--7---7---|
|-0----0------------------|-------------------------|


  Bmadd11
  Q  E +E  E E Q  E Q  E   Q  E Q  E E E E Q  E
|--------------0---------|-----------0-------------|
|--------------0---------|-------------0-----------|
|----------7------7----7-|------7--------7---------|
|----9-(9)---9------9----|----9----9-------9-------|
|-9----------------------|-9------------------9----|
|------------------------|-------------------------|
|
| Q  E +E  E E Q  E Q  E   Q  E Q  E E E E Q  E
|--------------0---------|-----------0-------------|
|--------------0---------|-------------0-----------|
|----------7------7----7-|------7--------7---------|
|----9-(9)---9------9----|----9----9-------9-------|
|-9----------------------|-9------------------9----|
|------------------------|-------------------------|
|
| W                        W
|------------------------|-------------------------|
|------------------------|-------------------------|
|------------------------|-------------------------|
|------------------------|-------------------------|
|------------------------|-------------------------|
|------------------------|-------------------------|


  Em
  Q.   Q.    Q  E Q   E   +Q   E Q   E Q  E Q   E
|-----------^9--7-------|--------------7----------|
|-----------^8--8-----7-|-(7)--8-7--------8-------|
|-----------^9--9-------|-------------------9-----|
|-----------^9--9-------|------------9----------9-|
|------7----^7--7-------|-------------------------|
|-0----0----------0-----|-------------------------|
|
| Q.   Q.    Q  E Q   E   +Q   E Q   E Q  E Q   E
|-----------^9--7-------|--------------7----------|
|-----------^8--8-----7-|-(7)--8-7--------8-7-----|
|-----------^9--9-------|-------------------------|
|-----------^9--9-------|------------9----------9-|
|------7----^7--7-------|-------------------------|
|-0----0----------0-----|-------------------------|
|
|                   >
| Q.   Q.    Q  Q   Q      Q   Q   Q   Q  Q   Q
|-----------^7--7---7---|--7---7---7---7--7---7---|
|-----------^8--8---8---|--8---8---8---8--8---8---|
|-----------^9--9---9---|--9---9---9---9--9---9---|
|-----------^9--9---9---|--9---9---9---9--9---9---|
|-----------^7--7---7---|--7---7---7---7--7---7---|
|-0----0----------------|-------------------------|


  Badd11         Cmaj7                            C#m7/F#
  Q  E Q  E Q  E  Q.      +Q   E Q  E  Q   E  Q   E



|------0----0----------|-------0-----------------------|
|---------0-0----------|---------0---------------------|
|-----------8-----x----|--(x)-------9------------------|
|----9------9--9-10----|-(10)---------10---------------|
|-----------9----10----|-(10)-------------10-10\--4----|
|-7---------7-----8----|--(8)--------------8--8\--2----|
|
| Q  E Q  E Q  E  Q.      +Q   E Q  E  Q   E  Q   E
|------0---------------|-------0-----------------------|
|---------0------------|---------0---------------------|
|-----------8----------|------------9------------------|
|----9------9--9-10----|-(10)---------10---------------|
|-----------9----10----|-(10)-------------10-10\--4----|
|-7---------7-----8----|--(8)--------------8--8\--2----|
|
| W                        W
|----------------------|-------------------------------|
|----------------------|-------------------------------|
|----------------------|-------------------------------|
|----------------------|-------------------------------|
|----------------------|-------------------------------|
|----------------------|-------------------------------|


                   G                             Am
 9/8              12/8
  Q  E Q  E Q  E   E E E E E E E E E E  a  E E   E  +E  E E E E  Q.    +Q    E
|------0---------|-----------------------------|-------------------------------|
|----0----0------|-----------------0---------3-|-----------------------------8-|
|----------------|-----------0-0h2---3-(3)s4---|-------------------------------|
|--------------4-|-----0-0h2-------------------|------------5----5-----(5)-----|
|-4---------4----|---0-------------------------|--------5h7---7----------------|
|-2---------2----|-2---------------------------|-5--(5)------------------------|
|
| Q  E Q  E Q  E   E E E E E E E E E E  a  E E   E  +E  E E E E  Q.    +Q    E
|------0---------|-----------------------------|-------------------------------|
|----0----0------|-----------------0---------3-|-----------------------------8-|
|----------------|-----------0-0h2---3-(3)s4---|-------------------------------|
|--------------4-|-----0-0h2-------------------|------------5----5-----(5)-----|
|-4---------4----|---0-------------------------|--------5h7---7----------------|
|-2---------2----|-2---------------------------|-5--(5)------------------------|
|
|                                                                          >
| W                W                             H.              Q   Q     Q
|----------------|-----------------------------|-------------------------------|
|----------------|-----------------------------|----------------^8---8-----8---|
|----------------|-----------------------------|----------------^7---7-----7---|
|----------------|-----------------------------|----------------^5---5-----5---|
|----------------|-----------------------------|-------------------------------|
|----------------|-----------------------------|-5-----------------------------|


  E  a  E E E  a   E  E  E   a  E  E E  a  E E
|--------------------------------------------0---|
|---------8----------13-----------10---------0---|
|-7-(7)s9---9-(9)s12----12-(12)s9----9-(9)s7-----|
|------------------------------------------------|
|------------------------------------------------|
|------------------------------------------------|
|
| E  a  E E E  a   E  E  E   a  E  E E  a  E E
|--------------------------------------------0---|
|---------8----------13-----------10---------0---|
|-7-(7)s9---9-(9)s12----12-(12)s9----9-(9)s7-----|
|------------------------------------------------|
|------------------------------------------------|
|------------------------------------------------|
|
| Q       Q        Q     Q         Q       Q
|------------------------------------------------|
|-8-------8--------8-----8---------8-------8-----|
|-7-------7--------7-----7---------7-------7-----|
|-5-------5--------5-----5---------5-------5-----|
|------------------------------------------------|
|------------------------------------------------|


  Gmaj7
  H.       E E E  E  E E   E E E E E  a  E E E  a  E E E E
|----------2p0-----------|---------------------------------|
|--------------3p(0)-----|-----------------0---------------|
|--------------------4p0-|-2p0---0h2-(2)s4---4-(4)s2p0h2p0-|
|------------------------|-----4---------------------------|
|------------------------|---------------------------------|
|-3----------------------|---------------------------------|
|
| H.       E E E  E  E E   E E E E E  a  E E E  a  E E E E
|----------2p0-----------|---------------------------------|
|--------------3---------|-----------------0---------------|
|--------------------4p0-|-2p0---0h2-(2)s4---4-(4)s2p0h2p0-|
|------------------------|-----4---------------------------|
|------------------------|---------------------------------|
|-3----------------------|---------------------------------|
|
|                    >
| H.       Q   Q     Q     Q   Q   Q       Q       Q   Q
|---------^2---2-----2---|-2---2---2-------2-------2---2---|
|---------^3---3-----3---|-3---3---3-------3-------3---3---|
|---------^0---0-----0---|-0---0---0-------0-------0---0---|
|---------^0---0-----0---|-0---0---0-------0-------0---0---|
|------------------------|---------------------------------|
|-3----------------------|---------------------------------|


  Am
   Q.   Q  E  S  E. S  E. +E  E   Q     E Q     E Q     E Q.
|-------------5-(5)-5-(5)-(5)-5-|-------5-------5-------5--------|
|-------------5-(5)-5-(5)-(5)---|-3b5-----3b5-----3b5------------|
|-------------5h=7--5h=7--(7)---|--------------------------------|
|-------------7-(7)-7-(7)-(7)---|--------------------------------|
|-------------------------------|--------------------------------|
|-/5----5--5--------------------|--------------------------------|
|
|  Q.   Q  E  S  E. S  E. +E  E   E   E E E   E E E   E E E E E
|-------------5-(5)-5-(5)-(5)-5-|-------5-------5-------5--------|
|-------------5-(5)-5-(5)-(5)---|--------------------------------|
|-------------5h=7--5h=7--(7)---|-5h==7---5h==7---5h==7----------|
|-------------7-(7)-7-(7)-(7)---|-------------------------5h7-5--|
|-------------------------------|--------------------------------|
|-/5----5--5--------------------|--------------------------------|
|
|                          >
|  H.         Q     Q      Q      Q     Q     Q   Q     Q   Q
|------------^5-----5------5----|-5-----5-----5---5-----5---5----|
|------------^5-----5------5----|-5-----5-----5---5-----5---5----|
|------------^7-----7------7----|-7-----7-----7---7-----7---7----|
|------------^7-----7------7----|-7-----7-----7---7-----7---7----|
|------------^5-----5------5----|-5-----5-----5---5-----5---5----|
|--5----------------------------|--------------------------------|


  Gmaj7                                N.C.
  Q.   Q.    Q  E +Q    E   +H.        Q   Q   Q
|------------2--2-(2)---2-|-(2)-------------------||
|------------3--3-(3)---3-|-(3)-------------------||
|------------0--0-(0)---0-|-(0)--------7---9--11--||
|------------0--0-(0)---0-|-(0)--------x---x---x--||
|------------x--x-(x)---x-|-(x)--------5---7---9--||
|-3----3-----3--3-(3)---3-|-(3)-------------------||
|
| Q.   Q.    Q  E +Q    E   +H.        Q   Q   Q
|------------2--2-(2)---2-|-(2)-------------------||
|------------3--3-(3)---3-|-(3)-------------------||
|------------0--0-(0)---0-|-(0)--------7---9--11--||
|------------0--0-(0)---0-|-(0)--------x---x---x--||
|------------x--x-(x)---x-|-(x)--------5---7---9--||
|-3----3-----3--3-(3)---3-|-(3)-------------------||
|
|                     >
| H.         Q  Q     Q      Q   Q  Q  H.


|-----------^2--2-----2---|--2---2--2-------------||
|-----------^3--3-----3---|--3---3--3-------------||
|-----------^0--0-----0---|--0---0--0-------------||
|-----------^0--0-----0---|--0---0--0-------------||
|-------------------------|-----------------------||
|-3-----------------------|-----------------------||


 Chorus
  G6                                N.C.
  Gtr I
   Q  Q  E E Q  E Q  E    Q  E Q  E Q  Q   Q
|------------0---------|----------------------|
|----------0-0---------|-------0--------------|
|--------7------7----7-|------------7--9--10--|
|-----9-----------9----|-----9----9-x--x---x--|
|-10-------------------|-10---------5--7---8--|
|----------------------|----------------------|
|
| Gtr II
|  Q  Q  E E Q  E Q  E    Q  E Q  E Q  Q   Q
|------------0---------|----------------------|
|----------0-0---------|-------0--------------|
|--------7------7----7-|------------7--9--10--|
|-----9-----------9----|-----9----9-x--x---x--|
|-10-------------------|-10---------5--7---8--|
|----------------------|----------------------|


  Bmadd11/F#                      N.C.
  Q  Q  E E Q  E Q  E   Q  E Q  E  Q   Q   Q
|-----------0---------|-------------------------||
|---------0-----------|------0----12------------||
|-------7------7----7-|------------x--12--11----||
|----9-----------9----|----9----9--9---x---x----||
|-9-------------------|-9-------------10---9----||
|---------------------|-------------------------||
|
| Q  Q  E E Q  E Q  E   Q  E Q  E  Q   Q   Q
|-----------0---------|-------------------------||
|---------0-----------|------0----12------------||
|-------7------7----7-|------------x--12--11----||
|----9-----------9----|----9----9--9---x---x----||
|-9-------------------|-9-------------10---9----||
|---------------------|-------------------------||


 Verse
  Em
   Q.   Q.    Q  E +Q    E   +Q   E Q   E Q  E Q   E
|------------^9--7-(7)-----|--------------7----------|
|------------^8--8-(8)---7-|-(7)--8-7--------8-------|
|-/9---------^9--9-(9)-----|-------------------9-----|
|--x---------^9--9-(9)-----|------------9----------9-|
|-/7---------^7--7-(7)-----|-------------------------|
|-------0------------------|-------------------------|
|
|  Q.   Q.    Q  E  Q    E   +Q   E Q   E Q  E Q   E
|------------^9--7---------|--------------7----------|
|------------^8--8-------7-|-(7)--8-7--------8-7-----|
|-/9---------^9--9---------|-------------------------|
|--x---------^9--9---------|------------9----------9-|
|-/7---------^7--7---------|-------------------------|
|-------0-----------0------|-------------------------|
|
| Gtr III
|                      >
|  H.         Q  Q     Q      Q   Q   Q   Q  Q   Q
|------------^7--7-----7---|--7---7---7---7--7---7---|
|------------^8--8-----8---|--8---8---8---8--8---8---|
|------------^9--9-----9---|--9---9---9---9--9---9---|
|------------^9--9-----9---|--9---9---9---9--9---9---|
|------------^7--7-----7---|--7---7---7---7--7---7---|
|--------------------------|-------------------------|


  Bmadd11
  Q  E +E  E E Q  E Q  E   Q  E Q  E E E E Q  E
|--------------0---------|-----------0-------------|
|--------------0---------|-------------0-----------|
|----------7------7----7-|------7--------7---------|
|----9-(9)---9------9----|----9----9-------9-------|
|------------------------|-9------------------9----|
|-7----------------------|-------------------------|
|
| Q  E +E  E E Q  E Q  E   Q  E Q  E E E E Q  E
|--------------0---------|-----------0-------------|
|--------------0---------|-------------0-----------|
|----------7------7----7-|------7--------7---------|
|----9-(9)---9------9----|----9----9-------9-------|
|-9----------------------|-9------------------9----|
|------------------------|-------------------------|
|
| W                        W
|------------------------|-------------------------|
|------------------------|-------------------------|
|------------------------|-------------------------|
|------------------------|-------------------------|
|------------------------|-------------------------|
|------------------------|-------------------------|


  Em
  Q.   Q.    Q  E +Q    E   +Q   E Q   E Q  E Q   E
|-----------^9--7-(7)-----|--------------7----------|
|-----------^8--8-(8)---7-|-(7)--8-7--------8-------|
|-----------^9--9-(9)-----|-------------------9-----|
|-----------^9--9-(9)-----|------------9----------9-|
|------7----^7--7-(7)-----|-------------------------|
|-0----0------------------|-------------------------|
|
| Q.   Q.    Q  E  Q    E   +Q   E Q   E Q  E Q   E
|-----------^9--7---------|--------------7----------|
|-----------^8--8-------7-|-(7)--8-7--------8-------|
|-----------^9--9---------|-------------------9-----|
|-----------^9--9---------|------------9----------9-|
|------7----^7--7---------|-------------------------|
|-0----------------0------|-------------------------|
|
|                     >
| H.         Q  Q     Q      Q   Q   Q   Q  Q   Q
|-----------^7--7-----7---|--7---7---7---7--7---7---|
|-----------^8--8-----8---|--8---8---8---8--8---8---|
|-----------^9--9-----9---|--9---9---9---9--9---9---|
|-----------^9--9-----9---|--9---9---9---9--9---9---|
|-----------^7--7-----7---|--7---7---7---7--7---7---|
|-------------------------|-------------------------|


  Badd11         Cmaj7                           C#m7/F#
  Q  E Q  E Q  E  Q.      +Q   E Q  E  Q   E  Q  E
|------0---------------|-------0----------------------|
|---------0------------|---------0--------------------|
|-----------8-----x----|--(x)-------9-----------------|
|----9------9--9-10----|-(10)---------10--------------|
|-----------9----10----|-(10)-------------10-10--4----|
|-7---------7-----8----|--(8)--------------8--8--2----|
|
| Q  E Q  E Q  E  Q.      +Q   E Q  E  Q   E  Q  E
|------0---------------|-------0----------------------|
|---------0------------|---------0--------------------|
|-----------8----------|------------9-----------------|
|----9------9--9-10----|-(10)---------10--------------|
|-----------9----10----|-(10)-------------10-10--4----|
|-7---------7-----8----|--(8)--------------8--8--2----|
|
| W                        W





|----------------------|------------------------------|
|----------------------|------------------------------|
|----------------------|------------------------------|
|----------------------|------------------------------|
|----------------------|------------------------------|
|----------------------|------------------------------|


                   G                             Am
 9/8              12/8
  Q  E Q  E Q  E   E E E E E E E E E E  a  E E   E  +E  E E E E  Q.    +Q    E
|------0---------|-----------------------------|-------------------------------|
|----0----0------|-----------------0---------3-|-----------------------------8-|
|----------------|-----------0-0h2---3-(3)s4---|-------------------------------|
|--------------4-|-----0-0h2-------------------|------------5----5-----(5)-----|
|-4---------4----|---0-------------------------|--------5h7---7----------------|
|-2---------2----|-2---------------------------|-5--(5)------------------------|
|
| Q  E Q  E Q  E   E E E E E E E E E E  a  E E   E  +E  E E E E  Q.    +Q    E
|------0---------|-----------------------------|-------------------------------|
|----0----0------|-----------------0---------3-|-----------------------------8-|
|----------------|-----------0-0h2---3-(3)s4---|-------------------------------|
|--------------4-|-----0-0h2-------------------|------------5----5-----(5)-----|
|-4---------4----|---0-------------------------|--------5h7---7----------------|
|-2---------2----|-2---------------------------|-5--(5)------------------------|
|
|                                                                          >
| W                W                             H.              Q   Q     Q
|----------------|-----------------------------|-------------------------------|
|----------------|-----------------------------|----------------^8---8-----8---|
|----------------|-----------------------------|----------------^7---7-----7---|
|----------------|-----------------------------|----------------^5---5-----5---|
|----------------|-----------------------------|-------------------------------|
|----------------|-----------------------------|-5-----------------------------|


  E  a  E E E  a   E  E  E   a   E  E  E   a   E E
|------------------------------------------------0---|
|---------8----------13------------15------------0---|
|-7-(7)s9---9-(9)s12----12-(12)s14----14-(14)s16-----|
|----------------------------------------------------|
|----------------------------------------------------|
|----------------------------------------------------|
|
| E  a  E E E  a   E  E  E   a   E  E  E   a   E E
|------------------------------------------------0---|
|---------8----------13------------15------------0---|
|-7-(7)s9---9-(9)s12----12-(12)s14----14-(14)s16-----|
|----------------------------------------------------|
|----------------------------------------------------|
|----------------------------------------------------|
|
| Q       Q        Q     Q          Q          Q
|----------------------------------------------------|
|-8-------8--------8-----8----------8----------8-----|
|-7-------7--------7-----7----------7----------7-----|
|-5-------5--------5-----5----------5----------5-----|
|----------------------------------------------------|
|----------------------------------------------------|


  Gmaj7
  H.       E E E E E E   E E E E E  a  E E E  a  E E E E
|----------2p0---------|---------------------------------|
|--------------3p0-----|-----------------0---------------|
|------------------4p0-|-2p0---0h2-(2)s4---4-(4)s2p0h2p0-|
|----------------------|-----4---------------------------|
|----------------------|---------------------------------|
|-3--------------------|---------------------------------|
|
| H.       E E E E E E   E E E E E  a  E E E  a  E E E E





|----------2p0---------|---------------------------------|
|--------------3p0-----|-----------------0---------------|
|------------------4p0-|-2p0---0h2-(2)s4---4-(4)s2p0h2p0-|
|----------------------|-----4---------------------------|
|----------------------|---------------------------------|
|-3--------------------|---------------------------------|
|
|                  >
| H.       Q   Q   Q     Q   Q   Q       Q       Q   Q
|---------^2---2---2---|-2---2---2-------2-------2---2---|
|---------^3---3---3---|-3---3---3-------3-------3---3---|
|---------^0---0---0---|-0---0---0-------0-------0---0---|
|---------^0---0---0---|-0---0---0-------0-------0---0---|
|----------------------|---------------------------------|
|-3--------------------|---------------------------------|


  Am
   Q.   Q  E  S  E. S  E. +E  E   Q     E Q     E Q     E Q.
|-------------5-(5)-5-(5)-(5)-5-|-------5-------5-------5--------|
|-------------5-(5)-5-(5)-(5)---|-3b5-----3b5-----3b5------------|
|-------------5h=7--5h=7--(7)---|--------------------------------|
|-------------7-(7)-7-(7)-(7)---|--------------------------------|
|-------------------------------|--------------------------------|
|-/5----5--5--------------------|--------------------------------|
|
|  Q.   Q  E  S  E. S  E. +E  E   E   E E E   E E E   E E E E E
|-------------5-(5)-5-(5)-(5)-5-|-------5-------5-------5--------|
|-------------5-(5)-5-(5)-(5)---|--------------------------------|
|-------------5h=7--5h=7--(7)---|-5h==7---5h==7---5h==7----------|
|-------------7-(7)-7-(7)-(7)---|-------------------------5h7-5--|
|-------------------------------|--------------------------------|
|-/5----5--5--------------------|--------------------------------|
|
|                          >
|  H.         Q     Q      Q      Q     Q     Q   Q     Q   Q
|------------^5-----5------5----|-5-----5-----5---5-----5---5----|
|------------^5-----5------5----|-5-----5-----5---5-----5---5----|
|------------^7-----7------7----|-7-----7-----7---7-----7---7----|
|------------^7-----7------7----|-7-----7-----7---7-----7---7----|
|------------^5-----5------5----|-5-----5-----5---5-----5---5----|
|--5----------------------------|--------------------------------|


  Gmaj7                                   N.C.
  Q.   Q.    Q  E +Q    E   +Q   E +Q.    Q   Q   Q
|------------2--2-(2)---2-|-(2)--2-(2)---------------||
|------------3--3-(3)---3-|-(3)--3-(3)---------------||
|------------0--0-(0)---0-|-(0)--0-(0)----7---9--11--||
|------------0--0-(0)---0-|-(0)--0-(0)----x---x---x--||
|------------x--x-(x)---x-|-(x)--x-(x)----5---7---9--||
|-3----3-----3--3-(3)---3-|-(3)--3-(3)---------------||
|
| Q.   Q.    Q  E +Q    E   +H.           Q   Q   Q
|------------2--2-(2)---2-|-(2)----------------------||
|------------3--3-(3)---3-|-(3)----------------------||
|------------0--0-(0)---0-|-(0)-----------7---9--11--||
|------------0--0-(0)---0-|-(0)-----------x---x---x--||
|------------x--x-(x)---x-|-(x)-----------5---7---9--||
|-3----3-----3--3-(3)---3-|-(3)----------------------||
|
|                     >
| H.         Q  Q     Q      Q   Q     Q  H.
|-----------^2--2-----2---|--2---2-----2-------------||
|-----------^3--3-----3---|--3---3-----3-------------||
|-----------^0--0-----0---|--0---0-----0-------------||
|-----------^0--0-----0---|--0---0-----0-------------||
|-------------------------|--------------------------||
|-3-----------------------|--------------------------||


 Chorus
  G6                                N.C.
  Gtr I
   Q  Q  E E Q  E Q  E    Q  E Q  E Q  Q   Q

|------------0---------|-------0--------------|
|----------0-0---------|-------0--------------|
|--------7------7----7-|------------7--9--10--|
|-----9-----------9----|-----9----9-x--x---x--|
|-10-------------------|-10---------5--7---8--|
|----------------------|----------------------|
|
| Gtr II
|  Q  Q  E E Q  E Q  E    Q  E Q  E Q  Q   Q
|------------0---------|-------0--------------|
|----------0-0---------|-------0--------------|
|--------7------7----7-|------------7--9--10--|
|-----9-----------9----|-----9----9-x--x---x--|
|-10-------------------|-10---------5--7---8--|
|----------------------|----------------------|


  Bmadd11/F#                      N.C.
  Q  Q  E E Q  E Q  E   Q  E Q  E  Q   Q   Q
|-----------0---------|-------------------------||
|---------0-0---------|------0----12------------||
|-------7------7----7-|------------x--12--11----||
|----9-----------9----|----9----9--9---x---x----||
|-9-------------------|-9-------------10---9----||
|---------------------|-------------------------||
|
| Q  Q  E E Q  E Q  E   Q  E Q  E  Q   Q   Q
|-----------0---------|-------------------------||
|---------0-0---------|------0----12------------||
|-------7------7----7-|------------x--12--11----||
|----9-----------9----|----9----9--9---x---x----||
|-9-------------------|-9-------------10---9----||
|---------------------|-------------------------||


 Verse
  Em
   Q.   Q.    Q  E +Q    E   +Q   E Q   E Q  E Q   E
|------------^9--7-(7)-----|--------------7----------|
|------------^8--8-(8)---7-|-(7)--8-7--------8-------|
|-/9---------^9--9-(9)-----|-------------------9-----|
|--x---------^9--9-(9)-----|------------9----------9-|
|-/7---------^7--7-(7)-----|-------------------------|
|-------0------------------|-------------------------|
|
|  Q.   Q.    Q  E +Q    E   +Q   E Q   E Q  E Q   E
|------------^9--7-(7)-----|--------------7----------|
|------------^8--8-(8)---7-|-(7)--8-7--------8-7-----|
|-/9---------^9--9-(9)-----|-------------------------|
|--x---------^9--9-(9)-----|------------9----------9-|
|-/7---------^7--7-(7)-----|-------------------------|
|-------0------------------|-------------------------|
|
| Gtr III
|                      >
|  H.         Q  Q     Q      Q   Q   Q   Q  Q   Q
|------------^7--7-----7---|--7---7---7---7--7---7---|
|------------^8--8-----8---|--8---8---8---8--8---8---|
|------------^9--9-----9---|--9---9---9---9--9---9---|
|------------^9--9-----9---|--9---9---9---9--9---9---|
|------------^7--7-----7---|--7---7---7---7--7---7---|
|--------------------------|-------------------------|


  Bmadd11
  Q  E +E  E E Q  E Q  E   Q  E Q  E E E E Q  E
|--------------0---------|-----------0-------------|
|--------------0---------|-------------0-----------|
|----------7------7----7-|------7--------7---------|
|----9-(9)---9------9----|----9----9-------9-------|
|-9----------------------|-9------------------9----|
|------------------------|-------------------------|
|
| Q  E +E  E E Q  E Q  E   Q  E Q  E E E E Q  E


|--------------0---------|-----------0-------------|
|--------------0---------|-------------0-----------|
|----------7------7----7-|------7--------7---------|
|----9-(9)---9------9----|----9----9-------9-------|
|-9----------------------|-9------------------9----|
|------------------------|-------------------------|
|
| W                        W
|------------------------|-------------------------|
|------------------------|-------------------------|
|------------------------|-------------------------|
|------------------------|-------------------------|
|------------------------|-------------------------|
|------------------------|-------------------------|


  Em
  Q.   Q.    Q  E +Q     E   +Q   E Q   E Q  E Q   E
|-----------^9--7-(7)------|--------------7----------|
|-----------^8--8-(8)---^7-|-(7)--8-7--------8-------|
|-----------^9--9-(9)---^9-|-------------------9-----|
|-----------^9--9-(9)---^9-|------------9----------9-|
|------7----^7--7-(7)------|-------------------------|
|-0----0-------------------|-------------------------|
|
| Q.   Q.    Q  E +Q     E   +Q   E Q   E Q  E Q   E
|-----------^9--7-(7)------|--------------7----------|
|-----------^8--8-(8)----7-|-(7)--8-7--------8-7-----|
|-----------^9--9-(9)------|-------------------------|
|-----------^9--9-(9)------|------------9----------9-|
|------7----^7--7-(7)------|-------------------------|
|-0------------------------|-------------------------|
|
|                     >
| H.         Q  Q     Q       Q   Q   Q   Q  Q   Q
|-----------^7--7-----7----|--7---7---7---7--7---7---|
|-----------^8--8-----8----|--8---8---8---8--8---8---|
|-----------^9--9-----9----|--9---9---9---9--9---9---|
|-----------^9--9-----9----|--9---9---9---9--9---9---|
|-----------^7--7-----7----|--7---7---7---7--7---7---|
|--------------------------|-------------------------|


  Badd11         Cmaj7                           C#m7/F#
  Q  E Q  E Q  E  Q.      +Q   E Q  E  Q   E  Q  E
|------0---------------|-------0----------------------|
|---------0------------|---------0--------------------|
|-----------8-----x----|--(x)-------9-----------------|
|----9------9--9-10----|-(10)---------10--------------|
|-----------9----10----|-(10)-------------10-10--4----|
|-7---------7-----8----|--(8)--------------8--8--2----|
|
| Q  E Q  E Q  E  Q.      +Q   E Q  E  Q   E  Q  E
|------0---------------|-------0----------------------|
|---------0------------|---------0--------------------|
|-----------8----------|------------9-----------------|
|----9------9--9-10----|-(10)---------10--------------|
|-----------9----10----|-(10)-------------10-10--4----|
|-7---------7-----8----|--(8)--------------8--8--2----|
|
| W                        W
|----------------------|------------------------------|
|----------------------|------------------------------|
|----------------------|------------------------------|
|----------------------|------------------------------|
|----------------------|------------------------------|
|----------------------|------------------------------|


                   G                             Am
 9/8              12/8
  Q  E Q  E Q  E   E E E E E E E E E E  a  E E   E  +E  E E E E  Q.    +Q    E




|------0---------|-----------------------------|-------------------------------|
|----0----0------|-----------------0---------3-|-----------------------------8-|
|----------------|-----------0-0h2---3-(3)s4---|-------------------------------|
|--------------4-|-----0-0h2-------------------|------------5----5-----(5)-----|
|-4---------4----|---0-------------------------|--------5h7---7----------------|
|-2---------2----|-2---------------------------|-5--(5)------------------------|
|
| Q  E Q  E Q  E   E E E E E E E E E E  a  E E   E  +E  E E E E  Q.    +Q    E
|------0---------|-----------------------------|-------------------------------|
|----0----0------|-----------------0---------3-|-----------------------------8-|
|----------------|-----------0-0h2---3-(3)s4---|-------------------------------|
|--------------4-|-----0-0h2-------------------|------------5----5-----(5)-----|
|-4---------4----|---0-------------------------|--------5h7---7----------------|
|-2---------2----|-2---------------------------|-5--(5)------------------------|
|
| Gtr III
|                                                                          >
| W                W                             H.              Q   Q     Q
|----------------|-----------------------------|-------------------------------|
|----------------|-----------------------------|----------------^8---8-----8---|
|----------------|-----------------------------|----------------^7---7-----7---|
|----------------|-----------------------------|----------------^5---5-----5---|
|----------------|-----------------------------|-------------------------------|
|----------------|-----------------------------|-5-----------------------------|


  E  a  E E E  a   E  E  E   a  E  E E  a  E E
|--------------------------------------------0---|
|---------8----------13-----------10---------0---|
|-7-(7)s9---9-(9)s12----12-(12)s9----9-(9)s7-----|
|------------------------------------------------|
|------------------------------------------------|
|------------------------------------------------|
|
| E  a  E E E  a   E  E  E   a  E  E E  a  E E
|--------------------------------------------0---|
|---------8----------13-----------10---------0---|
|-7-(7)s9---9-(9)s12----12-(12)s9----9-(9)s7-----|
|------------------------------------------------|
|------------------------------------------------|
|------------------------------------------------|
|
| Q       Q        Q     Q         Q       Q
|------------------------------------------------|
|-8-------8--------8-----8---------8-------8-----|
|-7-------7--------7-----7---------7-------7-----|
|-5-------5--------5-----5---------5-------5-----|
|------------------------------------------------|
|------------------------------------------------|


  Gmaj7
  H.       E E E E E E   E E E E E  a  E E E  a  E E E E
|----------2p0---------|---------------------------------|
|--------------3p0-----|-----------------0---------------|
|------------------4p0-|-2p0---0h2-(2)s4---4-(4)s2p0h2p0-|
|----------------------|-----4---------------------------|
|----------------------|---------------------------------|
|-3--------------------|---------------------------------|
|
| H.       E E E E E E   E E E E E  a  E E E  a  E E E E
|----------2p0---------|---------------------------------|
|--------------3p0-----|-----------------0---------------|
|------------------4p0-|-2p0---0h2-(2)s4---4-(4)s2p0h2p0-|
|----------------------|-----4---------------------------|
|----------------------|---------------------------------|
|-3--------------------|---------------------------------|
|
|                  >
| H.       Q   Q   Q     Q   Q   Q       Q       Q   Q
|---------^2---2---2---|-2---2---2-------2-------2---2---|
|---------^3---3---3---|-3---3---3-------3-------3---3---|
|---------^0---0---0---|-0---0---0-------0-------0---0---|
|---------^0---0---0---|-0---0---0-------0-------0---0---|
|----------------------|---------------------------------|
|-3--------------------|---------------------------------|


  Am
   Q.   Q  E  S  E. S  E. +E  E   Q     E Q     E Q     E Q.
|-------------5-(5)-5-(5)-(5)-5-|-------5-------5-------5--------|
|-------------5-(5)-5-(5)-(5)---|-3b5-----3b5-----3b5------------|
|-------------5h=7--5h=7--(7)---|--------------------------------|
|-------------7-(7)-7-(7)-(7)---|--------------------------------|
|-------------------------------|--------------------------------|
|-/5----5--5--------------------|--------------------------------|
|
|  Q.   Q  E  S  E. S  E. +E  E   E   E E E   E E E   E E E E E
|-------------5-(5)-5-(5)-(5)-5-|-------5-------5-------5--------|
|-------------5-(5)-5-(5)-(5)---|--------------------------------|
|-------------5h=7--5h=7--(7)---|-5h==7---5h==7---5h==7----------|
|-------------7-(7)-7-(7)-(7)---|-------------------------5h7-5--|
|-------------------------------|--------------------------------|
|-/5----5--5--------------------|--------------------------------|
|
|                          >
|  H.         Q     Q      Q      Q     Q     Q   Q     Q   Q
|------------^5-----5------5----|-5-----5-----5---5-----5---5----|
|------------^5-----5------5----|-5-----5-----5---5-----5---5----|
|------------^7-----7------7----|-7-----7-----7---7-----7---7----|
|------------^7-----7------7----|-7-----7-----7---7-----7---7----|
|------------^5-----5------5----|-5-----5-----5---5-----5---5----|
|--5----------------------------|--------------------------------|


  Gmaj7                                     N.C.
  Q.   Q.     Q  E +Q    E   +Q   E +Q    E Q   Q   Q
|-------------2--2-(2)---2-|-(2)--2-(2)---0-------------|
|-------------3--3-(3)---3-|-(3)--3-(3)---0-------------|
|-------------0--0-(0)---0-|-(0)--0-(0)---0-4---5---7---|
|-------------0--0-(0)---0-|-(0)--0-(0)---0-5---7---9---|
|-------------x--x-(x)---x-|-(x)--x-(x)-----------------|
|-3----3------3--3-(3)---3-|-(3)--3-(3)-----------------|
|
| Q.   Q   E  Q  E +Q    E   +H.            Q   Q   Q
|-------------2--2-(2)---2-|-(2)------------------------|
|-------------3--3-(3)---3-|-(3)------------------------|
|-------------0--0-(0)---0-|-(0)------------4---5---7---|
|-------------0--0-(0)---0-|-(0)------------5---7---9---|
|-------------x--x-(x)---x-|-(x)------------------------|
|-3----3---3--3--3-(3)---3-|-(3)------------------------|
|
|                      >
| H.          Q  Q     Q      Q   Q     Q   E E E E E E
|------------^2--2-----2---|--2---2-----2---------------|
|------------^3--3-----3---|--3---3-----3---------------|
|------------^0--0-----0---|--0---0-----0---------------|
|------------^0--0-----0---|--0---0-----0-------------5-|
|--------------------------|--------------------3-5h7---|
|-3------------------------|----------------3h5---------|


 Guitar Solo
  Cmaj7/G
  Gtr III
   E.   S S S S E   +Q.         e.     Q.
|----------------------------------------------|
|----------------------------------------------|
|-------7-7-7-7-7---(7)---------9--------------|
|-/9-------------------------------------------|
|----------------------------------------------|
|----------------------------------------------|
|
| Gtrs I, II
|  H.                      Q.         +Q     E







|----------------------------------------------|
|----------------------------------------------|
|--9-----------------------9----------(9)----9-|
|-10----------------------10---------(10)---10-|
|----------------------------------------------|
|----------------------------------------------|
|
| Gtrs IV, V
|  E  E   E   E   E     E  E  E    E   E  E  E
|----------------------------------------------|
|-------------5------------5-------5------5----|
|-----5-----------5-----------5--------------5-|
|--9------9-------------9--------------9-------|
|----------------------------------------------|
|----------------------------------------------|


   Q.      S  S S S S S  S  S  S S  S S  S  S  S  S      S  S
|-------------------------------------------------------------|
|----------7--7-7-7-8-8-10-10-10-8--8-8-10-10-10-10b12==10-10-|
|-------------------------------------------------------------|
|-------------------------------------------------------------|
|-------------------------------------------------------------|
|-------------------------------------------------------------|
|
|  Q.      Q.            Q          Q          Q
|-------------------------------------------------------------|
|-------------------------------------------------------------|
|--9-------9-------------9---------10----------9--------------|
|-10------10------------10---------12---------10--------------|
|-------------------------------------------------------------|
|-------------------------------------------------------------|
|
|  E  E E  E    E   E    E     E    E    E     E         E
|-------------------------------------------------------------|
|--5-------5--------------------------------------------------|
|-----5---------5--------------7------------------------------|
|-------9-----------9----9----------9----------9--------------|
|---------------------------------------10--------------10----|
|-------------------------------------------------------------|


  G
   S  S S  S  S  S  +E.    E.     H.
|----------------------------------------------|
|-10r10-7-10-10-10-(10)---10b12----------------|
|----------------------------------------------|
|----------------------------------------------|
|----------------------------------------------|
|----------------------------------------------|
|
|  H.                             H.
|----------------------------------------------|
|----------------------------------------------|
|--7------------------------------7------------|
|--9------------------------------9------------|
|----------------------------------------------|
|----------------------------------------------|
|
|  E    E     E      E  E       E E  E E E E E
|--------------------------------------0-------|
|-------------0-----------------0--------------|
|--7-----------------7------------7--------7---|
|-------9---------------9------------9---9---9-|
|----------------------------------------------|
|----------------------------------------------|


  Q.      E   E  E  E  E  E  E  E  E







|------------------------------------|
|--------12--13----12-15-13----13-12-|
|---------------14----------14-------|
|------------------------------------|
|------------------------------------|
|------------------------------------|
|
| Q.      Q.        Q     Q     Q
|------------------------------------|
|------------------------------------|
|-7-------7---------7-----9-----7----|
|-9-------9---------9----10-----9----|
|------------------------------------|
|------------------------------------|
|
| E  E E  E   E  E  E  E  E  E  E  E
|------------------------------------|
|-------------------------0--------0-|
|----7----7---------7--------7-------|
|-9----9------9--------9--------9----|
|---------------10-------------------|
|------------------------------------|


                                     Am
   S  S  S  S S S  S   S  S  S  S  S  S   S  S  S  S  S  S  S  S  S  S  S
|-------------------------------------------------------------------------|
|-12h13p12----------------------------------------------------------------|
|----------14-x-x-12-----14----12h14p12h=14p12h14p12h14p12h14p12h14p12h14p|
|---------------------14----14--------------------------------------------|
|-------------------------------------------------------------------------|
|-------------------------------------------------------------------------|
|
|  Q          E   +Q            E     Q            H
|-------------------------------------------------------------------------|
|-------------------------------------------------------------------------|
|-------------7---(7)-----------7-----7\-----------5----------------------|
|-/9----------9---(9)-----------------9\-----------7----------------------|
|-------------------------------------------------------------------------|
|-------------------------------------------------------------------------|
|
|  E     E    E    E      E     E     E      E     E     E     E     E
|-------------------------0-----------------------------------------------|
|--------0----------------------0------------0----------------------------|
|-------------7------------------------------------5-----------5----------|
|--9---------------9------------------7------------------7-----------7----|
|-------------------------------------------------------------------------|
|-------------------------------------------------------------------------|


   S  S  S  S  S  S  S  S  S  S  S S  S.  S.  S.    S.  +E.  E.
|-------------------------------------------------------------------|
|-------------------------------------------------------------------|
|-12h14p12h14p12-14p12h14p12----14-x--------------------------------|
|----------------------------14------14--12-----------------10------|
|--------------------------------------------12----12--(12)---------|
|-------------------------------------------------------------------|
|
|  H.                                 Q          E       Q      E
|-------------------------------------------------------------------|
|-------------------------------------------------------------------|
|--5---------------------------------/7----------5-------4------5---|
|--7---------------------------------/9----------7-------5------7---|
|-------------------------------------------------------------------|
|-------------------------------------------------------------------|
|
|  E     E     E     E     E     E    Q          E       Q      E
|--------------------0----------------------------------------------|
|--0-----------------------0----------------------------------------|
|--------5-----------------------0---/5----------4-------2------5---|
|--------------7---------------------/7----------5-------4------7---|
|-------------------------------------------------------------------|
|-------------------------------------------------------------------|



  G6
   Q.      +Q     a  E  Q.      +E.    S.    S.
|-----------------------------------------------|
|-----------------------------------------------|
|-----------------------------------------------|
|-12------(12)---12h14-12------(12)---12----14--|
|-----------------------------------------------|
|-----------------------------------------------|
|
|  H.                   H.
|-----------------------------------------------|
|-----------------------------------------------|
|--4--------------------4-----------------------|
|--5--------------------5-----------------------|
|-----------------------------------------------|
|-----------------------------------------------|
|
|  E  E E   E  E     E  E  E E   E  E     E
|--------------------------------0--------------|
|-------0------0-------------0------0-----------|
|-----4-----4--------4-----4--------------4-----|
|--5--------------------5-----------------------|
|-----------------------------------------------|
|-----------------------------------------------|


          ~~~~~~~~~~~~~~~~~~
   Q.     H.            +E.   +E.
|------------------------------------|
|------------------------------------|
|------------------------------------|
|-\7------7b8-----------(7)---(7)\---|
|------------------------------------|
|------------------------------------|
|
| +H.             Q   Q     Q
|------------------------------------|
|------------------------------------|
|-(4)-------------4---5-----7--------|
|-(5)-------------5---7-----9--------|
|------------------------------------|
|------------------------------------|
|
|  E  E E E   E E E E E  E  E      E
|------------------------------------|
|-------0-----0-------0------------0-|
|-----4---4-----4---4-------4--------|
|--5--------------5------5-----------|
|------------------------------------|
|------------------------------------|


  Cmaj7/G
   E.  E.   +E.   E   E     E.   +e    E  S +E.
|--------------------------------------------------|
|--------------------------------------------------|
|--------------------------------------------------|
|-----------------5---4-----5----(5)---5s=7-(7)----|
|--5s==7----(7)------------------------------------|
|--------------------------------------------------|
|
|  H.                    Q.           +Q         E
|--------------------------------------------------|
|--------------------------------------------------|
|--9---------------------9------------(9)--------9-|
|-10--------------------10-----------(10)-------10-|
|--------------------------------------------------|
|--------------------------------------------------|
|
|  E E    E  E  E   E    E     E  E    E  E      E
|--------------------------------------------------|
|------------5-----------5--------5-------5--------|
|----5----------5--------------5-----------------5-|
|--9------9---------9------------------9-----------|
|--------------------------------------------------|
|--------------------------------------------------|


  +S. S.   S.   S.  S. e   e   e    S.   S.    S.  S. S.    S.    S.
|----------------------------------------------------------------------|
|-----------------------------------------------------------8----------|
|----------------------4-------4----7----5-----4---7--9-----------9----|
|-(7)-7----5----4---5------7-------------------------------------------|
|----------------------------------------------------------------------|
|----------------------------------------------------------------------|
|
|  Q.               Q.            Q          Q            Q
|----------------------------------------------------------------------|
|----------------------------------------------------------------------|
|--9----------------9-------------9---------10------------9------------|
|-10---------------10------------10---------12-----------10------------|
|----------------------------------------------------------------------|
|----------------------------------------------------------------------|
|
|  E     E    E     E    E   E    E    E     E     E      E     E
|----------------------------------------------------------------------|
|--5----------------5--------------------------------------------------|
|--------5---------------5-------------7-------------------------------|
|-------------9--------------9----9----------9------------9------------|
|-------------------------------------------------10-----------10------|
|----------------------------------------------------------------------|


  G
  E E E  E E  E E E E  a   E E E    E  E E E  E  E E E  E E E E
|---------------7h8-8-(8)s10-----|-10----7---------8------------|
|-8p7-8-10-8-10--------------8-7-|-----8---8--7------8----8-7---|
|--------------------------------|---------------9------9-----9-|
|--------------------------------|------------------------------|
|--------------------------------|------------------------------|
|--------------------------------|------------------------------|
|
| H.            H.                  Q.     Q.      Q    Q   Q
|--------------------------------|------------------------------|
|--------------------------------|------------------------------|
|-7-------------7----------------|--7------7-------7----9---7---|
|-9-------------9----------------|--9------9-------9---10---9---|
|--------------------------------|------------------------------|
|--------------------------------|------------------------------|
|
| E E E  E E  E E E E      E E E    E  E E E  E  E E E  E E E E
|-------------------0------------|------------------------------|
|-----0-------0------------------|----------------------0-----0-|
|-7------7------7------------7---|-----7---7-------7------7-----|
|---9------9------9--------9---9-|--9----9----9------9------9---|
|--------------------------------|--------------10--------------|
|--------------------------------|------------------------------|


                              Am
                           ~~~~~~~~~~~~~~~~~~
   S S S  S e  E   E      +E   +Q.      +E    E E
|-------------------------------------------------|
|-------------------------------------------------|
|--7-9-7------------------------------------------|
|--------10-9-10--10b12==(10)-(10)-----(10)r-10-9-|
|-------------------------------------------------|
|-------------------------------------------------|
|
|  Q        E +Q           E    Q    H
|-------------------------------------------------|
|-------------------------------------------------|
|-----------7-(7)----------7----7\---5------------|
|-/9--------9-(9)---------------9\---7------------|
|-------------------------------------------------|
|-------------------------------------------------|
|
|  E   E    E  E   E       E    E  E E   E    E E




|------------------0------------------------------|
|------0-------------------0-------0--------------|
|-----------7------------------------5--------5---|
|--9-----------9----------------7--------7------7-|
|-------------------------------------------------|
|-------------------------------------------------|


           ~~~~~~~~
   E   E  +E   +Q    E  E E E E E E
|-----------------------------------|
|-----------------------------------|
|-----------------------------------|
|-10--10-(10)-(10)---9-10-9-7-9-7-5-|
|-----------------------------------|
|-----------------------------------|
|
|  H.                   Q   E Q   E
|-----------------------------------|
|-----------------------------------|
|--5-------------------/7---5-4---5-|
|--7-------------------/9---7-5---7-|
|-----------------------------------|
|-----------------------------------|
|
|  E   E   E    E  E E  Q   E Q   E
|---------------0-------------------|
|--0---------------0----------------|
|------5-------------0-/5---4-2---5-|
|----------7-----------/7---5-4---7-|
|-----------------------------------|
|-----------------------------------|


  G6
  TP     TP     TP     TP        TP     TP     TP  TP  TP
  Q.     Q.     Q.     Q.        Q.     Q.     Q   Q   Q
|-----------------------------|----------------------------|
|-----------------------------|----------------------------|
|-----------------------------|----------------------------|
|-7------5------4-------------|----------------------------|
|----------------------7------|--5------3------3-----------|
|-----------------------------|--------------------7---5---|
|
| H.            H.              +H.            Q   Q   Q
|-----------------------------|----------------------------|
|-----------------------------|----------------------------|
|-4-------------4-------------|-(4)------------4---5---7---|
|-5-------------5-------------|-(5)------------5---7---9---|
|-----------------------------|----------------------------|
|-----------------------------|----------------------------|
|
| E  E E E  E E E  E E E  E E    E  E E E  E E E E E E E E
|----------------------0------|----------------------------|
|------0----0--------0----0---|-------0----0-------0-----0-|
|----4---4----4----4--------4-|-----4---4----4---4-----4---|
|-5-------------5-------------|--5-------------5-----5-----|
|-----------------------------|----------------------------|
|-----------------------------|----------------------------|


  Cmaj7/G
   TP      TP          TP~
   Q.     +E.   S S S  H.
|---------------------------------------|
|---------------------------------------|
|---------------------------------------|
|---------------------------------------|
|---------------------------------------|
|--7------(7)---7h8p5h=7----------------|
|
|  H.                  Q.      +Q     E




|---------------------------------------|
|---------------------------------------|
|--9-------------------9-------(9)----9-|
|-10------------------10------(10)---10-|
|---------------------------------------|
|---------------------------------------|
|
|  E  E E  E  E   E    E  E E   E  E  E
|---------------------------------------|
|----------5-----------5----5------5----|
|-----5-------5-----------5-----------5-|
|--9----9---------9-------------9-------|
|---------------------------------------|
|---------------------------------------|


   TP      TP        TP       TP
   Q.     +Q    S S  Q.      +E   E  E
|---------------------------------------|
|---------------------------------------|
|---------------------------------------|
|---------------------------------------|
|---------------------------------------|
|--7------(7)---8-5--7-------(7)--5--3--|
|
|  Q.      Q.        Q     Q      Q
|---------------------------------------|
|---------------------------------------|
|--9-------9---------9----10------9-----|
|-10------10--------10----12-----10-----|
|---------------------------------------|
|---------------------------------------|
|
|  E  E E  E  E E    E  E  E  E   E  E
|---------------------------------------|
|--5-------5----------------------------|
|-----5-------5---------7---------------|
|-------9-------9----9-----9------9-----|
|----------------------------10-----10--|
|---------------------------------------|


  G
                      ~~~~~~~~~~~~~~~~~~~~~
  Q    E   +Q    E   +H.               +Q.     E E  E E E  E E  E E
|------------------------------------|------------------------------|
|------------------------------------|------------------------------|
|------------------------------------|------------------------------|
|------------------------------------|---------------------5------5-|
|------------------------------------|--------------3h5------5-/7---|
|-5----5b7-(5)---5b7-(5)b7-----------|-(5)-----3h5------0-----------|
|
| H.                  H.                Q.     Q.     Q    Q    Q
|------------------------------------|------------------------------|
|------------------------------------|------------------------------|
|-7-------------------7--------------|--7------7------7----9----7---|
|-9-------------------9--------------|--9------9------9---10----9---|
|------------------------------------|------------------------------|
|------------------------------------|------------------------------|
|
| E  E E    E  E E    E    E E E E E    E  E E E E  E E E  E E  E E
|----------------------------0-------|------------------------------|
|------0---------0-------------------|---------------------0------0-|
|-7---------7---------7----------7---|-----7---7------7------7------|
|----9---------9-----------9---9---9-|--9----9---9------9-------9---|
|------------------------------------|-------------10---------------|
|------------------------------------|------------------------------|


                             Am
   E.   S S  S S +E    +Q.        e.   Q.





|---------------------------------------------|
|---------------------------------------------|
|-------7-7--7-7-(7)---(7)--------9-----------|
|-/9------------------------------------------|
|---------------------------------------------|
|---------------------------------------------|
|
|  Q      Q.               E Q       H
|---------------------------------------------|
|---------------------------------------------|
|---------7----------------7-7\------5--------|
|-/9------9------------------9\------7--------|
|---------------------------------------------|
|---------------------------------------------|
|
|  E  E   E    E     E     E E  E    E E  E E
|--------------------0------------------------|
|-----0--------------------0----0-------------|
|---------7--------------------------5----5---|
|--9-----------9-------------7---------7----7-|
|---------------------------------------------|
|---------------------------------------------|


  Q.     S  S  S S  S S  S S  S S  S  S  S  S  S  S  S  S
|---------------------------------------------------------|
|---------------------------------------------10-------10-|
|--------------------------9------11-12-11-12----12-11----|
|--------9-------9h10-9h10---12-9-------------------------|
|----------12-10------------------------------------------|
|---------------------------------------------------------|
|
| H.                     Q         E     Q           E
|---------------------------------------------------------|
|---------------------------------------------------------|
|-5---------------------/7---------5-----4-----------5----|
|-7---------------------/9---------7-----5-----------7----|
|---------------------------------------------------------|
|---------------------------------------------------------|
|
| E  E E E     E    E    Q         E     Q           E
|--------0------------------------------------------------|
|-0------------0------------------------------------------|
|----5--------------0---/5---------4-----2-----------5----|
|------7----------------/7---------5-----4-----------7----|
|---------------------------------------------------------|
|---------------------------------------------------------|


  G6
   S   S  S  S  S  S  S  S  S  S S  S  S  S  S  S  S  S S  S  S  S  S  S
|-----------------------12----12-x-15p14p12----17----17-x-20p19p17----17-|
|-----10-12-15-13-12-15----15---------------20----20---------------20----|
|-12---------------------------------------------------------------------|
|------------------------------------------------------------------------|
|------------------------------------------------------------------------|
|------------------------------------------------------------------------|
|
|  H.                                  H.
|------------------------------------------------------------------------|
|------------------------------------------------------------------------|
|--4-----------------------------------4---------------------------------|
|--5-----------------------------------5---------------------------------|
|------------------------------------------------------------------------|
|------------------------------------------------------------------------|
|
|  E      E     E     E     E    E     E     E     E    E     E     E
|-------------------------------------------------------0----------------|
|---------------0-----------0----------------------0----------0----------|
|---------4-----------4----------4-----------4----------------------4----|
|--5-----------------------------------5---------------------------------|
|------------------------------------------------------------------------|
|------------------------------------------------------------------------|



   S   S  S  S  S  S  S  S  S  S  S  S  S  S  S  S  S  S  S  S  S  S  S     S
|-----17-20p19p17----17----17-20p19p17----17----17----20----17----17-------17--|
|-17--------------20----17-------------20----17----17----20----17----20b22-----|
|------------------------------------------------------------------------------|
|------------------------------------------------------------------------------|
|------------------------------------------------------------------------------|
|------------------------------------------------------------------------------|
|
| +H.                                   Q           Q           Q
|------------------------------------------------------------------------------|
|------------------------------------------------------------------------------|
|-(4)-----------------------------------4-----------5-----------7--------------|
|-(5)-----------------------------------5-----------7-----------9--------------|
|------------------------------------------------------------------------------|
|------------------------------------------------------------------------------|
|
|  E      E     E     E     E     E     E     E     E     E     E     E
|------------------------------------------------------------------------------|
|---------------0-----------0-----------------------0-----------------0--------|
|---------4-----------4-----------4-----------4-----------------4--------------|
|--5------------------------------------5-----------------5--------------------|
|------------------------------------------------------------------------------|
|------------------------------------------------------------------------------|


  Cmaj7/G
                                                                            ~~~~~~~~~
   S.    S.    S.      S.  S.    S.    S.      S.  S.    S.    S.      S.   Q.
|-------17------------17--------17------------17--------17------------17------------|
|-20b22-------20b22-------20b22-------20b22-------20b22-------20b22--------20-------|
|-----------------------------------------------------------------------------------|
|-----------------------------------------------------------------------------------|
|-----------------------------------------------------------------------------------|
|-----------------------------------------------------------------------------------|
|
|  H.                                              Q.                      +Q     E
|-----------------------------------------------------------------------------------|
|-----------------------------------------------------------------------------------|
|--9-----------------------------------------------9-----------------------(9)----9-|
|-10----------------------------------------------10----------------------(10)---10-|
|-----------------------------------------------------------------------------------|
|-----------------------------------------------------------------------------------|
|
|  E        E       E      E        E       E      E        E       E       E  E  E
|-----------------------------------------------------------------------------------|
|--------------------------5-----------------------5----------------5----------5----|
|-----------5-----------------------5-----------------------5---------------------5-|
|--9----------------9-----------------------9-------------------------------9-------|
|-----------------------------------------------------------------------------------|
|-----------------------------------------------------------------------------------|


    >
 ~~~~~~
   +H.              H.
|-------------------------------------|
|-(20)--------------------------------|
|-------------------------------------|
|-------------------------------------|
|-------------------------------------|
|-------------------------------------|
|
|   Q.      Q.      Q     Q     Q
|-------------------------------------|
|-------------------------------------|
|---9-------9-------9----10-----9-----|
|--10------10------10----12----10-----|
|-------------------------------------|
|-------------------------------------|
|
|   E  E E  E  E E  E  E  E  E  E  E





|-------------------------------------|
|---5-------5-------------------------|
|------5-------5-------7--------------|
|--------9-------9--9-----9-----9-----|
|---------------------------10----10--|
|-------------------------------------|


  G
   ~~~~~
                   |---------5---------|
   H.              S.  S.    S.  S.    S.  S.  S.    S.    S.
|-----------------12------------------------------------------|
|-15b17---------------15----13--12----13--12--10----12----10--|
|-------------------------------------------------------------|
|-------------------------------------------------------------|
|-------------------------------------------------------------|
|-------------------------------------------------------------|
|
|  H.              H.
|-------------------------------------------------------------|
|-------------------------------------------------------------|
|--7---------------7------------------------------------------|
|--9---------------9------------------------------------------|
|-------------------------------------------------------------|
|-------------------------------------------------------------|
|
|  E    E E E E E  E      E         E      E      E     E
|-----------------------------------0-------------------------|
|---------0-----0---------------------------------------------|
|--7--------7------7------------------------------7-----------|
|-------9-----9-----------9----------------9------------9-----|
|-------------------------------------------------------------|
|-------------------------------------------------------------|


                |---------5----------|     |---------5---------|
   S. S.   S.   S. S.     a  S.   S. S.    S. S.   S.   S.  a  S.    Q     +S.  E
|-----------------------------------------------------------------------------------|
|---------------8----------------------------------------------------8-----(8)-10---|
|-12--9----9-------9-----(9)s7----5--------5-------5----7--(7)s9--------------------|
|------------------------------------7--------7-------------------------------------|
|-----------------------------------------------------------------------------------|
|-----------------------------------------------------------------------------------|
|
|  Q.                 Q.                         Q                 Q     Q
|-----------------------------------------------------------------------------------|
|-----------------------------------------------------------------------------------|
|--7------------------7--------------------------7-----------------9-----7----------|
|--9------------------9--------------------------9----------------10-----9----------|
|-----------------------------------------------------------------------------------|
|-----------------------------------------------------------------------------------|
|
|  E     E    E       E         E        E       E    E            E   E E      E
|-----------------------------------------------------------------------------------|
|------------------------------------------------------------------0------------0---|
|--------7------------7--------------------------7---------------------7------------|
|--9----------9-----------------9---------------------9------------------9----------|
|---------------------------------------10------------------------------------------|
|-----------------------------------------------------------------------------------|


                      Amadd9
   Q.       +E   E  E  Q.      +E   E  E
|----------------------------------------|
|-10-------(10)-12-13-12------(12)-13-12-|
|----------------------------------------|
|----------------------------------------|
|----------------------------------------|
|----------------------------------------|
|
|  Q    Q.          E  Q    H




|----------------------------------------|
|----------------------------------------|
|-------7-----------7--7\---5------------|
|-/9----9--------------9\---7------------|
|----------------------------------------|
|----------------------------------------|
|
|  E  E E    E   E  E  E  E E   E   E  E
|----------------0-----------------------|
|-----0-------------0-----0--------------|
|-------7-------------------5-------5----|
|--9---------9---------7--------7------7-|
|----------------------------------------|
|----------------------------------------|


   E   E  E  E  E  E  E      +E    E   +E   +E    E
|---------------------------------15--(15)-(15)---------|
|---------------------------------15--(15)-(15)---------|
|-14--16-14-12-14-12-14b16==(14)-(14)-(14)-(14)r-14b16==|
|-------------------------------------------------------|
|-------------------------------------------------------|
|-------------------------------------------------------|
|
|  H.                 Q            E    Q         E
|-------------------------------------------------------|
|-------------------------------------------------------|
|--5-----------------/7------------5----4---------5-----|
|--7-----------------/9------------7----5---------7-----|
|-------------------------------------------------------|
|-------------------------------------------------------|
|
|  E   E  E  E  E  E  Q            E    Q         E
|------------0------------------------------------------|
|--0------------0---------------------------------------|
|------5-----------0-/5------------4----2---------5-----|
|---------7----------/7------------5----4---------7-----|
|-------------------------------------------------------|
|-------------------------------------------------------|


  G6
   +Q.      +E   +E    E  E    a   E  E  E.    S  E
|---------------------15----------------------------|
|---------------------------------------------------|
|-(14)-----(14)-(14)r----16--(16)s14-12-12----12h14-|
|---------------------------------------------------|
|---------------------------------------------------|
|---------------------------------------------------|
|
|   H.                    H.
|---------------------------------------------------|
|---------------------------------------------------|
|---4---------------------4-------------------------|
|---5---------------------5-------------------------|
|---------------------------------------------------|
|---------------------------------------------------|
|
|   E  E E   E    E    E  E        E  E  E  E     E
|----------------------------------------0----------|
|--------0--------0-------------------0-----0-------|
|------4-----4---------4-----------4--------------4-|
|---5---------------------5-------------------------|
|---------------------------------------------------|
|---------------------------------------------------|


   Q     +W                  Q
|--------------------------------||
|--------------------------------||
|-12----(12)\--------------------||
|--------------------------------||
|--------------------------------||
|--------------------------------||
|

| +H.               Q   Q    Q
|--------------------------------||
|--------------------------------||
|-(4)---------------7---9---11---||
|-(5)---------------x---x----x---||
|-------------------5---7----9---||
|--------------------------------||
|
|  E  E   E   E E E E E E E  E E
|--------------------------------||
|---------0-----0-------0------0-||
|-----4-------4---4---4------4---||
|--5----------------5-----5------||
|--------------------------------||
|--------------------------------||


 Chorus
  G6                                N.C.
  Gtr I
   Q  Q  E E Q  E Q  E    Q  E Q  E Q  Q   Q
|------------0---------|----------------------|
|----------0-----------|-------0--------------|
|--------7------7----7-|------------7--9--10--|
|-----9-----------9----|-----9----9-x--x---x--|
|-10-------------------|-10---------5--7---8--|
|----------------------|----------------------|
|
| Gtr II
|  Q  Q  E E Q  E Q  E    Q  E Q  E Q  Q   Q
|------------0---------|----------------------|
|----------0-----------|-------0--------------|
|--------7------7----7-|------------7--9--10--|
|-----9-----------9----|-----9----9-x--x---x--|
|-10-------------------|-10---------5--7---8--|
|----------------------|----------------------|


  Bmadd11/F#                      N.C.
  Q  Q  E E Q  E Q  E   Q  E Q  E  Q   Q   Q
|-----------0---------|-------------------------||
|---------0-----------|------0----12------------||
|-------7------7----7-|------------x--12--11----||
|----9-----------9----|----9----9--9---x---x----||
|-9-------------------|-9-------------10---9----||
|---------------------|-------------------------||
|
| Q  Q  E E Q  E Q  E   Q  E Q  E  Q   Q   Q
|-----------0---------|-------------------------||
|---------0-----------|------0----12------------||
|-------7------7----7-|------------x--12--11----||
|----9-----------9----|----9----9--9---x---x----||
|-9-------------------|-9-------------10---9----||
|---------------------|-------------------------||


 Verse
  Em
   Q.   Q.    Q  E +Q    E   +Q   E Q   E Q  E Q   E
|------------^9--7-(7)-----|--------------7----------|
|------------^8--8-(8)---7-|-(7)--8-7--------8-------|
|-/9---------^9--9-(9)-----|-------------------9-----|
|--x---------^9--9-(9)-----|------------9----------9-|
|-/7---------^7--7-(7)-----|-------------------------|
|-------0------------------|-------------------------|
|
|  Q.   Q.    Q  E +Q    E   +Q   E Q   E Q  E Q   E
|------------^9--7-(7)-----|--------------7----------|
|------------^8--8-(8)---7-|-(7)--8-7--------8-7-----|
|-/9---------^9--9-(9)-----|-------------------------|
|--x---------^9--9-(9)-----|------------9----------9-|
|-/7---------^7--7-(7)-----|-------------------------|
|-------0------------------|-------------------------|
|
| Gtr III

|                      >
|  H.         Q  Q     Q      Q   Q   Q   Q  Q   Q
|------------^7--7-----7---|--7---7---7---7--7---7---|
|------------^8--8-----8---|--8---8---8---8--8---8---|
|------------^9--9-----9---|--9---9---9---9--9---9---|
|------------^9--9-----9---|--9---9---9---9--9---9---|
|------------^7--7-----7---|--7---7---7---7--7---7---|
|--------------------------|-------------------------|


  Bmadd11
  Q  E +E  E E Q  E Q  E   Q  E Q  E E E E Q  E
|--------------0---------|-----------0-------------|
|--------------0---------|-----------0-0-----------|
|----------7------7----7-|------7--------7---------|
|----9-(9)---9------9----|----9----9-------9-------|
|-9----------------------|-9------------------9----|
|------------------------|-------------------------|
|
| Q  E +E  E E Q  E Q  E   Q  E Q  E E E E Q  E
|--------------0---------|-----------0-------------|
|--------------0---------|-------------0-----------|
|----------7------7----7-|------7--------7---------|
|----9-(9)---9------9----|----9----9-------9-------|
|-9----------------------|-9------------------9----|
|------------------------|-------------------------|
|
| W                        W
|------------------------|-------------------------|
|------------------------|-------------------------|
|------------------------|-------------------------|
|------------------------|-------------------------|
|------------------------|-------------------------|
|------------------------|-------------------------|


  Em
  Q.   Q.    Q  E +Q    E   +Q   E Q   E Q  E Q   E
|-----------^9--7-(7)-----|--------------7----------|
|-----------^8--8-(8)---7-|-(7)--8-7--------8-------|
|-----------^9--9-(9)-----|-------------------9-----|
|-----------^9--9-(9)-----|------------9----------9-|
|------7----^7--7-(7)-----|-------------------------|
|-0----0------------------|-------------------------|
|
| Q.   Q.    Q  E +Q    E   +Q   E Q   E Q  E Q   E
|-----------^9--7-(7)-----|--------------7----------|
|-----------^8--8-(8)---7-|-(7)--8-7--------8-7-----|
|-----------^9--9-(9)-----|-------------------------|
|-----------^9--9-(9)-----|------------9----------9-|
|------7----^7--7-(7)-----|-------------------------|
|-0----0------------------|-------------------------|
|
|                     >
| H.         Q  Q     Q      Q   Q   Q   Q  Q   Q
|-----------^7--7-----7---|--7---7---7---7--7---7---|
|-----------^8--8-----8---|--8---8---8---8--8---8---|
|-----------^9--9-----9---|--9---9---9---9--9---9---|
|-----------^9--9-----9---|--9---9---9---9--9---9---|
|-----------^7--7-----7---|--7---7---7---7--7---7---|
|-------------------------|-------------------------|


  Badd11         Cmaj7                           C#m7/F#
  Q  E Q  E Q  E  Q.      +Q   E Q  E  Q   E  Q  E
|------0---------------|-------0----------------------|
|---------0------------|---------0--------------------|
|-----------8-----x----|--(x)-------9-----------------|
|----9------9--9-10----|-(10)---------10--------------|
|-----------9----10----|-(10)-------------10-10--4----|
|-7---------7-----8----|--(8)--------------8--8--2----|
|
| Q  E Q  E Q  E  Q.      +Q   E Q  E  Q   E  Q  E



|------0---------------|-------0----------------------|
|---------0------------|---------0--------------------|
|-----------8----------|------------9-----------------|
|----9------9--9-10----|-(10)---------10--------------|
|-----------9----10----|-(10)-------------10-10--4----|
|-7---------7-----8----|--(8)--------------8--8--2----|
|
| W                        W
|----------------------|------------------------------|
|----------------------|------------------------------|
|----------------------|------------------------------|
|----------------------|------------------------------|
|----------------------|------------------------------|
|----------------------|------------------------------|


                   G                             Am
 9/8              12/8
  Q  E Q  E Q  E   E E E E E E E E E E  a  E E   E  +E  E E E E  Q.    +Q    E
|------0---------|-----------------------------|-------------------------------|
|----0----0------|-----------------0---------3-|-----------------------------8-|
|----------------|-----------0-0h2---3-(3)s4---|-------------------------------|
|--------------4-|-----0-0h2-------------------|------------5----5-----(5)-----|
|-4---------4----|---0-------------------------|--------5h7---7----------------|
|-2---------2----|-2---------------------------|-5--(5)------------------------|
|
| Q  E Q  E Q  E   E E E E E E E E E E  a  E E   E  +E  E E E E  Q.    +Q    E
|------0---------|-----------------------------|-------------------------------|
|----0----0------|-----------------0---------3-|-----------------------------8-|
|----------------|-----------0-0h2---3-(3)s4---|-------------------------------|
|--------------4-|-----0-0h2-------------------|------------5----5-----(5)-----|
|-4---------4----|---0-------------------------|--------5h7---7----------------|
|-2---------2----|-2---------------------------|-5--(5)------------------------|
|
|                                                                          >
| W                W                             H.              Q   Q     Q
|----------------|-----------------------------|-------------------------------|
|----------------|-----------------------------|----------------^8---8-----8---|
|----------------|-----------------------------|----------------^7---7-----7---|
|----------------|-----------------------------|----------------^5---5-----5---|
|----------------|-----------------------------|-------------------------------|
|----------------|-----------------------------|-5-----------------------------|


  E  a  E E E  a   E  E  E   a   E  E  E   a   E E
|------------------------------------------------0---|
|---------8----------13------------15------------0---|
|-7-(7)s9---9-(9)s12----12-(12)s14----14-(14)s16-----|
|----------------------------------------------------|
|----------------------------------------------------|
|----------------------------------------------------|
|
| E  a  E E E  a   E  E  E   a   E  E  E   a   E E
|------------------------------------------------0---|
|---------8----------13------------15------------0---|
|-7-(7)s9---9-(9)s12----12-(12)s14----14-(14)s16-----|
|----------------------------------------------------|
|----------------------------------------------------|
|----------------------------------------------------|
|
| Q       Q        Q     Q          Q          Q
|----------------------------------------------------|
|-8-------8--------8-----8----------8----------8-----|
|-7-------7--------7-----7----------7----------7-----|
|-5-------5--------5-----5----------5----------5-----|
|----------------------------------------------------|
|----------------------------------------------------|


  Gmaj7
  H.         E E E E E E   E E E E E  a  E E E  a  E E E E





|------------2p0---------|---------------------------------|
|----------------3p0-----|-----------------0---------------|
|--------------------4p0-|-2p0---0h2-(2)s4---4-(4)s2p0h2p0-|
|------------------------|-----4---------------------------|
|------------------------|---------------------------------|
|-3----------------------|---------------------------------|
|
| Q.   Q.    E E E E E E   E E E E E  a  E E E  a  E E E E
|------------2p0---------|---------------------------------|
|----------------3-------|-----------------0---------------|
|--------------------4p0-|-2p0---0h2-(2)s4---4-(4)s2p0h2p0-|
|------------------------|-----4---------------------------|
|------------------------|---------------------------------|
|-3----3-----------------|---------------------------------|
|
|                    >
| H.         Q   Q   Q     Q   Q   Q       Q       Q   Q
|-----------^2---2---2---|-2---2---2-------2-------2---2---|
|-----------^3---3---3---|-3---3---3-------3-------3---3---|
|-----------^0---0---0---|-0---0---0-------0-------0---0---|
|-----------^0---0---0---|-0---0---0-------0-------0---0---|
|------------------------|---------------------------------|
|-3----------------------|---------------------------------|


  Am
   Q.   Q  E  S  E. S  E. +E  E   Q     E Q     E Q     E Q.
|-------------5-(5)-5-(5)-(5)-5-|-------5-------5-------5--------|
|-------------5-(5)-5-(5)-(5)---|-3b5-----3b5-----3b5------------|
|-------------5h=7--5h=7--(7)---|--------------------------------|
|-------------7-(7)-7-(7)-(7)---|--------------------------------|
|-------------------------------|--------------------------------|
|-/5----5--5--------------------|--------------------------------|
|
|  Q.   Q  E  S  E. S  E. +E  E   E   E E E   E E E   E E E E E
|-------------5-(5)-5-(5)-(5)-5-|-------5-------5-------5--------|
|-------------5-(5)-5-(5)-(5)---|--------------------------------|
|-------------5h=7--5h=7--(7)---|-5h==7---5h==7---5h==7----------|
|-------------7-(7)-7-(7)-(7)---|-------------------------5h7-5--|
|-------------------------------|--------------------------------|
|-/5----5--5--------------------|--------------------------------|
|
|                          >
|  H.         Q     Q      Q      Q     Q     Q   Q     Q   Q
|------------^5-----5------5----|-5-----5-----5---5-----5---5----|
|------------^5-----5------5----|-5-----5-----5---5-----5---5----|
|------------^7-----7------7----|-7-----7-----7---7-----7---7----|
|------------^7-----7------7----|-7-----7-----7---7-----7---7----|
|------------^5-----5------5----|-5-----5-----5---5-----5---5----|
|--5----------------------------|--------------------------------|


  H.=H
  Gmaj7
  Gtrs I, II
  H.      +Q.   T T T T T E..   +H.      +H.        +H.      +H.
|---------------2-------------|-------------------|-----------------*|
|-----------------3-----------|-------------------|-----------------*|
|-------------------0---------|-------------------|-----------------*|
|---------------------0-------|-------------------|-----------------*|
|-----------------------x-----|-------------------|-----------------*|
|-3-------(3)-------------3---|-(3)------(3)------|-(3)------(3)----*|




--------------------------------------------------------------------------------


Duration Legend
---------------
W - whole; H - half; Q - quarter; E - 8th; S - 16th; T - 32nd; X - 64th; a - acciaccatura
+ - note tied to previous; . - note dotted; .. - note double dotted
Uncapitalized letters represent notes that are staccato (1/2 duration)
Irregular groupings are notated above the duration line

Duration letters will always appear directly above the note/fret number it represents the
duration for.  Duration letters with no fret number below them represent rests.  Multi-
bar rests are notated in the form Wxn, where n is the number of bars to rest for.  Low
melody durations appear below the staff

Tablature Legend
----------------
 h   - hammer-on
 p   - pull-off
 b   - bend
 pb  - pre-bend
 r   - bend release (if no number after the r, then release immediately)
 /\  - slide into or out of (from/to "nowhere")
 s   - legato slide
 S   - shift slide
 - natural harmonic
[n]  - artificial harmonic
n(n) - tapped harmonic
 ~   - vibrato
 tr  - trill
 T   - tap
 TP  - trem. picking
 PM  - palm muting
\n/  - tremolo bar dip; n = amount to dip
 \n  - tremolo bar down
 n/  - tremolo bar up
/n\  - tremolo bar inverted dip
 =   - hold bend; also acts as connecting device for hammers/pulls
 <> - volume swell (louder/softer)
 x   - on rhythm slash represents muted slash
 o   - on rhythm slash represents single note slash

Misc Legend
-----------
 |  - bar
||  - double bar
||o - repeat start
o|| - repeat end
*|  - double bar (ending)
 :  - bar (freetime)
 $  - Segno
 &  - Coda
Tempo markers -  = BPM(8/16=s8/s16), where s8 = swing 8ths, s16 = swing 16ths



END
-----------
 |  - bar
||  - double bar
||o - repeat start
o|| - repeat end
*|  - double bar (ending)
 :  - bar (freetime)
 $  - Segno
 &  - Coda
Tempo markers -  = BPM(8/16=s8/s16), where s8 = swing 8ths, s16 = swing 16ths



END


Thanks to all who made these great tabs. 
Have fun learning this fantastic album.

Rock on.
I want to post or [tab]
guest
You may want to rate the tab now too:
select rating
Please do not post tabs as comments. Select "correction" instead!