Oops, an error
Loading. Please wait.

Crack The Skye Bass Tab

ver1
ver1

Whole song

More versions @911Tabs.com
4,354 views 9 this week
1 commentread comment
1 2 3 4 5
excellent!
x 2
Autoscroll
+/-
esc
set tempo
stop
Contributor
Difficulty
Tuning
intermediate
C G C F A D
Hey! There's an official Ultimate Guitar app which is ideal
for learning songs when you're away from computer. Get the app
WARNING: You are trying to view
                                    content from Ultimate-Guitar.com
                                    in an unauthorized application,
                                    which is prohibited.

                                    Please use an official Ultimate
                                    Guitar Tabs application for iPhone,
                                    iPad or Android to access legitimate
                                    chords, guitar, bass, and drum tabs
                                    from Ultimate-Guitar.com database.

                                    Type "ultimate guitar tabs" in Apple
                                    App Store's or Android Market's
                                    search to find the application.

     W                   W                   W                   W      
F||-------------------|-------------------|-------------------|-------------------|
C||-------------------|-------------------|-------------------|-------------------|
G||-------------------|-------------------|-------------------|-------------------|
A||-------------------|-------------------|-------------------|-------------------|


  W                   H.           Q       W                   H.           Q     
-------------------|--------------------|-------------------|--------------------|
-------------------|--------------------|-------------------|--------------------|
-------------------|--------------------|-------------------|--------------------|
-------------------|---------------1----|--3----------------|--L------------1----|


  Q    Q    Q    Q       Q    Q    Q    Q       W                   W                 
----------------------|----------------------|-------------------|-------------------|
----------------------|----------------------|-------------------|-------------------|
----------------------|----------------------|-------------------|-------------------|
--3----5----6----8----|--6----5----3----1----|--3----------------|--L----------------|


  H.           Q       W                   W                   W                 
--------------------|-------------------|-------------------|-------------------|
--------------------|-------------------|-------------------|-------------------|
--------------------|-------------------|-------------------|-------------------|
--L------------1----|--3----------------|--L----------------|--L----------------|


  Q    E  E  Q.     E     Q    E  E  E  E  Q       Q    Q    Q.     E   
-----------------------|------------------------|----------------------|
-----------------------|------------------------|----------------------|
-----------------------|------------------------|----------------------|
--0----0--0--0------0--|--0----0--0--0--0--0----|--4----4----4------3--|


  Q    E  E  Q    Q       H        Q.     E     Q    Q    E  E  Q     
-----------------------|---------------------|-----------------------|
-----------------------|---------------------|-----------------------|
-----------------------|------------------0--|--2--------------------|
--4----4--4--4----4----|--0--------0---------|-------0----0--0--0----|


  Q    Q    Q.     E     Q    E  E  Q    Q       E  E  E  E  E  E  E  E   
----------------------|-----------------------|--------------------------|
----------------------|-----------------------|--------------------------|
----------------------|-----------------------|--------------------------|
--4----4----4------3--|--4----4--4--4----4----|--0--0--0--0--0--0--0--0--|


  E  E  E  E  E  E  E  E     E  E  E  E  E  E  E  E     E  E  E  E  E  E  E  E   
--------------------------|--------------------------|--------------------------|
--------------------------|--------------------------|--------------------------|
--------------------------|--------------------------|--------------------------|
--0--0--0--0--0--0--0--0--|--4--4--4--4--4--4--4--4--|--4--4--4--4--4--4--4--4--|


  E  E  E  E  E  E  E  E     E  E  E  E  E  E  E  E     E  E  E  E  E  E  E  E   
--------------------------|--------------------------|--------------------------|
--------------------------|--------------------------|--------------------------|
--------------------------|--------------------------|--------------------------|
--0--0--0--0--0--0--0--0--|--0--0--0--0--0--0--0--0--|--4--4--4--4--4--4--4--4--|


  E  E  E  E  E  E  E  E     E  E  E  E  E  E  E  E     E  E  E  E  E  E  E  E   
--------------------------|--------------------------|--------------------------|
--------------------------|--------------------------|--------------------------|
--------------------------|--------------------------|--------------------------|
--4--4--4--4--4--4--4--4--|--1--0-----1--0-----1--0--|-----1--0-----1--0--1--0--|


  E  E  E  E  E  E  E  E     E  E  E  E  E  E  Q       E  E  E  E  E  E  E  E   
--------------------------|-------------------------|--------------------------|
--------------------------|-------------------------|--------------------------|
--------------------------|-------------------------|--------------------------|
--4--0-----4--0-----4--0--|-----4--0-----4--4--4----|--1--0-----1--0-----1--0--|


  E  E  E  E  E  E  E  E     E  E  E  E  E  E  E  E     E  E  E  E  E  E  Q     
--------------------------|--------------------------|-------------------------|
--------------------------|--------------------------|-------------------------|
--------------------------|--------------------------|-------------------------|
-----1--0-----1--0--1--0--|--4--0-----4--0-----4--0--|-----4--0-----4--4--4----|


   S  S  S  S  S  S  S  S  S  S  S  S  S  S  S  S  
--------------------------------------------------|
--------------------------------------------------|
--------------------------------------------------|
--12-12-12-12-12-12-12-12-12-12-12-12-12-12-12-12-|


   S  S  S  S  S  S  S  S  S  S  S  S  S  S  S  S    S S S S S S S S S S S S S S S S  
--------------------------------------------------|----------------------------------|
--------------------------------------------------|----------------------------------|
--------------------------------------------------|----------------------------------|
--12-12-12-12-12-12-12-12-12-12-12-12-12-12-12-12-|--8-8-8-8-8-8-8-8-8-8-8-8-8-8-8-8-|


  S S S S S S S S S S S S S S S S     S  S  S  S  S  S  S  S  S  S  S  S  S  S  S  S  
----------------------------------|--------------------------------------------------|
----------------------------------|--------------------------------------------------|
----------------------------------|--------------------------------------------------|
--8-8-8-8-8-8-8-8-8-8-8-8-8-8-8-8-|--12-12-12-12-12-12-12-12-12-12-12-12-12-12-12-12-|


   S  S  S  S  S  S  S  S  S  S  S  S  S  S  S  S    S S S S S S S S S S S S S S S S  
--------------------------------------------------|----------------------------------|
--------------------------------------------------|----------------------------------|
--------------------------------------------------|----------------------------------|
--12-12-12-12-12-12-12-12-12-12-12-12-12-12-12-12-|--8-8-8-8-8-8-8-8-8-8-8-8-8-8-8-8-|


  S S S S S S S S S S S S S S S S    E  E  E  E  E  E  E  E     E  E  E  E  E  E  E  E   
----------------------------------|--------------------------|--------------------------|
----------------------------------|--------------------------|--------------------------|
----------------------------------|--------------------------|--------------------------|
--8-8-8-8-8-8-8-8-8-8-8-8-8-8-8-8-|--1--0-----1--0-----1--0--|-----1--0-----1--0--1--0--|


  E  E  E  E  E  E  E  E     E  E  E  E  E  E  Q       E  E  E  E  E  E  E  E   
--------------------------|-------------------------|--------------------------|
--------------------------|-------------------------|--------------------------|
--------------------------|-------------------------|--------------------------|
--4--0-----4--0-----4--0--|-----4--0-----4--4--4----|--1--0-----1--0-----1--0--|


  E  E  E  E  E  E  E  E     E  E  E  E  E  E  E  E     E  E  E  E  E  E  Q     
--------------------------|--------------------------|-------------------------|
--------------------------|--------------------------|-------------------------|
--------------------------|--------------------------|-------------------------|
-----1--0-----1--0--1--0--|--4--0-----4--0-----4--0--|-----4--0-----4--4--4----|


   S  S  S  S  S  S  S  S  S  S  S  S  S  S  S  S  
--------------------------------------------------|
--------------------------------------------------|
--------------------------------------------------|
--12-12-12-12-12-12-12-12-12-12-12-12-12-12-12-12-|


   S  S  S  S  S  S  S  S  S  S  S  S  S  S  S  S    S S S S S S S S S S S S S S S S  
--------------------------------------------------|----------------------------------|
--------------------------------------------------|----------------------------------|
--------------------------------------------------|----------------------------------|
--12-12-12-12-12-12-12-12-12-12-12-12-12-12-12-12-|--8-8-8-8-8-8-8-8-8-8-8-8-8-8-8-8-|


  S S S S S S S S S S S S S S S S     S  S  S  S  S  S  S  S  S  S  S  S  S  S  S  S  
----------------------------------|--------------------------------------------------|
----------------------------------|--------------------------------------------------|
----------------------------------|--------------------------------------------------|
--8-8-8-8-8-8-8-8-8-8-8-8-8-8-8-8-|--12-12-12-12-12-12-12-12-12-12-12-12-12-12-12-12-|


   S  S  S  S  S  S  S  S  S  S  S  S  S  S  S  S    S S S S S S S S S S S S S S S S  
--------------------------------------------------|----------------------------------|
--------------------------------------------------|----------------------------------|
--------------------------------------------------|----------------------------------|
--12-12-12-12-12-12-12-12-12-12-12-12-12-12-12-12-|--8-8-8-8-8-8-8-8-8-8-8-8-8-8-8-8-|


  S S S S S S S S S S S S S S S S    E  E  E  E  Q    Q       W                 
----------------------------------|------------------------|-------------------|
----------------------------------|------------------------|-------------------|
----------------------------------|-------------------5----|--L----------------|
--8-8-8-8-8-8-8-8-8-8-8-8-8-8-8-8-|--4--5--7--8--4----3----|--L----------------|


  E  E  E  E  E  Q    E     W                   E  E  E  E  E  E  E  E   
-------------------------|-------------------|--------------------------|
-------------------------|-------------------|--------------------------|
----------------------5--|--L----------------|--------------------------|
--4--5--7--8--8--4----3--|--L----------------|--1--0-----1--0-----1--0--|


  E  E  E  E  E  E  E  E     E  E  E  E  E  E  E  E     E  E  E  E  E  E  Q     
--------------------------|--------------------------|-------------------------|
--------------------------|--------------------------|-------------------------|
--------------------------|--------------------------|-------------------------|
-----1--0-----1--0--1--0--|--4--0-----4--0-----4--0--|-----4--0-----4--4--4----|


  E  E  E  E  E  E  E  E     E  E  E  E  E  E  E  E     E  E  E  E  E  E  E  E   
--------------------------|--------------------------|--------------------------|
--------------------------|--------------------------|--------------------------|
--------------------------|--------------------------|--------------------------|
--1--0-----1--0-----1--0--|-----1--0-----1--0--1--0--|--4--0-----4--0-----4--0--|


  E  E  E  E  E  E  Q        S  S  S  S  S  S  S  S  S  S  S  S  S  S  S  S  
-------------------------|--------------------------------------------------|
-------------------------|--------------------------------------------------|
-------------------------|--------------------------------------------------|
-----4--0-----4--4--4----|--12-12-12-12-12-12-12-12-12-12-12-12-12-12-12-12-|


   S  S  S  S  S  S  S  S  S  S  S  S  S  S  S  S    S S S S S S S S S S S S S S S S  
--------------------------------------------------|----------------------------------|
--------------------------------------------------|----------------------------------|
--------------------------------------------------|----------------------------------|
--12-12-12-12-12-12-12-12-12-12-12-12-12-12-12-12-|--8-8-8-8-8-8-8-8-8-8-8-8-8-8-8-8-|


  S S S S S S S S S S S S S S S S     S  S  S  S  S  S  S  S  S  S  S  S  S  S  S  S  
----------------------------------|--------------------------------------------------|
----------------------------------|--------------------------------------------------|
----------------------------------|--------------------------------------------------|
--8-8-8-8-8-8-8-8-8-8-8-8-8-8-8-8-|--12-12-12-12-12-12-12-12-12-12-12-12-12-12-12-12-|


   S  S  S  S  S  S  S  S  S  S  S  S  S  S  S  S    S S S S S S S S S S S S S S S S  
--------------------------------------------------|----------------------------------|
--------------------------------------------------|----------------------------------|
--------------------------------------------------|----------------------------------|
--12-12-12-12-12-12-12-12-12-12-12-12-12-12-12-12-|--8-8-8-8-8-8-8-8-8-8-8-8-8-8-8-8-|


  S S S S S S S S S S S S S S S S    E  E  E  E  Q    Q       W                 
----------------------------------|------------------------|-------------------|
----------------------------------|------------------------|-------------------|
----------------------------------|-------------------5----|--L----------------|
--8-8-8-8-8-8-8-8-8-8-8-8-8-8-8-8-|--4--5--7--8--4----3----|--L----------------|


  E  E  E  E  E  Q    E     W                   Q    E  E  Q.     E   
-------------------------|-------------------|-----------------------|
-------------------------|-------------------|-----------------------|
----------------------5--|--L----------------|-----------------------|
--4--5--7--8--8--4----3--|--L----------------|--3----3--3--3------3--|


  Q    Q    E  E  Q       Q    Q    H           W                   Q    E  E  Q.     E   
-----------------------|---------------------|-------------------|-----------------------|
-----------------------|---------------------|-------------------|-----------------------|
-----------------------|--1----1----1--------|--1----------------|-----------------------|
--3----3----3--3--3----|---------------------|-------------------|--8----8--8--8------8--|


  E  Q    Q    E  Q       Q    Q    Q.     E     W                   W                 
-----------------------|----------------------|-------------------|-------------------|
-----------------------|----------------------|-------------------|-------------------|
-----------------------|----------------------|-------------------|--2----------------|
--L--8----8----8--8----|--2----2----2------2--|--2----------------|-------------------|


  W                   W                   W                   W                 
-------------------|-------------------|-------------------|-------------------|
-------------------|-------------------|-------------------|-------------------|
--L----------------|--6----------------|--L----------------|--2----------------|
-------------------|-------------------|-------------------|-------------------|


  W                   W                   W                   Q    E  E  Q.     E   
-------------------|-------------------|-------------------|-----------------------|
-------------------|-------------------|-------------------|-----------------------|
--L----------------|--6----------------|--L----------------|-----------------------|
-------------------|-------------------|-------------------|--3----3--3--3------3--|


  Q    Q    E  E  Q       Q    Q    H           W                   Q    E  E  Q.     E   
-----------------------|---------------------|-------------------|-----------------------|
-----------------------|---------------------|-------------------|-----------------------|
-----------------------|--1----1----1--------|--1----------------|-----------------------|
--3----3----3--3--3----|---------------------|-------------------|--8----8--8--8------8--|


  E  Q    Q    E  Q       Q    Q    Q.     E     W                   W                 
-----------------------|----------------------|-------------------|-------------------|
-----------------------|----------------------|-------------------|-------------------|
-----------------------|----------------------|-------------------|--2----------------|
--L--8----8----8--8----|--2----2----2------2--|--2----------------|-------------------|


  W                   W                   W                   W                 
-------------------|-------------------|-------------------|-------------------|
-------------------|-------------------|-------------------|-------------------|
--L----------------|--6----------------|--L----------------|--2----------------|
-------------------|-------------------|-------------------|-------------------|


  W                   W                   W                   E  E  E  E  E  E  E  E   
-------------------|-------------------|-------------------|--------------------------|
-------------------|-------------------|-------------------|--------------------------|
--L----------------|--6----------------|--L----------------|--7--7--7--7--7--7--7--7--|
-------------------|-------------------|-------------------|--5--5--5--5--5--5--5--5--|


  E  E  E  E  E  E  E  E     E  E  E  E  E  E  E  E     E  E  E  E  E  E  E  E   
--------------------------|--------------------------|--------------------------|
--------------------------|--------------------------|--------------------------|
--7--7--7--7--7--7--7--7--|--6--6--6--6--6--6--6--6--|--6--6--6--6--6--6--6--6--|
--5--5--5--5--5--5--5--5--|--4--4--4--4--4--4--4--4--|--4--4--4--4--4--4--4--4--|


  E  E  E  E  E  E  E  E     E  E  E  E  E  E  E  E     E  E  E  E  E  E  E  E   
--------------------------|--------------------------|--------------------------|
--------------------------|--------------------------|--------------------------|
--2--2--2--2--2--2--2--2--|--2--2--2--2--2--2--2--2--|--6--6--6--6--6--6--6--6--|
--------------------------|--------------------------|--4--4--4--4--4--4--4--4--|


  E  E  E  E  E  E  E  E     E  E  E  E  E  E  E  E     E  E  E  E  E  E   
--------------------------|--------------------------|--------------------|
--------------------------|--------------------------|--------------------|
--6--6--6--6--6--6--6--6--|--------2--------2--------|--2--4--5--4--2--1--|
--4--4--4--4--4--4--4--4--|--0--0-----0--0-----0--0--|--------------------|


  E  E  E  E  E  E  E  E     E  E  E  E  E  E     E  E  E  E  E  E  E  E   
--------------------------|--------------------|--------------------------|
--------------------------|-----------2--4--5--|--------------------------|
--------2--------2--------|--2--4--5-----------|--------2--------2--------|
--0--0-----0--0-----0--0--|--------------------|--0--0-----0--0-----0--0--|


  E  E  E  E  E  E     E  E  E  E  E  E  E  E     E  E  E  E  E  E   
--------------------|--------------------------|--------------------|
--------------------|--------------------------|-----------2--4--5--|
--2--4--5--4--2--1--|--------2--------2--------|--2--4--5-----------|
--------------------|--0--0-----0--0-----0--0--|--------------------|


   S  S  S  S  S  S  S  S  S  S  S  S  S  S  S  S  
--------------------------------------------------|
--------------------------------------------------|
--------------------------------------------------|
--12-12-12-12-12-12-12-12-12-12-12-12-12-12-12-12-|


   S  S  S  S  S  S  S  S  S  S  S  S  S  S  S  S    S S S S S S S S S S S S S S S S  
--------------------------------------------------|----------------------------------|
--------------------------------------------------|----------------------------------|
--------------------------------------------------|----------------------------------|
--12-12-12-12-12-12-12-12-12-12-12-12-12-12-12-12-|--8-8-8-8-8-8-8-8-8-8-8-8-8-8-8-8-|


  S S S S S S S S S S S S S S S S     S  S  S  S  S  S  S  S  S  S  S  S  S  S  S  S  
----------------------------------|--------------------------------------------------|
----------------------------------|--------------------------------------------------|
----------------------------------|--------------------------------------------------|
--8-8-8-8-8-8-8-8-8-8-8-8-8-8-8-8-|--12-12-12-12-12-12-12-12-12-12-12-12-12-12-12-12-|


   S  S  S  S  S  S  S  S  S  S  S  S  S  S  S  S    S S S S S S S S S S S S S S S S  
--------------------------------------------------|----------------------------------|
--------------------------------------------------|----------------------------------|
--------------------------------------------------|----------------------------------|
--12-12-12-12-12-12-12-12-12-12-12-12-12-12-12-12-|--8-8-8-8-8-8-8-8-8-8-8-8-8-8-8-8-|


  S S S S S S S S S S S S S S S S    E  E  E  E  E  E  E  E     E  E  E  E  E  E  E  E   
----------------------------------|--------------------------|--------------------------|
----------------------------------|--------------------------|--------------------------|
----------------------------------|--------------------------|--------------------------|
--8-8-8-8-8-8-8-8-8-8-8-8-8-8-8-8-|--1--0-----1--0-----1--0--|-----1--0-----1--0--1--0--|


  E  E  E  E  E  E  E  E     E  E  E  E  E  E  Q       E  E  E  E  E  E  E  E   
--------------------------|-------------------------|--------------------------|
--------------------------|-------------------------|--------------------------|
--------------------------|-------------------------|--------------------------|
--4--0-----4--0-----4--0--|-----4--0-----4--4--4----|--1--0-----1--0-----1--0--|


  E  E  E  E  E  E  E  E     E  E  E  E  E  E  E  E     E  E  E  E  E  E  Q     
--------------------------|--------------------------|-------------------------|
--------------------------|--------------------------|-------------------------|
--------------------------|--------------------------|-------------------------|
-----1--0-----1--0--1--0--|--4--0-----4--0-----4--0--|-----4--0-----4--4--4----|


   S  S  S  S  S  S  S  S  S  S  S  S  S  S  S  S  
--------------------------------------------------|
--------------------------------------------------|
--------------------------------------------------|
--12-12-12-12-12-12-12-12-12-12-12-12-12-12-12-12-|


   S  S  S  S  S  S  S  S  S  S  S  S  S  S  S  S    S S S S S S S S S S S S S S S S  
--------------------------------------------------|----------------------------------|
--------------------------------------------------|----------------------------------|
--------------------------------------------------|----------------------------------|
--12-12-12-12-12-12-12-12-12-12-12-12-12-12-12-12-|--8-8-8-8-8-8-8-8-8-8-8-8-8-8-8-8-|


  S S S S S S S S S S S S S S S S     S  S  S  S  S  S  S  S  S  S  S  S  S  S  S  S  
----------------------------------|--------------------------------------------------|
----------------------------------|--------------------------------------------------|
----------------------------------|--------------------------------------------------|
--8-8-8-8-8-8-8-8-8-8-8-8-8-8-8-8-|--12-12-12-12-12-12-12-12-12-12-12-12-12-12-12-12-|


   S  S  S  S  S  S  S  S  S  S  S  S  S  S  S  S    S S S S S S S S S S S S S S S S  
--------------------------------------------------|----------------------------------|
--------------------------------------------------|----------------------------------|
--------------------------------------------------|----------------------------------|
--12-12-12-12-12-12-12-12-12-12-12-12-12-12-12-12-|--8-8-8-8-8-8-8-8-8-8-8-8-8-8-8-8-|


  S S S S S S S S S S S S S S S S    E  E  E  E  Q    Q       W                 
----------------------------------|------------------------|-------------------|
----------------------------------|------------------------|-------------------|
----------------------------------|-------------------5----|--L----------------|
--8-8-8-8-8-8-8-8-8-8-8-8-8-8-8-8-|--4--5--7--8--4----3----|--L----------------|


  E  E  E  E  E  Q    E     W                   E  E  E  E  Q    Q     
-------------------------|-------------------|------------------------|
-------------------------|-------------------|------------------------|
----------------------5--|--L----------------|-------------------5----|
--4--5--7--8--8--4----3--|--L----------------|--4--5--7--8--4----3----|


  W                   E  E  E  E  E  Q    E     W                   W                 
-------------------|-------------------------|-------------------|-------------------|
-------------------|-------------------------|-------------------|-------------------|
--L----------------|----------------------5--|--L----------------|-------------------|
--L----------------|--4--5--7--8--8--4----3--|--L----------------|--3----------------|


  W                   H.           Q       W                   W                 
-------------------|--------------------|-------------------|-------------------|
-------------------|--------------------|-------------------|-------------------|
-------------------|---------------3----|--5----------------|--L----------------|
--L----------------|--L-----------------|-------------------|-------------------|


  H.           Q       W                   W                   W                 
--------------------|-------------------|-------------------|-------------------|
--------------------|-------------------|-------------------|-------------------|
--L------------3----|--5----------------|--L----------------|--L----------------|
--------------------|-------------------|-------------------|-------------------|


  W                   W                   W                   W                  
-------------------|-------------------|-------------------|-------------------||
-------------------|-------------------|-------------------|-------------------||
--L----------------|--L----------------|--L----------------|--L----------------||
-------------------|-------------------|-------------------|-------------------||





W - whole
H - half
Q - quarter
E - 8th
S - 16th
T - 32nd
X - 64th
. - note dotted
L - tied note

Was tabbed by someone else
comments
We did not receive enough feedback on this tab! Please rate:
print report bad tab
1 2 3 4 5
1 comment total.
+1 reply
Tanner Streeter wrote on September 14 2013, 02:52 am

This is a great tab. Would be better if it was shortened down into parts, but great job. Not 100% sure if Troy used a 5 string or a 4 string on this song. Both sound the same (obviously) but I can't decide which I like more.

I want to post or [tab]
guest
You may want to rate the tab now too:
select rating
Please do not post tabs as comments. Select "correction" instead!