Oops, an error
Loading. Please wait.

Leviathan Tab

9,996 views 43 this week
2 commentsread comments
1 2 3 4 5
excellent!
x 3
add to favorites launch autoscroll
font size
0
reset
Autoscroll
+/-
esc
set tempo
stop
Contributor
Difficulty
Tuning
advanced
D G C F A D
WARNING: You are trying to view
                                    content from Ultimate-Guitar.com
                                    in an unauthorized application,
                                    which is prohibited.

                                    Please use an official Ultimate
                                    Guitar Tabs application for iPhone,
                                    iPad or Android to access legitimate
                                    chords, guitar, bass, and drum tabs
                                    from Ultimate-Guitar.com database.

                                    Type "ultimate guitar tabs" in Apple
                                    App Store's or Android Market's
                                    search to find the application.
Leviathan by Mastodon

By Osiris12

1.  Blood and Thunder - FRANK
2.  I Am Ahab - Ben Geddes
3.  Seabeast - Noach Chancer
4.  Island - Mike
5.  Iron Tusk - PLOP
6.  Megalodon - Unregestered
7.  Naked Burn - joseph merrick
8.  Aqua Dementia - Mike
9.  Hearts Alive - scraggyfrag21
10. Joseph Merrick - DeathTribble

=================================
1.  Blood and Thunder by Mastodon
D Tuning (D G C F A D)
=================================

  INTRO AND VERSE

   Guitar 1 for intro x1 Rhy.Fig.1                 Guitar 1 & 2 for verse x2 Rhy.Fig.1
e|--------------------------------------------------------------------------|
B|--------------------------------------------------------------------------|
G|--------------------------------------------------------------------------|
D|-9----7/9----7/9----7/9----7/9-10----7/9-10----10-10\9\7/10\9-------------|
A|-7----5/7----5/7----5/7----5/7-8-----5/7-8-----8---8\7\5/8-\7-------------|
E|---00-----00-----00-----00--------00--------00----------------------------|
     ..     ..     ..     ..        ..        ..

e|--------------------------------------------------------------------------|
B|--------------------------------------------------------------------------|
G|-------------------------------------------------------------end Rhy.Fig.1|
D|---7/9----7/9----7/9----7/9-10----7/9-10----10-10\9\7/10------------------|
A|---5/7----5/7----5/7----5/7--8-----5/7-8-----8--8\7\5/-8------------------|
E|00-----00-----00-----00--------00--------00-------------------------------|
  ..     ..     ..     ..        ..        ..

  CHORUS Guitar 1 & 2  x2
e|-------------------------------------------------------------------------|
B|-------------------------------------------------------------------------|
G|-------------------------------------------------------------------------|
D|-------------------------------------------------------------------------|
A|-2---/8-8---5-5--/11-11---8-8---/14-14---11-11--/17-17--14-14------------|
E|-0---/6-6---3-3--/9--9----6-6---/12-12---9--9---/15-15--12-12------------|

  Guitar 1
e|-------------------------------------------------------------------------|
B|-------------------------------------------------end Rhy.Fig.2a----------|
G|-------------------------------------------------------------------------|
D|--------17---14---18-----------------------------------------------------|
A|--11-----x----x----x-----------------------------------------------------|
E|---9----15---12---16------12 (bend full and release)---------------------|

  Guitar 2
e|-------------------------------------------------------------------------|
B|-------------------------------------------------end Rhy.Fig.2b----------|
G|-------------------------------------------------------------------------|
D|-------------------------------------------------------------------------|
A|--11-11---/17-17---14-14---11--------------------------------------------|
E|---9--9---/15-15---12-12----9---12-(bend full and release)---------------|

  INTERLUDE

  E5 open
  Guitar 3
e|---------------------------------12-|-----------------------------12---12-|
B|12-13-12h13p12----12----12-13-15----|12-13-12h13p12--12--12-13-15----15---|
G|---------------14----14-------------|--------------14--14-----------------|
D|------------------------------------|-------------------------------------|
A|------------------------------------|-------------------------------------|
E|------------------------------------|-------------------------------------|
  Guitar 4
e|--------------------------7------|-------------------------7----7-|
B|-7--8-7h8p7---7---7--8-10--------|-7--8-7h8p7---7---7-8-10---10---|
G|------------9---9----------------|------------9---9---------------|
D|---------------------------------|--------------------------------|
A|---------------------------------|--------------------------------|
E|---------------------------------|--------------------------------|
  Guitar 2
e|---------------------------------|----------------------------------------|
B|---------------------------------|----------------------------------------|
G|-------------------------------9-|-------------------------------9-----9--|
D|-9--10-9h10p9----9----9-10-12----|-9--10-9h10p9----9----9-10-12----12-----|
A|--------------12---12------------|--------------12---12-------------------|
E|---------------------------------|----------------------------------------|

  Guitar 1
e|---------------------------------|-------------------------|
B|---------------------------------|-------------------------|
G|---------------------------------|-------------------------|
D|---------------------------------|-------------------------|
A|-2-2-----------------------------|-2-2---------------------|
E|-0-0-----------------------------|-0-0---------------------|

  D5/A
  Guitar 3
e|----------------------------10-|-----------------------------10--10-|
B|10-11-10h11p10--10--10-11-13---|10-11-10h11p10---10--10-11-13--13---|
G|--------------12--12-----------|---------------12--12---------------|x2
D|-------------------------------|------------------------------------|
A|-------------------------------|------------------------------------|
E|-------------------------------|------------------------------------|

  Guitar 4
e|------------------------5-|------------------------5---5---|
B|-5--6-5h6p5---5---5-6-8---|-5--6-5h6p5---5---5-6-8---8-----|
G|------------7---7---------|------------7---7---------------|x2
D|--------------------------|--------------------------------|
A|--------------------------|--------------------------------|
E|--------------------------|--------------------------------|

  Guitar 2
e|------------------------------|-----------------------------------|
B|------------------------------|-----------------------------------|
G|---------------------------7--|----------------------------7----7-|
D|-7--8-7h8p7----7----7-8-10----|-7--8-7h8p7-----7----7-8-10---10---|x2
A|------------10---10-----------|-------------10---10---------------|
E|------------------------------|-----------------------------------|

  Guitar 1
e|------------------------------|------------------------|
B|------------------------------|------------------------|
G|------------------------------|------------------------|x2
D|-0----x--0--------------------|-0----x---0-------------|
A|-0----x--0--------------------|-0----x---0-------------|
E|------------------------------|------------------------|

  Guitar 3 Riff A1
e|----------------------------12-|----------------------------12----12-|
B|-12-13-12----12----12-13-15----|-12-13-12----12----12-13-15----15----|
G|----------14----14-------------|----------14----14-------------------|x1
D|-------------------------------|-------------------------------------|
A|-------------------------------|-------------------------------------|
E|-------------------------------|-------------------------------------|

e|-----------------------------10-|---------------------------10----10-|
B|-10-11-10-----10----10-11-13----|10-11-10----10----10-11-13----13----|
G|-----------12----12-------------|----------12----12------------------|x2
D|--------------------------------|------------------------------------|
A|--------------------------------|------------------end--of--riff-A1--|
E|--------------------------------|------------------------------------|

  Guitar 2 Riff A
e|-------------------------|---------------------------------|
B|-------------------------|---------------------------------|
G|-----------------------9-|------------------------9----9---|x1
D|-9-10-9----9---9-10-12---|-9-10-9----9----9-10-12---12-----|
A|--------12--12-----------|--------12---12------------------|
E|-------------------------|---------------------------------|

e|------------------------|-----------------------------end-of-riff-A-|
B|------------------------|-------------------------------------------|
G|----------------------7-|----------------------7----7---------------|x2
D|-7-8-7----7----7-8-10---|-7-8-7----7----7-8-10---10-----------------|
A|-------10---10----------|-------10---10-----------------------------|
E|------------------------|-------------------------------------------|


  Guitar 1
e|----------------------|--------------------------|
B|----------------------|--------------------------|
G|----------------------|--------------------------|x1
D|------------------5-7-|------------------5-7-5-7-|
A|-7-8-7-5-7-5--7-8-----|--7-8-7-5-7-5-7-8---------|
E|----------------------|--------------------------|

e|---------------------|---------------------------|
B|---------------------|---------------------------|
G|---------------------|---------------------------|x2
D|-------------------5-|-------------------5---5---|
A|-5-6-5---5---5-6-8---|-5-6-5---5---5-6-8---8-----|
E|-------8---8---------|-------8---8---------------|

e|--------------------7-|--------------------7----7--|
B|-7-8-7---7---7-8-10---|-7-8-7---7---7-8-10---10----|
G|-------9---9----------|-------9---9----------------|x1
D|----------------------|----------------------------|
A|----------------------|----------------------------|
E|----------------------|----------------------------|

e|-------------------5-|-------------------5---5--|
B|-5-6-5---5---5-6-8---|-5-6-5---5---5-6-8---8----|x2
G|-------7---7---------|-------7---7--------------|
D|---------------------|--------------------------|
A|---------------------|--------------------------|
E|---------------------|--------------------------|

   BRIDGE

e|------------------------------------------------------------------------|
B|------------------------------------------------------------------------|
G|------------------------------------------------------------------------|
D|-9-9-9-9-9-9-9-9-9-9-9-9--7-7-7-7--10-10-10-8--7-7-7-7-7-7-7-7--4-4-4-4-|
A|-7-7-7-7-7-7-7-7-7-7-7-7--5-5-5-5---8--8--8-6--5-5-5-5-5-5-5-5--2-2-2-2-|
E|------------------------------------------------------------------------|
                                                                           x4
e|------------------------------------------------------------------------|
B|------------------------------------------------------------------------|
G|------------------------------------------------------------------------|
D|-7-7-7-5--4-4-4-4-4-4-4-4-----------------------------------------------|
A|-5-5-5-3--2-2-2-2-2-2-2-2--6-6-6-6--9-9-9-7--6-6-6-6-6-6-6-6--5-4/5-4---|
E|---------------------------4-4-4-4--7-7-7-5--4-4-4-4-4-4-4-4--3-2/3-2---|


OUTRO

  Guitar 1 & 2                       Guitar 1 substitutes Fill second time
e|----------------------------------------------|----------Fill----------|
B|----------------------------------------------|------------------------|
G|9-9----------------10\9-9------------------8/-|9-9-----------------12/-|
D|X-X-----------------X----------------------X/-|X-X------------------X--|
A|7-7-----------------8\7-7------------------6/-|7-7-----------------10/-|
E|----2-1-0-1--2-1-0---------2-1-0-1--2-1-0-----|-----2-1-0-1--2-1-0-----|
      . . . .  . . .         . . . .  . . .           . . . .  . . .
    Guitar 1 ( Guitar 2 repeat the first measure)
e|----------------------------------------------------------------------|
B|----------------------------------------------------------------------|
G|-/13-13------------------14\13-13-------------------12/---------------|
D|---X--X-------------------X--X--X--------------------X----------------|
A|-/11-11------------------12\11-11-------------------10/---------------|
E|---------2-1-0-1--2-1-0-------------2-1-0-1--2-1-0--------------------|
           . . . .  . . .             . . . .  . . .
  Guitar 1
e|----------------------------------------------------------------------|
B|----------------------------------------------------------------------|
G|-/13-13------------------14\13--13------------------7/9---------------|
D|---X--X-------------------X--X---X------------------X-----------------|
A|-/11-11------------------12\11--11------------------5/7---------------|
E|---------2-1-0-1--2-1-0--------------2-1-0-1--2-1-0-------------------|
           . . . .  . . .              . . . .  . . .
  Guitar 2
e|----------------------------------------------------------------------|
B|----------------------------------------------------------------------|
G|--9--9------------------10\9-9-------------------8/9------------------|
D|--X--X-------------------X-----------------------X--------------------|
A|--7--7-------------------8\7-7-------------------6/7------------------|
E|---------2-1-0-1--2-1-0----------2-1-0-1--2-1-0-----------------------|
           . . . .  . . .          . . . .  . . .

=========================
2.  I Am Ahab by Mastodon
D Tuning (D G C F A D)
=========================

Intro (0:00)
D|-----------------------------------------------|
A|-----------------------------------------------|
F|---------------------------------7----5----4---|
C|---9----------9--7--9---10---------------------|
G|---7--7-7-7-7-7--5--7---8--------5----3----2---|
D|-----------------------------------------------|
       pm.....

|-----------------------------------------------||
|-----------------------------------------------||
|-----------------------------------------------||  X2
|--9----------9--4--5------7------------4-------||
|--7--7-7-7-7-7--2--3------5------------2-------||
|-----------------------------------------------||
      pm.....

(0:15)
|----------------------------|--------------------------||
|----------------------------|--------------------------||
|----------------------------|--------------------------||  X2
|----------------------------|--------------------------||
|--7h5h0-7h5h0-7h5-8---8-----|--7h5h0-7h5h0-7h5-5--5----||
|----------------------------|--------------------------||


(0:20)
|------------------------------|--------------------------------||
|------------------------------|--------------------------------||
|------------------------------|--------------------------------|| X2
|--9---------9-9-7-7-9-9--10---|-9---------9-9-4-4-5-5----7--4--||
|--7-7-7-7-7-7-7-5-5-7-7---8---|-7-7-7-7-7-7-7-2-2-3-3----5--2--||
|------------------------------|--------------------------------||
    pm..................           pm.................

(0:31)
|-----------------------------|--------------------------||
|-----------------------------|--------------------------||
|-----------------------------|--------------------------||  X2
|-----------------------------|--------------------------||
|---7h5h0-7h5h0-7h5-8---8-----|--7h5h0-7h5h0-7h5-5--5----||
|-----------------------------|--------------------------||


Verse (0:36)
|----------------------|------------------------|---------------------|
|----------------------|------------------------|---------------------|
|----------------------|------------------------|---------------------|
|---9---7---10--9--10--|--12--------12--11--12--|--9---7---10--9--10--|
|---7---5---8---7--8---|--10---10---10--9---10--|--7---5---8---7--8---|
|----------------------|-------8----------------|---------------------|

|-------------------------||
|-------------------------||
|-------------------------||  X2
|--12--------12--11--12---||
|--10---10---10--9---10---||
|-------8-----------------||


(0:46)
|---------------|-----------------|--------------|-----------------||
|---------------|-----------------|--------------|-----------------||
|---------------|-----------------|--------------|-----------------||  X2
|---------------|-----9-----------|--------------|-----9-----------||
|--7--2--8-7-8--|-10--7--10-9-10--|-7--2--8-7-8--|-10--7--10-9-10--||
|--5--0--6-5-6--|-8------8--7-8---|-5--0--6-5-6--|-8------8--7-8---||


(0:56)
|---------------------------------|------------------------||
|---------------------------------|------------------------||
|---------------------------------|------------------------||
|---------------------------------|------------------------||  X2
|--8---7---5---4---6---8---5---4--|--5---2---5------5------||
|--6---5---3---2---3---6---3---2--|--3---0---3------3------||


Bridge (1:06)
|--------------------------|--------------------------|
|--------------------------|--------------------------|
|--------------------------|--------------------------|
|--------------7-7-7-7-7-7-|--------------7-7-7-7-7-7-|
|--------------------------|--------------------------|
|--5-5-5-5-5-5-------------|--5-5-5-5-5-5-------------|
 pm...................................................

|--------------------------|--------------------------|
|--------------------------|--------------------------|
|--------------------------|--------------------------|
|--------------------------|--------------------------|
|--7p0-0-8p0-0-5p0-4p0-5p0-|--7p0-0-8p0-0-5p0-4p0-5p0-|
|--------------------------|--------------------------|

|--------------------------|--------------------------|
|--------------------------|--------------------------|
|--------------------------|--------------------------|
|--------------7-7-7-7-7-7-|--------------7-7-7-7-7-7-|
|--------------------------|--------------------------|
|--5-5-5-5-5-5-------------|--5-5-5-5-5-5-------------|
 pm...................................................

|--------------------------|-------------------------||
|--------------------------|-------------------------||
|--------------------------|-------------------------||   X2
|--7p0-0-8p0-0-5p0-4p0-5p0-|-7p0-0-8p0-0-5p0-4p0-5p0-||
|--------------------------|-------------------------||
|--------------------------|-------------------------||


(1:27)
|----------------------------|----------------------------|
|----------------------------|----------------------------|
|----------------------------|----------------------------|
|--12p0-0-11p0-0-8p0-7p0-8p0-|--12p0-0-11p0-0-8p0-7p0-8p0-|
|----------------------------|----------------------------|
|----------------------------|----------------------------|

|--------------------------|-------------------------||
|--------------------------|-------------------------||
|--------------------------|-------------------------||   X2
|--7p0-0-8p0-0-5p0-4p0-5p0-|-7p0-0-8p0-0-5p0-4p0-5p0-||
|--------------------------|-------------------------||
|--------------------------|-------------------------||

Chorus (1:35)
Lead Guitar 1
|---------------|-----------|-----------------|-----------|
|--10---11------|-----------|--8---10---------|-----------|
|------------12-|-----(12)--|-----------10----|-----(10)--|
|---------------|-----------|-----------------|-----------|
|---------------|-----------|-----------------|-----------|
|---------------|-----------|-----------------|-----------|

|---------------|-----------|---------------|--------------|
|--6----8----5--|------(5)--|--7----8-------|--10----11----|
|---------------|-----------|---------------|--------------|
|---------------|-----------|---------------|--------------|
|---------------|-----------|---------------|--------------|
|---------------|-----------|---------------|--------------|

|--10--11---8---|-----(8)---|--8--10---6----|------(6)--|
|---------------|-----------|---------------|-----------|
|---------------|-----------|---------------|-----------|
|---------------|-----------|---------------|-----------|
|---------------|-----------|---------------|-----------|
|---------------|-----------|---------------|-----------|

|--6----8----5--|-----(5)---|--2----3-------|---5----7-----||
|---------------|-----------|---------------|--------------||
|---------------|-----------|---------------|--------------||  X1
|---------------|-----------|---------------|--------------||
|---------------|-----------|---------------|--------------||
|---------------|-----------|---------------|--------------||

Chorus
Rythmn Guitar (1:35)
|---------------|-----------|-----------------|-----------|
|---------------|-----------|-----------------|-----------|
|---------------|-----------|-----------------|-----------|
|---7----8----5-|------(5)--|--5----7----3----|------(3)--|
|---5----6----3-|------(3)--|--3----5----1----|------(1)--|
|---------------|-----------|-----------------|-----------|

|-------------------|----------|--------------|---------------||
|-------------------|----------|--------------|---------------||
|-------------------|----------|--------------|---------------||
|---3----5----2-----|----------|--------------|---------------||  X2
|---1----3----0-----|-----(2)--|--4-----5-----|--7------8-----||
|-------------------|-----(0)--|--2-----3-----|--5------6-----||


Interlude (1:54)
|-----------------|-----------------|-----------------|-----------------|
|---------10------|---------10------|--------11-------|--------11-------|
|-------9----9----|-------9----9----|-----10----10----|-----10----10----|
|----7----------7-|----7----------7-|---8-----------8-|---8-----------8-|
|-0---------------|-0---------------|-0---------------|-0---------------|
|-----------------|-----------------|-----------------|-----------------|

|-----------------|-------------------|-------------------|------------------||
|--------13-------|----------13-------|----------15-------|---------15-------||
|------12---12----|-------12----12----|-------14----14----|------14----14----||
|---10---------10-|----10----------10-|---12-----------12-|---12----------12-||
|-0---------------|--0----------------|-0-----------------|-0----------------||
|-----------------|-------------------|-------------------|------------------||
    X2


Repeat (0:56) Verse X4


Outro (2:36)
|-------------------------|-------------------------||
|-------------------------|-------------------------||
|-------------------------|-------------------------||   X2
|-------------------------|-------------------------||
|--7h5h0-7h5h0-7h5-8---8--|--7h5h0-7h5h0-7h5-5--5---||
|-------------------------|-------------------------||

|----------------------|---------------------||
|----------------------|---------------------||
|----------------------|---------------------||
|----------------------|------------9--7-9/--|| X1
|--7p5p0h7---7p5p0h7---|--7p5p0h7---7--5-7/--||
|----------------------|---------------------||

========================
3.  Seabeast by Mastodon
D Tuning (D G C F A D)
========================

INTRO:
----------------------------------------------------------------------------|
----------0-------------0---------------0---------------0-------------------|
-------10---10-------10---10---------13---13---------13---13----------------|
-----0-------------0---------------0---------------0------------------------|
---9-------------9--------------12--------------12--------------------------|
-7-------------7-------------10--------------10-----------------------------|
(little solo thing during intro)
------7-9-10/14\10-9-7---7-9--7h9-10----------------------------------------|
-----7-----------------7----------------------------------------------------|
----7-----------------------------------------------------------------------|
---9------------------------------------------------------------------------|
--9-------------------------------------------------------------------------|
-7--------------------------------------------------------------------------|

------5-7-5---5-------------------------------------------------------------|
-----7------7---7-5-7bu(8)bd(7)-6-------------------------------------------|
----7-----------------------------------------------------------------------|
---9------------------------------------------------------------------------|
--9-------------------------------------------------------------------------|
-7--------------------------------------------------------------------------|

VERSE:
----------------------------------------------------------------------------|
----------------------------------------------------------------------------|
----------------------------------------------------------------------------|
----------------------------------------------------------------------------|
-5/8-8-8-8--5/7-7-7-7--4/5--8-8-8--5/8--5/7--5/8--5/7--8-8-8-8--5/7-7-7-7---|
-3/6-6-6-6--3/5-5-5-5--2/3--6-6-6--3/6--3/5--3/6--3/5--6-6-6-6--3/5-5-5-5---|

----------------------------------------------------------------------------|
----------------------------------------------------------------------------|
----------------------------------------------------------------------------|
----------------------------------------------------------------------------|
-4/5--8-8-8--5/8--5/7--5/8--5/7---------------------------------------------|
-2/3--6-6-6--3/6--3/5--3/6--3/5---------------------------------------------|

PRE-CHORUS:
----------------------------------------------------------------------------|
----------------------------------------------------------------------------|
----------------------------------------------------------------------------|
----------------------------------------------------------------------------|
-5/8--5/7--5/8--5/7--5-5-5-5--5/8--5/7--5/8--5/7--5-5-5-5-------------------|
-3/6--3/5--3/6--3/5--3-3-3-3--3/6--3/5--3/6--3/5--3-3-3-3-------------------|

CHORUS:
----------------------------------------------------------------------------|
----------------------------------------------------------------------------|
----------------------------------------------------------------------------|
-9---9---9/10-10-10-10-9-7--9/10-10-10-10-9-7-------------------------------|
-7---7---7/8---8--8--8-7-5--7/8---8--8--8-7-5-------------------------------|
---0---0--------------------------------------------------------------------|
(harmony part during chorus)
----------------------------------------------------------------------------|
----------------------------------------------------------------------------|
----------------------------------------------------------------------------|
-13---13---13/14-14-14-14-13-11--13/14-14-14-14-13-11-----------------------|
-11---11---11/12-12-12-12-11--9--11/12-12-12-12-11--9-----------------------|
----------------------------------------------------------------------------|

SOLO THING DURING CHORUS:
-12-12-12-12-12-12--0--12-12-12-12-12-12--0---------------------------------|
--------------------------------------------------12-----------12-----------|
---------------------------------------------9h10----10p9--9h10--10p9-------|
---------------------------------------------------------9-----------9------|
----------------------------------------------------------------------------|
----------------------------------------------------------------------------|

-7---------7----------------------------------------------------------------|
-10bu(12)--10bu(12)------8-------------8------------------------------------|
---------------------4/5---5\4-----4/5---5\4--------------------------------|
---------------------------------7-----------7------------------------------|
----------------------------------------------------------------------------|
----------------------------------------------------------------------------|

INTERLUDE/OUTRO:
----------------------------------------------------------------------------|
----------------------------------------------------------------------------|
----------------------------------------------------------------------------|
-10-9-------------10--7--10-10-9-------------10--7--15-15-14----------------|
--8-7--------------8--5---8--8-7--------------8--5--13-13-12----------------|
------0-0-0-0-0-0----------------0-0-0-0-0-0-----------------0-0-0-0-0-0----|

----------------------------------------------------------------------------|
----------------------------------------------------------------------------|
----------------------------------------------------------------------------|
-10--7--10-10-9-------------------------------------------------------------|
--8--5---8--8-7-------------------------------------------------------------|
----------------0-0-0-0-0-0-------------------------------------------------|

Fill #1:
----------------------------------------------------------------------------|
----------------------------------------------------------------------------|
----------------------------------------------------------------------------|
-------5---5-7-8-7-5-------------5---5-7-8-7-5------------------------------|
-5-7-8---8-----------8-7-5-5-7-8---8-----------8-7-5------------------------|
----------------------------------------------------------------------------|

Fill#2
-------3---3-5-6-5-3-------------3---3-5-6-5-3------------------------------|
-3-5-6---6-----------6-5-3-3-5-6---6-----------6-5-3------------------------|
----------------------------------------------------------------------------|
----------------------------------------------------------------------------|
----------------------------------------------------------------------------|
----------------------------------------------------------------------------|

======================
4.  Island by Mastodon
D Tuning (D G C F A D)
======================

Riff One
|---------------------------------------------------------------------------|
|-5-5-----5-5---------------------------------------------------------------|
|-4-4-----4-4-----3-3--x-x--6-6--x-x----------------------3-3-x-x--5-5-5----|x4
|-2-2-----2-2-----3-3--x-x--6-6--x-x--5-5--x-x--5-5--x-x--2-2-x-x--4-4-4----|
|-2-2-----2-2-----1-1--x-x--4-4--x-x--4-4--x-x--4-4--x-x--1-1-x-x--3-3-3----|
|-0-0-0-0-0-0-0-0-1-1--x-x--4-4--x-x--3-3--x-x--3-3--x-x--------------------|
     pm--    pm--                          N.H.      N.H.
Riff Two
|-----------------------------------------------------------------------------|
|-----------------------------------------------------------------------------|
|-----------------------------------------------------------------------------|
|-----------------------------------------------------------------------------|
|-2-----------5\3--2-3-2-----------7\6--0--4/6--------------------------------|
|-0--0-0-0-0--3\1--0-1-0--0-0-0-0---------------------------------------------|
  pm--------           pm-----------------------------------------------------|
|-----------------------------------------------------------------------------|
|-----------------------------------------------------------------------------|
|------------------------------------------6----------------------------------|
|------------------------------------6p5---5----------------------------------|x2
|-2-----------5\3--2--2-3-2--------------0-4----------------------------------|
|-0--0-0-0-0--3\1--0--0-1-0--0-0-0-0------------------------------------------|
  pm--------              pm--------------------------------------------------|
|-----------------------------------------------------------------------------|
|-----------------------------------------------------------------------------|
|-----------------------------------------------------------------------------|
|----------------------------------9\8-6-8/9----------------------------------|
|-2-----------5\3--2-3-2-----------7\6-0-4/6----------------------------------|
|-0--0-0-0-0--3\1--0-1-0--0-0-0-0---------------------------------------------|
   pm-------           pm-----------------------------------------------------|
|-----------------------------------------------------------------------------|
|-----------------------------------------------------------------------------|
|--------------------------------------6--------------------------------------|
|--------------------------------6p5---5--------------------------------------|
|-2----------5\3--2-3-2--------------0-4--------------------------------------|
|-0--0-0-0-0-3\1--0-1-0--0-0-0-0----------------------------------------------|
   pm-------          pm------------------------------------------------------|
Riff Three
|---------------------------------------------------------------------------|
|---------------------------------------------------------------------------|
|--13\12---7/9--13\12---9/10-----13\12---10/12------------------------------|x2
|---------------------------------------------------------------------------|
|--11\10-0-5/7--11\10-0-7/8--0---11\10-0-8/10-------------------------------|
|---------------------------------------------------------------------------|

|---------------------------------------------------------------------------|
|---------------------------------------------------------------------------|
|---------------------------------------------------------------------------|
|--6p5---------6p5------------6p5---3/5---6p5----3/5------------------------|x2
|------0-5/7--------0-7/8---------0-----------0-----------------------------|
|---------------------------------------------------------------------------|
then repeat Riff Two, Then Riff Three, Then Riff One, Then Riff Two (once), then Riff Three

Instrumental
|-------------------------------------------------------------------------------|
|-------------------------------------------------------------------------------|
|-----------------------------------------------------------11-11-11-12-11-14-11|
|-----------------4-4-4-5-4-7-4--11-11-11-11-12-11-14-11-12---------------------|
|-4-4-4-4-5-7-4-5---------------------------------------------------------------|
|-------------------------------------------------------------------------------|

|-------------------------14-14-14-15-14-17-14--9-9-9-9-10-9-9-----------------|
|-14-14-14-14-15-17-14-15--------------------------------------7-7-7-7-7-8-7-8-|
|------------------------------------------------------------------------------|
|------------------------------------------------------------------------------|
|------------------------------------------------------------------------------|
|------------------------------------------------------------------------------|

|-0--0--0--0--0--0--0---0--0--0--0--0--0---0--0--0--0---0--0--0--0--0--0----|
|-17-17-17-17-17-17-17--15-15-15-15-15-15--12-12-12-12--10-10-10-10-10-10---|
|---------------------------------------------------------------------------|
|---------------------------------------------------------------------------|
|---------------------------------------------------------------------------|
|---------------------------------------------------------------------------|

|-0-0-0-0-0-0--0-0-0-0--0-0-0-0-0-0--0-0-0-0-0-0--0-0-0-0--0-0-0-0-0-0-0-0-0-|
|-9-9-9-9-9-9--7-7-7-7--5-5-5-5-5-5--7-7-7-7-7-7--9-9-9-9--10-10-10-10-10-10-|
|----------------------------------------------------------------------------|
|----------------------------------------------------------------------------|
|----------------------------------------------------------------------------|
|----------------------------------------------------------------------------|

-0--0--0--0--0--0--0--0--0-|
-12-12-12-12-12-12-12-12-12|
---------------------------|
---------------------------|
---------------------------|
---------------------------|

Riff Four
|-----------------|----------------|-------------------|-------------------------|
|-----------------|----------------|-------------------|-------------------------|
|-----------------|----------------|-------------------|-------------------------|
|-8---6-(6)/9-9---|-8---6-(6)/9-9--|-8---9-(9)/12-12---|-8---9-(9)/12-12---------|
|-7---4-(4)/7-7---|-7---4-(4)/7-7--|-7---7-(7)/10-10---|-7---7-(7)/10-10---------|
|---0-----------0-|---0----------0-|---0-------------0-|---0-------------0-------|
   pm          pm     pm         pm    pm            pm    pm            pm
Riff Five
|-----------------|-----------------|-------------------|-------------------------|
|-----------------|-----------------|-------------------|-------------------------|
|-----------------|-----------------|-------------------|-------------------------|
|-8---------------|-8---------------|-8-----------------|-8-----------------------|
|-7---5-(5)/8-8---|-7---5-(5)/8-8---|-7---8-(8)/11-11---|-7---8-(8)/11------------|
|---0-3-(3)/6-6-0-|---0-3-(3)/6-6-0-|---0-6-(6)/9--9--0-|---0-6-(6)/9--0----------|
   pm          pm     pm          pm    pm            pm    pm         pm
Riff Six (x4)
|--------------------------|--------------------------|----------------------------|
|--------------------------|--------------------------|----------------------------|
|--------------------------|--------------------------|----------------------------|
|-----6--------------------|-----6--------------------|-----6----------------------|
|-----4-6------------------|-----4-6------------------|-----4-6--------------------|
|-0h3---4--0h3-3-3-3-3-3-3-|-0h3---4--0h3-3-3-3-3-3-3-|-0h3---4-0h3-3-3-3-3-3-3----|
          pm------------             pm--------------          pm------------------|

|---------|----------|
|---------|----------|
|---------|----------|
|-----6---|-----7----|
|-----4-6-|-----5-7--|
|-0h3---4-|-0h3---5--|

After Riff six (x4), then Do Riff 4, Then Riff 5, Then Do Outro

Outro
|----------------------------|
|----------------------------|
|----------------------------|
|-----6----------------------|
|-----4-6----5---------------|
|-0h3---4--0-3---------------|

=========================
5.  Iron Tusk by Mastodon
"A" Tuning (A G C F A D)
=========================

[Intro]
D||----|----||------------------------|----------------------|
A||----|----||------------------------|----------------------|
F||----|----||*-----------------------|----------------------|
C||Drum|Fill||*-----------------------|----------------------|
G||----|----||------------------------|----------------------|
A||----|----||---0--0--0--12--12--12--|--0--0--0--12--12--0--|

|--------------------|------------------||
|--------------------|------------------||
|--------------------|-----------------*||
|--------------------|-----------------*||
|--------------------|------------------||
|--13--10--10--------|--8----8-<7>~~~---||

[Pre Verse] {Guitar 2 Plays Intro}
||------------------------|----------------------|--------------------|
||------------------------|----------------------|--------------------|
||*-----------------------|----------------------|--------------------|
||*-----------------------|----------------------|--------------------|
||------------------------|----------------------|--------------------|
||---0--0--0--16--16--16--|--0--0--0--16--16--0--|--17--14--14--------|


|--------------------|------------------||
|--------------------|------------------||
|--------------------|-----------------*||
|--------------------|-----------------*||
|--------------------|------------------||
|--17--14--14--------|-12---12-11~------||

[Verse I]
||---------------------|-------------------|
||---------------------|-------------------|
||*--------------------|-------------------|
||*--------------------|--------------4--2-|
||---2--2--2--2--2--2--|--2--2--2--2--2--0-|
||---0--0--0--0--0--0--|--0--0--0--0-------|

|---------------------|--------------------|--------------------|
|---------------------|--------------------|--------------------|
|---------------------|--------------------|--------------------|
|--4------------------|--7--7--7--6--6--6--|--------------------|
|--2--2--2--2--2--2---|--5--5--5--4--4--4--|--2--2--2--2--2--2--|
|-----0--0--0--0--0---|--------------------|--0--0--0--0--0--0--|

|---------------------|--------------------|-------------------||
|---------------------|--------------------|-------------------||
|---------------------|--------------------|------------------*||
|--------------4--2---|--4-----------------|------------------*||
|--2--2--2--2--2--0---|--2--2--2--5--5--5--|--10--10--10-------||
|--0--0--0--0---------|-----0--0--3--3--3--|--8---8---8---7----||

[Bridge I]
1st
G||--------------------|--15----14----15--14--|--------------------|
U||--------------------|----------------------|--------------------|
I||--4--4--4--7--7--7--|--12----11----12--11--|--4--4--4--7--7--7--|
T||--------------------|----------------------|--------------------|
A||--2--2--2--5--5--5--|----------------------|--2--2--2--5--5--5--|
R||--------------------|----------------------|--------------------|
2nd
G||--------------------|----------------------|--------------------|
U||--------------------|----------------------|--------------------|
I||--------------------|----------------------|--------------------|
T||--------------------|----------------------|--------------------|
A||--2--2--2--5--5--5--|--10----9----10--9----|--2--2--2--5--5--5--|
R||--0--0--0--3--3--3--|--8-----7----8---7----|--0--0--0--3--3--3--|

1st
G|--15--15--15--14-----|----------------------|--15---14---15--14--|
U|---------------------|----------------------|--------------------|
I|--12--12--12--11-----|--4--4--4--7--7--7----|--12---11---12--11--|
T|---------------------|----------------------|--------------------|
A|---------------------|--2--2--2--5--5--5----|--------------------|
R|---------------------|----------------------|--------------------|
2nd
G|---------------------|----------------------|-------------------||
U|---------------------|----------------------|-------------------||
I|---------------------|----------------------|-------------------||
T|---------------------|----------------------|-------------------||
A|--10--10--10--9------|--2--2--2--5--5--5----|--10---9----10--9--||
R|--8---8---8---7------|--0--0--0--3--3--3----|--8----7----8---7--||


[Repeat Intro]


[Repeat PreVerse]


[Repeat Bridge I]

[MidSection]
||---------------------|--------------------|
||---------------------|--------------------|
||*--------------------|--------------------|
||*--------------------|--------------------|
||---------------------|--------------------|
||---0--2--0--3--2--0--|--0--2--0--3--2--0--|

||--PM--------------------------------------|

|----------------------|--------------------|
|----------------------|--------------------|
|----------------------|--------------------|
|----------------------|--------------------|
|-------------8-----8--|-----------8-----8--|
|--0--3--0----6-----6--|--0--3--0--6-----6--|


|----------------------|--------------------|
|----------------------|--------------------|
|*---------------------|--------------------|
|*---------------------|--------------------|
|----------------------|--------------------|
|---0--2--0--3--2--0---|--0--2--0--3--2--0--|

|--PM---------------------------------------|

|----------------------|-------------------||
|----------------------|-------------------||
|----------------------|------------------*||
|----------------------|------------------*||
|-----------10-----10--|-----------10--10--||
|--0--3--0--8------8---|--0--3--0--8---8---||

[Interlude]
1st
G||-------------|--------------|-------------|--------------|
U||-------------|--------------|-------------|--------------|
I||*------------|--------------|-------------|--------------|
T||*-11---------|--------------|-------------|--------------|
A||--0----------|--11----------|--------(11)-|---------(11)-|
R||-------------|--------------|-------------|--------------|
2nd
G||-------------|--------------|-------------|--------------|
U||-------------|--------------|-------------|--------------|
I||-------------|--------------|-------------|--------------|
T||--2----------|--------------|-------------|--------------|
A||--0----------|--7-----------|---------(7)-|----------(7)-|
R||-------------|--5-----------|---------(5)-|----------(5)-|

1st
G|-------------|---------------|-------------|--------------|
U|-------------|---------------|-------------|--------------|
I|-------------|---------------|-------------|--------------|
T|--7----------|---------------|-------------|--------------|
A|-----9----9--|--9ho11po9--7--|---------(7)-|----------(7)-|
R|-------------|---------------|-------------|--------------|
2nd
G|-------------|---------------|-------------|--------------|
U|-------------|---------------|-------------|--------------|
I|-------------|---------------|-------------|--------------|
T|--3----------|---------------|-------------|--------------|
A|-----5---5---|--5-ho7po5--3--|---------(3)-|----------(3)-|
R|-------------|---------------|-------------|--------------|

1st
G|-------------|---------------|-------------|--------------|
U|-------------|---------------|-------------|--------------|
I|-------------|---------------|-------------|--------------|
T|--11---------|---------------|-------------|--------------|
A|--0----------|--11-----------|--------(11)-|---------(11)-|
R|-------------|---------------|-------------|--------------|
2nd
G|-------------|---------------|-------------|--------------|
U|-------------|---------------|-------------|--------------|
I|-------------|---------------|-------------|--------------|
T|--2----------|---------------|-------------|--------------|
A|--0----------|--7------------|---------(7)-|----------(7)-|
R|-------------|--5------------|---------(5)-|----------(5)-|

1st
G|-------------|---------------|-------------|--------------||
U|-------------|---------------|-------------|--------------||
I|-------------|---------------|-------------|-------------*||
T|--7----------|---------------|--4----------|-------------*||
A|-----9---9---|--9ho11po9--7--|-----6----6--|--6ho7po6--4--||
R|-------------|---------------|-------------|--------------||
2nd
G|-------------|---------------|-------------|--------------||
U|-------------|---------------|-------------|--------------||
I|-------------|---------------|-------------|-------------*||
T|--3----------|---------------|-------------|-------------*||
A|-----5----5--|--5-ho7po5--3--|--5--2----2--|--2ho4po2--0--||
R|-------------|---------------|-------------|--------------||

[Repeat MidSection] {Both Guitars x1 then Guitar 2 only x1}

[Verse III]
1st
G||------------------------|-----------------------|
U||---12--12--12-----------|--12--12--12-----------|
I||*--10--10--10-----------|--10--10--10-----------|
T||*-----------------------|-----------------------|
A||---------------2--2--2--|--------------2--2--2--|
R||---------------0--0--0--|--------------0--0--0--|
2nd
G||------------------------|-----------------------|
U||------------------------|-----------------------|
I||*--10--10--10-----------|--10--10--10-----------|
T||*--9---9---9------------|--9---9---9------------|
A||---------------2--2--2--|--------------2--2--2--|
R||---------------0--0--0--|--------------0--0--0--|

1st
G|------------13--13--13--|------------13--13--13--|
U|------------12--12--12--|------------12--12--12--|
I|------------------------|------------------------|
T|------------------------|------------------------|
A|--2--2--2---------------|--2--2--2---------------|
R|--0--0--0---------------|--0--0--0---------------|
2nd
G|------------------------|------------------------|
U|------------------------|------------------------|
I|------------16--16--16--|-----------16--16--16--*|
T|------------15--15--15--|-----------15--15--15--*|
A|--2--2--2---------------|--2--2--2---------------|
R|--0--0--0---------------|--0--0--0---------------|

1st
G|------------------------|------------------------|
U|---12--12--12-----------|--12--12--12------------|
I|*--10--10--10-----------|--10--10--10------------|
T|*-----------------------|------------------------|
A|---------------2--2--2--|---------------2--2--2--|
R|---------------0--0--0--|---------------0--0--0--|
2nd
G|------------------------|------------------------|
U|------------------------|------------------------|
I|*--10--10--10-----------|--10--10--10------------|
T|*--9---9---9------------|--9---9---9-------------|
A|---------------2--2--2--|---------------2--2--2--|
R|---------------0--0--0--|---------------0--0--0--|

1st
G|-----------15--15--15--|-----------15--15--15---||
U|-----------14--14--14--|-----------14--14--14---||
I|-----------------------|-----------------------*||
T|-----------------------|-----------------------*||
A|--2--2--2--------------|--2--2--2---------------||
R|--0--0--0--------------|--0--0--0---------------||
2nd
G|-----------------------|------------------------||
U|-----------------------|------------------------||
I|-----------18--18--18--|-----------18--18--18--*||
T|-----------17--17--17--|-----------17--17--17--*||
A|--2--2--2--------------|--2--2--2---------------||
R|--0--0--0--------------|--0--0--0---------------||


[Repeat Intro]


[Repeat PreVerse]

[Outro]
||--------------------|--------------------|--------------||
||--------------------|--------------------|--------------||
||--------------------|--------------------|--------------||
||--------------------|--------------4--2--|--4-----------||
||--2--2--2--2--2--2--|--2--2--2--2--2--0--|--2-----------||
||--0--0--0--0--0--0--|--0--0--0--0--------|--------------||

=========================
6.  Megalodon by Mastodon
D Tuning (D G C F A D)
=========================

INTRO

Guitars I and IV
  Ebadd11/Ab     Gsus4/C               G/C           Eb/Ab
d---------------------------------------------------------------------|
A---------------------------------------------------------------------|
F---------0---------------0------0------------0-------------0-----0---|
C-----6-----6--------10----10------10-----8-----8-------4-----4-----4-|
G---6---6-----6---10---10-----10--------10-10----10---6---6-----6-----|
D-4-------------8---------------------9-------------5-----------------|

Guitar I
  F11
d-----------------------0h2-----------------------------0h2-----|
A-----------0-----0---------4h5-------------0-----0---------5p4-|
F-------0h3---3h4---4h6-----------------0h3---3h4---4h6---------|
C---0h4-----------------------------0h4-------------------------|
G---------------------------------------------------------------|
D-2-------------------------------2-----------------------------|

  N.C.
d------------------------------------------------------|
A------------------------------------------------------|
F-6p4-4-4~~-4-2p0-0---0--0---0---0---0---0---0---0---0-|
C-----------------------4--2---------------------------|
G------------------------------3---2-------------------|
D--------------------------------------3---2---1---0---|

VERSE
Guitar I
      Eb5                                            N.C.
d-----------------------------------------------------------------|
A-----------------------------------------------------------------|
F---------------------------------------------------------0---0---|
C-----8---8-----8---8-----8-----8---8-----8-----8-------0---6-----|
G-----6---6-----6---6-----6-----6---6-----6-----6---0h6---------6-|
D-X-X---X---X-X---X---X-X---X-X---X---X-X---X-X---X---------------|

      Eb5           F5                               N.C.
d------------------------------------------------------------------|
A------------------------------------------------------------------|
F------------------------------------------------------------------|
C-----8---8-----8---10-----8-----8---8-----8-----8---------6-------|
G-----6---6-----6---8------6-----6---6-----6-----6---6-7-9---9-7-9-|
D-X-X---X---X-X---X----X-X---X-X---X---X-X---X-X---X---------------|

Guitar III
      Eb5           F5                               N.C.
d---------------------------------------------------------------------|
A---------------------------------------------------------------------|
F-----------------------------------------------------------8---------|
C-----8---8-----8---10-----8-----8---8-----8-----8---8-9-11---11-9-11-|
G-----6---6-----6---8------6-----6---6-----6-----6--------------------|
D-X-X---X---X-X---X----X-X---X-X---X---X-X---X-X---X------------------|

      Eb5                                           N.C
d-----------------------------------------------------------------|
A-----------------------------------------------------------------|
F-----------------------------------------------------------------|
C-----8---8-----8---8-----8-----8---8-----8-----8-----------------|
G-----6---6-----6---6-----6-----6---6-----6-----6---------4-6-----|
D-X-X---X---X-X---X---X-X---X-X---X---X-X---X-X---X-4-5-7-----5-7-|

      Eb5
d---------------------------------------------------|
A---------------------------------------------------|
F---------------------------------------------------|
C-----8---8-----8---8-----8-----8---8-----8-----8---|
G-----6---6-----6---6-----6-----6---6-----6-----6---|
D-X-X---X---X-X---X---X-X---X-X---X---X-X---X-X---X-|

GUITAR SOLO
Guitars I & II (guitar II = nashville-tuned elec. Standard w/str. 3-6 tuned one octave higher)

d---------------------0------------------------------0------0-----0---0---0----------|
A-----------------0-------------12----12---------------------------------------------|
F-------0-----0h6---9---9-11h13----13----13p11-9-(9)---------------------------------|
C---------0h6------------------------------------------9h11---7\9---6---6---6/4-2----|(2)
G---0h6------------------------------------------------------------------------------|
D-X----------------------------------------------------------------------------------|

INTERLUDE
Guitars I & III
  N.C.(Em)
d-------------------------------------------------------------------------------|
A-------------------------------------------------------------------------------|
F-------------------------------------------------------------------------------|
C-------------------------------------------------------------------------------|
G-------------------------------------------------------------------------------|
D-12h13-0-12h13-0-0-0-0-0-0-0-0-0-0-0-12h13-0-12h13-0-12h13-0-12h13-0-16-0-13-0-|
        .       . . . . . . . . . . .       .       .       .       .    .    .

d--------------------------------------------------------------------------------|
A--------------------------------------------------------------------------------|
F--------------------------------------------------------------------------------|
C--------------------------------------------------------------------------------|
G--------------------------------------------------------------------------------|
D-12h13-0-12h13-0-0-0-0-0-0-0-0-0-0-0-12h13-0-12h13-0-12h13-0-12h13-0-17-0-13-0--|
        .       . . . . . . . . . . .       .       .       .       .    .    .

Guitar I
d-------------------------------------------------------------------------|
A-------------------------------------------------------------------------|
F-------------------------------------------------------------------------|
C---------12h14-----------------------12h14---12h14-----------------------|
G-------------------------------------------------------------------------|
D-12h13-0-------0-0-0-0-0-0-0-0-0-0-0-------0-------0-0-0-0-0-0-0-0-0-0-0-|
        .       . . . . . . . . . . .       .       . . . . . . . . . . .

Guitar III
d-------------------------------------------------------------------------|
A-------------------------------------------------------------------------|
F-------------------------------------------------------------------------|
C-------------------------------------------------------------------------|
G---------12h14-----------------------12h14---12h14-----------------------|
D-12h13-0-------0-0-0-0-0-0-0-0-0-0-0-------0-------0-0-0-0-0-0-0-0-0-0-0-|
        .       . . . . . . . . . . .       .       . . . . . . . . . . .

Guitar I
d----------------------------------------------------------------------------------|
A----------------------------------------------------------------------------------|
F----------------------------------------------------------------------------------|
C-12h14---12h14---12h14---12h14---12h14----12h14---12h14---12h14---12h14---12h14---|
G----------------------------------------------------------------------------------|
D-------0-------0-------0-------0------0-0-------0-------0-------0-------0-------0-|
        .       .       .       .      . .       .       .       .       .       .

Guitar III
d-----------------------------------------------------------------------------------|
A-----------------------------------------------------------------------------------|
F-----------------------------------------------------------------------------------|
C-----------------------------------------------------------------------------------|
G-12h14---12h14---12h14---12h14---12h14----12h14---12h14---12h14---12h14---12h14----|
D--------0-------0-------0-------0------0-0-------0-------0-------0-------0-------0-|
         .       .       .       .      . .       .       .       .       .       .

Guitars I & III
   G5  D5  F5  Eb5 C5  d5
d-------------------------|
A-------------------------|
F--12---------------------|
C--12--12--15--13--10--12-|
G--10--12--15--13--10--12-|
D------10--13--11--8---10-|

BRIDGE
Guitars I and III
  N.C.
d---------------------------------------------------------|
A---------------------------------------------------------|
F---------------------------------------------------------|
C---------2-2-----4-4-------------2-2---------4-4---------|
G---------------------------------------------------------|
D-0-0-2-2-----0-0-----2-2-0-0-2-2-----0-0-3-3-----2-2-0-0-|
  . . . . . . . . . . . . . . . . . . . . . . . . . . . .

d-------------------------------------------------------------------------|
A-------------------------------------------------------------------------|
F-------------------------------------------------------------------------|
C-----2-2-----4-4-------------------------4-4-----------------------------|(2)(2)(3)(3)(5)(5)(3)(3)
G-----------------------------5-5-----2-2---------4--4--5--5--7--7--5--5--|
D-2-2-----0-0-----2-2-0-0-2-2-----3-3---------2-2-------------------------|
  . . . . . . . . . . . . . .

INTERLUDE
Guitars I & III
  N.C
d------------------------------------------------------------------|
A------------------------------------------------------------------|
F------------------------------------------------------------------|
C-----2---4-------2-----4-------2---4-------------4~-----2-4-5-7-5-|
G-------------------------------------------5---2------4-----------|
D-0-2---4---2-0-2---0-3---2-0-2---0---2-0-2--3-------2-------------|
                                                  AH
  N.C.(Em)
d-------------------------------------------------------------|
A-------------------------------------------------------------|
F-------------------------------------------------------------|
C---------------9h10p9~~~~~~~~-9h10p9p7-9-/9-7----------------|
G---7h8p7~~~~----------------------------------10~~~~9~~~~----|
D-0-----------0--------------------------------------------10-|

d---------------------------------------------------------------|
A---------------------------------------------------------------|
F---------------------------------------------------------------|
C-----------------9h10p9~~~~~~~~-9h10p9p7-9-/9-7----------------|
G-7---7h8p8~~~~----------------------------------10~~~~9~~~~----|
D---0-----------0--------------------------------------------10-|

Guitar I

d---------------------------------------------------------------|
A---------------------------------------------------------------|
F---------------------------------------------------------------|
C-----------------9h10p9~~~~~~~~-9h10p9p7-9-/9-7----------------|
G-7---7h8p8~~~~----------------------------------10~~~~9~~~~----|
D---0-----------0--------------------------------------------10-|

Guitar III
d------------------------------------------------------------|
A------------------------------------------------------------|
F-----------------8h9p8~~~~~~~~-8h9p8p6-8--------------------|
C-----6h7h6~~~~----------------------------------------------|
G-7---------------------------------------/9-7-------------0-|
D---0-----------0------------------------------10~~~~9~~~~---|

BRIDGE

INTERLUDE 2

GUITAR SOLO
Guitar I
  N.C.(Em)
d-------------------------------------------------------------------|
A-------------------------------------------------------------------|
F-------------------------------------------------------------------|
C---------------4-4h5p4---4---------------------5h7h9p7p5---7---5h7-|
G---5-(5)-7-(7)---------7---7-5h7---5-(5)-7-(7)-----------7---7-----|
D-0-------------------------------0---------------------------------|

Guitar III
    D     E                         D     E
d------------------------------------------------------------------------|
A---7-(7)-9-(9)---7h8p7---7---------7-(7)-9-(9)-8h10h12p10p8---10---8h10-|
F---7-(7)-9-(9)---------9---9p7-----7-(7)-9-(9)--------------9----9------|
C-------------------------------9----------------------------------------|
G------------------------------------------------------------------------|
D-0-------------------------------0--------------------------------------|

OUTRO
  B5 F5  D5 A5 B5 E5
d-------------------------|
A-------------------------|
F----10--7--------9-------|(9)\
C-9--10--7--7--9--9-------|(9)\
G-9--8---5--7--9--7-------|(7)\
D-7---------5--7----------|

==========================
7.  Naked Burn by Mastodon
D Tuning (D G C F A D)
==========================

Intro All Downstrokes
  PM======================  ===========================
D--2-3-2-2-2-2-2-3-2-2-2-5  -7-8-7-7-7-7--7-8-7-7-7-10-|
A--0-0-0-4-0-5-0-0-0-4-0-0  -0-0-0-9-0-10-0-0-0-9-0-0--|
F-------------------------2x---------------------------|2x
C------------------------------------------------------|
G------------------------------------------------------|
D------------------------------------------------------|

Verse

D--------------------------------------------------------|
A--------------------------------------------------------|
F-----------------------------------------1st----2nd-----|
C--------------------------------------ending----ending--|
G--9/10-97--7/9--9--9--8----8--8--8------12-    -7-------|
D--7/8--75--5/7--7--7--7----7--7--7------10-    -5-------|

Pre Chorus
           PM=        PM===              PM===
D----------------------------------------------------------------|
A----------------------------------------------------------------|
F-------11-----9----9-------------------------1st----------------|
C--------x-----x----x-------------------------ending-------------|
G--------9-----7----7--------8--8--8--8------- 10-10-10-8--8--10-|
D--0---0---0-0---------0--0--6--6--6--6--0--0--8--8--8--6--6--8--|

2nd ending
D-------------------------|
A-------------------------|
F-------------------------|
C-------------------------|
G--14--14--14--12--12--14-|
D--12--12--12--10--10--12-|

Chorus
            PM==                PM===
D------------------------------------|
A------------------------------------|
F--12----12-----4times--11---11------|2times
C--xx----xx-------------x----x-------|
G--10----10-------------9----9-------|
D-----------0--0----------------0--0-|

Fill 1
D-------------------------------------|
A-------------------------------------|
F-------------------------------------|
C--------4--5--7--4--5-----9-----9----|
G--5--7-----------------7-----7-----7-|
D-------------------------------------|

Fill 2
D--------------------|
A--------------------|
F--7--5--4-----------|
C-----------7--5--4--|
G--------------------|
D--------------------|

Bridge
  Light Palm Mute Throughout
D-------------------------------------|
A-------------------------------------|
F-------------------------------------|2times
C-----9----10----12----9----10----12--|
G--10---10----10----10---10----10-----|
D-------------------------------------|

D--------------------------|
A--------------------------|
F------------5-----------5-|2times
C----7---8-------7---8-----|
G--5---5---5---5---5---5---|
D--------------------------|

D--------------------------------------------------------------------------|
A--------------------------------------------------------------------------|
F--------------------------------------------------------------------------|
C----2---3---5---2---3---5---2---3---5---2---3---5-------------------------|
G--4---4---4---4---4---4---1---1---1---1---1---1-----4---5---7---4---5---7-|
D--------------------------------------------------5---5---5---5---5---5---|

D---------------------|
A---------------------|
F---------------------|
C---------------------|4times
G--4--4--4--5------7--|
D--2--2--2--3------5--|

Then repeat the whole song again

Outro

D---------------------------------------|
A---------------------------------------|
F---------------------------------------|2times
C---------------------------------------|
G--4--4--4--5------7--4--4--4--9------7-|
D--2--2--2--3------5--2--2--2--7------5-|

D---------------------------------------|
A---------------------------------------|
F---------------------------------------|
C---------------------------------------|
G--5--3--2-----2--------2---------------|
D-----------5-----5--3-----5--3--2--0---|

Listen to song to hear how many times to do the outro
and at the very end hit a  C-------|
                           G--4--4-|
                           D--2--2-|

=============================
8.  Aqua Dementia by Mastodon
"A" Tuning (A G C F A D)
=============================

                     INTRO
e|-----0-3p0-0---------|------0-----0-----0-|-----0-3p0-0---------|
B|-0h5---------5p0-----|--0h3---0h5---0h6---|-0h5---------5p0-----|
G|-----------------4p0-|--------------------|-----------------4p0-|
D|---------------------|--------------------|---------------------|
A|---------------------|--------------------|---------------------|
E|---------------------|--------------------|---------------------|

e|-----0-----0-----0-|
B|-0h3---0h6---0h5---|
G|-------------------|  x2
D|-------------------|
A|-------------------|
E|-------------------|

e|-----0h2---0---------|-------------------|-----0h2---0---------|
B|-0h3-----3---3p0-----|-----0-----0-----0-|-0h3-----3---3p0-----|
G|-----------------3p0-|-0h2---0h4---0h5---|-----------------3p0-|
D|---------------------|-------------------|---------------------|
A|---------------------|-------------------|---------------------|
E|---------------------|-------------------|---------------------|

e|-------------------|
B|-----0-----0-----0-|
G|-0h2---0h5---0h4---|  x2 (then go back to top)
D|-------------------|
A|-------------------|
E|-------------------|
                                BRIDGE
e|--------------------------|----------------|-------------------------| -|
B|-3b(3)p0------------------|---0---0---0----|--0----0---0------0---0--|  |
G|---------2b(2)p0----------|---4---2---4----|--5----5---5------5---5--|  |
D|------------------2h3p2p0-|----------------|-------------------------|  |
A|--------------------------|-2--------------|-------------------------|  |
E|--------------------------|----------------|-------------------------|  |
                                                                        |x2
e|--------------------------|----------------|-------------------------|  |
B|-3b(3)p0------------------|---0---0---0----|--0----0---0------0---0--|  |
G|----------2b(2)p0---------|---4---2---5----|--4----4---4------4---4--|  |
D|------------------2h3p2p0-|----------------|-------------------------|  |
A|--------------------------|-2--------------|-------------------------|  |
E|--------------------------|----------------|-------------------------| -|

RIFF 1
e|-------------------------------------------------------------------------|
B|-------------------------------------------------------------------------|
G|-------------------------------------------------------------------------|
D|-4-----4--5--5-5---5-5--4-----5--4--4-4-4-4-4----------------------------|
A|-2-----2--3--3-3---3-3--2-----3--2--2-2-2-2-2----------------------------|
E|---0-0--------------------0-0--------------------------------------------|

e|-------------------------------------------------------------------------|
B|-------------------------------------------------------------------------|
G|-------------------------------------------------------------------------|
D|-4-----4--5--5-5---5-5--4-----5--4--4-4---4-4----------------------------|
A|-2-----2--3--3-3---3-3--2-----3--2--2-2---2-2----------------------------|
E|---0-0--------------------0-0--------------------------------------------|

RIFF 2
e|-----------------------------------------------------------|
B|-----------------------------------------------------------|
G|-8-----6--8--9--9-9---9-9---8-----6--9---8---8--8----8--8--|
D|-----------------------------------------------------------|x2
A|-6-----4--6--7--7-7---7-7---6-----4--7---6---6--6----6--6--|
E|-----------------------------------------------------------|

RIFF 3
e|--------7--6--7-----9---9---9-----6--6------------------------------|
B|----0---8--7--8----10--10--10-----7--7------------------------------|
G|-9--9---9--8--9----11--11--11-----8--8------------------------------|
D|-9--9---9--8--9----11--11--11-----8--8------------------------------|x2
A|-7--7---------------------------------------------------------------|
E|--------------------------------------------------------------------|
then repeat RIFF 1, Then RIFF 3, Then Riff 1, Then Riff 3, THEN Go on to riff 4
RIFF 4
e|----------------------------------------------------------------------|
B|----------------------------------------------------------------------|
G|-12-----9-----7---9---10-----12-----9-----7---10---9------------------|
D|-12-----9-----7---9---10-----12-----9-----7---10---9------------------|x2
A|-10-----7-----5---7----8-----10-----7-----5----8---7------------------|
E|----0-0---0-0---0---0----0-0----0-0---0-0---0----0----0---------------|


Then Do Riff 3 (x2 obviously) and then Do Riff 4 again, Then Continue to riff 5

RIFF 5
e|-------7---6--7----9---9---9----------------------------------|
B|----0--8---7--8---10--10--10----------------------------------|
G|-9--9--9---8--9---11--11--11----------------------------------|
D|-9--9--9---8--9---11--11--11----------------------------------|
A|-7--7---------------------------------------------------------|
E|--------------------------------------------------------------|
 Then do Riff 4 (ONLY x1)

Then Do Riff 5, Then Do Riff 4 (x2) then continue to Riff 6

RIFF 6
e|---------------------------------------------------------------|
B|---------------------------------------------------------------|
G|-12-12-12-9-9-9-7-7-9-9-10-10--12-12-12-9-9-9-7-7-10-10-9-9----|
D|-12-12-12-9-9-9-7-7-9-9-10-10--12-12-12-9-9-9-7-7-10-10-9-9----|x2
A|-10-10-10-7-7-7-5-5-7-7--8--8--10-10-10-7-7-7-5-5--8--8-7-7----|
E|---------------------------------------------------------------|

RIFF 7 (x2)
e|-----0-------0-------0-------0-------------------------------|
B|-----3-------0-------0-------0-------------------------------|
G|-----4-------0-------0-------0-------------------------------|
D|-4---4--4-2--2-------2-------2-------------------------------|
A|-2---2--2----2--3----3--3----3-------------------------------|
E|---0--------------1-------1----------------------------------|

e|------0-------0-------5-------5-------------------------------|
B|------4-------4-------6-------6-------------------------------|
G|------4-------4-------7-------7-------------------------------|
D|-4----4--4----4--7----7--7----7-------------------------------|
A|---2--2----2--2----5--5----5--5-------------------------------|
E|--------------------------------------------------------------|

RIFF 8 (x2)

e|-------------0-0-0-0-0-0--------------0-0-0-0-0-0-------|
B|-------------3-3-3-3-3-3--------------0-0-0-0-0-0-------|
G|-------------4-4-4-4-4-4--------------0-0-0-0-0-0-------|
D|-------------4-4-4-4-4-4--------------2-2-2-2-2-2-------|
A|-2-----------2-2-2-2-2-2--2-----------2-2-2-2-2-2-------|
E|---0-0-0-0-0----------------0-0-0-0-0-------------------|
    pm++++++++              pm++++++++

e|-------------0-0-0-0-0-0--------------0-0-0-0-0-0-------|
B|-------------0-0-0-0-0-0--------------0-0-0-0-0-0-------|
G|-------------0-0-0-0-0-0--------------0-0-0-0-0-0-------|
D|-------------2-2-2-2-2-2--------------2-2-2-2-2-2-------|
A|-3-----------3-3-3-3-3-3--3-----------3-3-3-3-3-3-------|
E|---1-1-1-1-1----------------1-1-1-1-1-------------------|
    pm++++++++              pm+++++++++
e|-------------0-0-0-0-0-0--------------0-0-0-0-0-0-------|
B|-------------4-4-4-4-4-4--------------4-4-4-4-4-4-------|
G|-------------4-4-4-4-4-4--------------4-4-4-4-4-4-------|
D|-------------4-4-4-4-4-4--------------4-4-4-4-4-4-------|
A|-2-----------2-2-2-2-2-2--2-----------2-2-2-2-2-2-------|
E|---0-0-0-0-0----------------0-0-0-0-0-------------------|
   pm+++++++++              pm+++++++++


e|--------------5-5-5-5-5-5---------------5-5-5-5-5-5-----|
B|--------------6-6-6-6-6-6---------------6-6-6-6-6-6-----|
G|--------------7-7-7-7-7-7---------------7-7-7-7-7-7-----|
D|-7------------7-7-7-7-7-7--7------------7-7-7-7-7-7-----|
A|---5-5-5-5-5--5-5-5-5-5-5----5-5-5-5-5--5-5-5-5-5-5-----|
E|--------------------------------------------------------|
    pm++++++++                pm++++++++

e|-----0----|
B|-----3----|
G|-4---4----|x3
D|-4---4----|
A|-2---2----|
E|---0------|

e|-------------0--|
B|-----------3----|
G|-4-------4------|
D|-4-----4--------|
A|-2---2----------|
E|---0------------|
 |+let+++++++ring+|

============================
9.  Hearts Alive by Mastodon
D Tuning (D G C F A D)
============================

   Intro
   4/4
||------------------|-----------------|---------3-------|---------3--------|
||o-----------------|-----------------|-----------4-----|-----------4------|
||----------0-------|---------0-------|-----0-------0---|-----0-------0----|
||------0-----0---0-|-----0-----0---0-|-0h1---1-------1-|-0h1---1-------1--|
||o-------4-----4---|-------4-----4---|-----------------|------------------|
||--2h3-------------|-2h3-------------|-----------------|------------------|

|-----------------|-----------------|---------3-------|---------3-------|
|-----------------|-----------------|-----------4-----|-----------4-----|
|---------0-------|---------0-------|-----0-------0---|-----0-------0---|
|-----0-----0---0-|-----0-----0---0-|-0h1---1-------1-|-0h1---1-------1-|
|-------4-----4---|-------4-----4---|-----------------|-----------------|
|-2h3-------------|-2h3-------------|-----------------|-----------------|

|---------8-------|---------7-------|---------8-------|---------7-------|
|-------0---0-----|-------0---0-----|-------0---0-----|-------0---0-----|
|-----5-------5---|-----5-------5---|-----5-------5---|-----5-------5---|
|---7-----------7-|---7-----------7-|---7-----------7-|---7-----------7-|
|-0---------------|-6---------------|-0---------------|-6---------------|
|-----------------|-----------------|-----------------|-----------------|

|-----------0-----|-----------------|---------2-------|---------2-------|
|-------2-4---4-2-|---------3-------|-----------2-----|-----------2-----|
|-----4-----------|-----3-----3---3-|-------------3---|-------------3---|
|---5-------------|-------3-----3---|-----4---------4-|-----4---------4-|
|-0---------------|-0h1-------------|-------4---------|-------4---------|
|-----------------|-----------------|-0h2-------------|-0h2-------------|

|-----------------|-----------------|------------------|-----------------|
|-----------------|-----------------|----------4-------|---------0-------|
|---------1-------|---------0-------|------0-----0---0-|-----3-----3---3-|
|-----2-----2---2-|-----2-----2---2-|----5---5-----5---|---2---2-----2---|
|---2---2-----2---|---3---3-----3---|------------------|-----------------|
|-0---------------|-1---------------|-/6---------------|-3---------------|

                                                        3x
|------0-----0-----|-----------------|------------------||
|----5-----5-----0-|-----------0-----|-----------0-----o||
|-/7-----7-----7---|-----4---4-----4-|-----4---4-----4--||
|------------------|---2-------------|---2--------------||
|------------------|-3-----3-----3---|-3-----3-----3---o||
|------------------|-----------------|------------------||

   Bridge I
   6/4
||------------------------------------|------------------------------------|
||o-----------------------------------|------------------------------------|
||------------------------------------|------------------------------------|
||------------------------------------|------------------------------------|
||o-4-(4)-4-4-(4)-4-4-(4)-4-(4)-4-(4)-|-4-(4)-4-4-(4)-4-4-(4)-4-(4)-4-(4)--|
||--0h=2--2-0h=2--2-0h=2--0h=2--0h=2--|-0h=3--3-0h=3--3-0h=3--0h=3--0h=3---|

|-----------------------------------|-----------------------------------|
|-----------------------------------|-----------------------------------|
|-----------------------------------|-----------------------------------|
|-----------------------------------|-----------------------------------|
|-4-(4)-4-4-(4)-4-4-(4)-4-(4)-4-(4)-|-4-(4)-4-4-(4)-4-4-(4)-4-(4)-4-(4)-|
|-0h=2--2-0h=2--2-0h=2--0h=2--0h=2--|-0h=3--3-0h=3--3-0h=3--0h=3--0h=3--|

|-----------------------------------|-----------------------------------|
|-----------------------------------|-----------------------------------|
|-----------------------------------|-----------------------------------|
|-----------------------------------|-----------------------------------|
|-7-(7)-7-7-(7)-7-7-(7)-7-(7)-7-(7)-|-7-(7)-7-7-(7)-7-7-(7)-7-(7)-7-(7)-|
|-0h=5--5-0h=5--5-0h=5--0h=5--0h=5--|-0h=6--6-0h=6--6-0h=6--0h=6--0h=6--|

|-----------------------------------|------------------------------------||
|-----------------------------------|-----------------------------------o||
|-----------------------------------|------------------------------------||
|-----------------------------------|------------------------------------||
|-7-(7)-7-7-(7)-7-7-(7)-7-(7)-7-(7)-|-7-(7)-7-7-(7)-7-7-(7)-7-(7)-7-(7)-o||
|-0h=5--5-0h=5--5-0h=5--0h=5--0h=5--|-0h=6--6-0h=6--6-0h=6--0h=6--0h=6---||

|-----------------------------------|-----------------------------------|
|-----------------------------------|-----------------------------------|
|-----------------------------------|-----------------------------------|
|-0h=4--4-0h=4--4-0h=4--0h=4--0h=4--|-0h=5--5-0h=5--5-0h=5--0h=5--0h=5--|
|-6-(6)-6-6-(6)-6-6-(6)-6-(6)-6-(6)-|-6-(6)-6-6-(6)-6-6-(6)-6-(6)-6-(6)-|
|-----------------------------------|-----------------------------------|

|------------------------------------|
|------------------------------------|
|------------------------------------|
|-0h=7--7-0h=7--7-0h=7--0h=7--0h=7---|
|-6-(6)-6-6-(6)-6-6-(6)-6-(6)-6-(6)--|
|------------------------------------|

|-----------------------------------------------|
|-----------------------------------------------|
|-----------------------------------------------|
|-----------------------------------------------|
|-14-(14)-14-14-(14)-14-14-(14)-14-(14)-14-(14)-|
|--0h=12--12--0h=12--12--0h=12---0h=12---0h=12--|

|-----------------------------------------------|
|-----------------------------------------------|
|-----------------------------------------------|
|-----------------------------------------------|
|-14-(14)-14-14-(14)-14-14-(14)-14-(14)-14-(14)-|
|--0h=13--13--0h=13--13--0h=13---0h=13---0h=13--|

|-----------------------------------------------|
|-----------------------------------------------|
|-----------------------------------------------|
|-----------------------------------------------|
|-16-(16)-16-16-(16)-16-16-(16)-16-(16)-16-(16)-|
|--0h=14--14--0h=14--14--0h=14---0h=14---0h=14--|

|-----------------------------------------------|
|-----------------------------------------------|
|-----------------------------------------------|
|-----------------------------------------------|
|-16-(16)-16-16-(16)-16-16-(16)-16-(16)-16-(16)-|
|--0h=15--15--0h=15--15--0h=15---0h=15---0h=15--|

 Chorus I
|-----0-------0---|-----1------------|-----0-------0---|-----1-------------|
|-----0-------0---|-----1------------|-----0-------0---|-----1-------------|
|-----4-------4---|-----x------------|-----4-------4---|-----x-------------|
|-2---2---2---2---|-3---3------7S=9--|-2---2---2---2---|-3---3------7S=9---|
|-2-------2-------|-3-------3--5S=7--|-2-------2-------|-3-------3--4S=6---|
|-0-------0-------|-1-------1--------|-0-------0-------|-1-------1---------|

|-----0-------0---|-----1------------|-----0-------0---|-----1-------------|
|-----0-------0---|-----1------------|-----0-------0---|-----1-------------|
|-----4-------4---|-----x------7S=9--|-----4-------4---|-----x------7S=9---|
|-2---2---2---2---|-3---3------7S=9--|-2---2---2---2---|-3---3-------------|
|-2-------2-------|-3-------3--5S=7--|-2-------2-------|-3-------3--5S=7---|
|-0-------0-------|-1-------1--------|-0-------0-------|-1-------1---------|

 Bridge II
|-----------------5-5-----|-----------------5-5-----|
|---------5---5h7-----5-4-|---------5---5h7-----5-4-|
|-----4h6---6-------------|-----4h6---6-------------|
|-------------------------|-------------------------|
|-7-6---------------------|-7-6---------------------|
|-------------------------|-------------------------|
|
|-------------------------|-------------------------|
|-------------------------|-------------------------|
|-----------------7-7-----|-----------------7-7-----|
|---------7---7h9-----7-6-|---------7---7h9-----7-6-|
|-----7s9---9-------------|-----7s9---9-------------|
|-5-4---------------------|-5-4---------------------|

                           3/4
|-----------------5-5-----|-------------|
|---------5---5h7-----5-4-|-------------|
|-----4h6---6-------------|-------------|
|-------------------------|---------5-4-|
|-7-6---------------------|-----3-2-----|
|-------------------------|-5-4---------|
|
|-------------------------|-------------|
|-------------------------|-------------|
|-----------------7-7-----|-------------|
|---------7---7h9-----7-6-|---------5-4-|
|-----7s9---9-------------|-----3-2-----|
|-5-4---------------------|-5-4---------|

 6/4
|-------------------------|--------------------------|
|-------------------------|--------------------------|
|-------------------------|-----------------7s==10---|
|-2-----------------------|-3------------------------|
|-------------------------|--------------------------|
|-------------------------|--------------------------|
|
|-------------------------|------------------------0-|
|-----0---0-------0---0---|-----0---0---0------------|
|-------------------------|-----------------7-7--9---|
|---9---9---9---9---9---9-|---9---9---9---9----------|
|-7-----------7-----------|-8------------------------|
|-------------------------|--------------------------|

|-------------------------|-------------------------------|
|-------------------------|-------------------------------|
|-9-----------------------|-10---------------(10)\--------|
|-------------------------|-------------------------------|
|-------------------------|-------------------------------|
|-------------------------|-------------------------------|
|
|-------------------------|----------------------------0--|
|-----0---0-------0---0---|------0---0---0----------------|
|-------------------------|--------------------7---7-9----|
|---9---9---9---9---9---9-|----9---9---9---9--------------|
|-7-----------7-----------|--8----------------------------|
|-------------------------|-------------------------------|

   Verse I
||--------------------------|--------------------------||
||o-------------3-----------|-------------5-----------o||
||--------4-----------4-----|-------5-----------5------||
||--2-----------------------|-3------------------------||
||o-------------------------|-------------------------o||
||--------------------------|--------------------------||
|
||--------------------------|-----------------------0--||
||o-----0---0-------0---0---|-----0---0---0-----------o||
||--------------------------|-----------------7-7-9----||
||----9---9---9---9---9---9-|---9---9---9---9----------||
||o-7-----------7-----------|-8-----------------------o||
||--------------------------|--------------------------||

||------------------------------|-------------------------------||
||o---------------15------------|---------------17-------------o||
||---------16------------16-----|--------17------------17-------||
||--14--------------------------|-15----------------------------||
||o-----------------------------|------------------------------o||
||------------------------------|-------------------------------||
|
||------------------------------|---------------------------0---||
||o------0----0--------0----0---|------0----0----0-------------o||
||------------------------------|--------------------7--7-9-----||
||-----9----9---9----9----9---9-|----9----9---9----9------------||
||o--7-------------7------------|--8---------------------------o||
||------------------------------|-------------------------------||

|-------------------------|-------------------------|
|-------------------------|-------------------------|
|-0-0-0-0-0-0-0-0-0-0-0-0-|-0-0-0-0-0-0-0-0-0-0-0-0-|
|-2-2-2-2-2-2-2-2-2-2-2-2-|-1-1-1-1-1-1-1-1-2-2-4-4-|
|-------------------------|-------------------------|
|-------------------------|-------------------------|
|
|-------------------------|-------------------------|
|-------------------------|-------------------------|
|-0-0-0-0-0-0-0-0-0-0-0-0-|-0-0-0-0-0-0-0-0-0-0-0-0-|
|-5-5-5-5-5-5-5-5-5-5-5-5-|-5-5-5-5-5-5-5-5-5-5-5-5-|
|-------------------------|-------------------------|
|-------------------------|-------------------------|

|-------------------------|-------------------------|
|-------------------------|-------------------------|
|-0-0-0-0-0-0-0-0-0-0-0-0-|-0-0-0-0-0-0-0-0-0-0-0-0-|
|-5-5-5-5-5-5-5-5-5-5-5-5-|-8-8-8-8-8-8-9-9-9-9-9-9-|
|-------------------------|-------------------------|
|-------------------------|-------------------------|
|
|-------------------------|-------------------------|
|-------------------------|-------------------------|
|-0-0-0-0-0-0-0-0-0-0-0-0-|-0-0-0-0-0-0-0-0-0-0-0-0-|
|-5-5-5-5-5-5-5-5-5-5-5-5-|-5-5-5-5-5-5-5-5-5-5-5-5-|
|-------------------------|-------------------------|
|-------------------------|-------------------------|

|------------------------------------|-------------------------------------|
|------------------------------------|-------------------------------------|
|-0--0--0--0--0--0--0--0--0--0--0--0-|--0--0--0--0--0--0--0--0--0--0--0--0-|
|-2--2--2--2--2--2--2--2--2--2--2--2-|--1--1--1--1--1--1--1--1--2--2--4--4-|
|------------------------------------|-------------------------------------|
|------------------------------------|-------------------------------------|

|------------------------------------|-------------------------------------|
|------------------------------------|-------------------------------------|
|-0--0--0--0--0--0--0--0--0--0--0--0-|--0--0--0--0--0--0--0--0--0--0--0--0-|
|14-14-14-14-14-14-14-14-14-14-14-14-|-13-13-13-13-13-13-13-13-14-14-16-16-|
|------------------------------------|-------------------------------------|
|------------------------------------|-------------------------------------|

|------------------------------------|-------------------------------------|
|------------------------------------|-------------------------------------|
|-0--0--0--0--0--0--0--0--0--0--0--0-|--0--0--0--0--0--0--0--0--0--0--0--0-|
|-5--5--5--5--5--5--5--5--5--5--5--5-|--8--8--8--8--8--8--9--9--9--9--9--9-|
|------------------------------------|-------------------------------------|
|------------------------------------|-------------------------------------|
|
|------------------------------------|-------------------------------------|
|------------------------------------|-------------------------------------|
|-0--0--0--0--0--0--0--0--0--0--0--0-|--0--0--0--0--0--0--0--0--0--0--0--0-|
|17-17-17-17-17-17-17-17-17-17-17-17-|-20-20-20-20-20-20-21-21-21-21-21-21-|
|------------------------------------|-------------------------------------|
|------------------------------------|-------------------------------------|

   Chorus II
||--------------------------|---------------------------|
||o-------------------------|---------------------------|
||--0-0-0-0-0-0-0-0-0-0-0-0-|-0-0-0-0-0-0-0-0-0-0--0--0-|
||--9-9-9-9-9-9-9-9-9-9-9-9-|-8-8-8-8-8-8-8-8-9-9-11-11-|
||o-7-7-7-7-7-7-7-7-7-7-7-7-|-6-6-6-6-6-6-6-6-7-7--9--9-|
||--------------------------|---------------------------|

|------------------------------------|-------------------------------------|
|------------------------------------|-------------------------------------|
|-0--0--0--0--0--0--0--0--0--0--0--0-|--0--0--0--0--0--0--0--0--0--0--0--0-|
|12-12-12-12-12-12-12-12-12-12-12-12-|-15-15-15-15-15-15-16-16-16-16-16-16-|
|10-10-10-10-10-10-10-10-10-10-10-10-|-13-13-13-13-13-13-14-14-14-14-14-14-|
|------------------------------------|-------------------------------------|
   Interlude I
                                                             4x
||------0---0-------0---0---|---------0----------------------||
||o---8-------8---8-------8-|----8---------8----8----8----8-o||
||--9-----9-----9-----9-----|-11---11---11---11---12---11----||
||--------------------------|--------------------------------||
||o-------------------------|-------------------------------o||
||--------------------------|--------------------------------||
|
|                                                            4x
||------0---0-------0---0---|---------0----------------------||
||o---8-------8---8-------8-|----8---------8----8----8----8-o||
||--9-----9-----9-----9-----|-11---11---11---11---12---11----||
||--------------------------|--------------------------------||
||o-------------------------|-------------------------------o||
||--------------------------|--------------------------------||

|----0---------0----0---------0-|---0-------0---0-------0-|
|---------8--------------8------|-------8-----------8-----|
|-------------------------------|-------------------------|
|-10---10---10---10---10---10---|-9---9---9---9---9---9---|
|-------------------------------|-------------------------|
|-------------------------------|-------------------------|
|
|----0---------0----0---------0-|---0-------0---0-------0-|
|---------8--------------8------|-------8-----------8-----|
|-------------------------------|-------------------------|
|-10---10---10---10---10---10---|-9---9---9---9---9---9---|
|-------------------------------|-------------------------|
|-------------------------------|-------------------------|

|---0-------0---0-------0-|---0-------0-------------|
|-------7-----------7-----|-------7-----------------|
|-------------------------|-------------------------|
|-7---7---7---7---7---7---|-7---7---7---------------|
|-------------------------|-------------------------|
|-------------------------|-------------------------|
|
|---0-------0---0-------0-|---0-------0-------------|
|-------7-----------7-----|-------7-----------------|
|-------------------------|-------------------------|
|-7---7---7---7---7---7---|-7---7---7---14--12--11--|
|-------------------------|-------------12--10---9--|
|-------------------------|-------------12--10---9--|

Chorus I

Verse I

Chorus II

Interlude I

Chorus III
|-----0-------0---|-----1------------|-----0-------0---|-----1-------------|
|-----0-------0---|-----1------------|-----0-------0---|-----1-------------|
|-----4-------4---|-----x------------|-----4-------4---|-----x-------------|
|-2---2---2---2---|-3---3------7S=9--|-2---2---2---2---|-3---3------7S=9---|
|-2-------2-------|-3-------3--5S=7--|-2-------2-------|-3-------3--4S=6---|
|-0-------0-------|-1-------1--------|-0-------0-------|-1-------1---------|

|-----0-------0---|-----1--------------|
|-----0-------0---|-----1--------------|
|-----4-------4---|-----x------11S=12--|
|-2---2---2---2---|-3---3-------x---x--|
|-2-------2-------|-3-------3---9S=10--|
|-0-------0-------|-1-------1----------|
|
|-----0-------0---|-----1--------------|
|-----0-------0---|-----1--------------|
|-----4-------4---|-----x--------------|
|-2---2---2---2---|-3---3-------7S==9--|
|-2-------2-------|-3-------3---5S==7--|
|-0-------0-------|-1-------1----------|

|-----0-------0---|-----1----------------|
|-----0-------0---|-----1----------------|
|-----4-------4---|-----x------11S=12----|
|-2---2---2---2---|-3---3-------x---x----|
|-2-------2-------|-3-------3---9S=10----|
|-0-------0-------|-1-------1------------|
|
|-----0-------0---|-----1----------------|
|-----0-------0---|-----1----------------|
|-----4-------4---|-----x-------7S==9----|
|-2---2---2---2---|-3---3-------x---x----|
|-2-------2-------|-3-------3---5S==7----|
|-0-------0-------|-1-------1------------|

|-----0-------0---|-----1--------------|
|-----0-------0---|-----1--------------|
|-----4-------4---|-----x------11S=12--|
|-2---2---2---2---|-3---3-------x---x--|
|-2-------2-------|-3-------3---9S=10--|
|-0-------0-------|-1-------1----------|
|
|-----0-------0---|-----1--------------|
|-----0-------0---|-----1--------------|
|-----4-------4---|-----x-------7S==9--|
|-2---2---2---2---|-3---3-------x---x--|
|-2-------2-------|-3-------3---5S==7--|
|-0-------0-------|-1-------1----------|

|-----0-------0---|-----1----------------|
|-----0-------0---|-----1----------------|
|-----4-------4---|-----x------11S=12----|
|-2---2---2---2---|-3---3-------x---x----|
|-2-------2-------|-3-------3---9S=10----|
|-0-------0-------|-1-------1------------|
|
|-----0-------0---|-----1----------------|
|-----0-------0---|-----1----------------|
|-----4-------4---|-----x-------7S==9----|
|-2---2---2---2---|-3---3-------x---x----|
|-2-------2-------|-3-------3---5S==7----|
|-0-------0-------|-1-------1------------|

Bridge III
|----------------5-5-----|----------------5-5-----|----------------5-5-----|
|--------5---5h7-----5-4-|--------5---5h7-----5-4-|--------5---5h7-----5-4-|
|----4h6---6-------------|----4h6---6-------------|----4h6---6-------------|
|------------------------|------------------------|------------------------|
|7-6---------------------|7-6---------------------|7-6---------------------|
|------------------------|------------------------|------------------------|

|------------------------|------------------------|------------------------|
|------------------------|------------------------|------------------------|
|----------------7-7-----|----------------7-7-----|----------------7-7-----|
|--------7---7h9-----7-6-|--------7---7h9-----7-6-|--------7---7h9-----7-6-|
|----7s9---9-------------|----7s9---9-------------|----7s9---9-------------|
|5-4---------------------|5-4---------------------|5-4---------------------|

|-------------------------|---------------------|----------------|--------|
|-------------------------|---------------------|----------------|--------|
|-------------------------|---------7-6---------|----------------|--------|
|---------5-4---------5-4-|-----5-4-----2---2---|-(2)------------|-(2)----|
|-----3-2---------3-2-----|-7-6---------2---2---|-(2)------------|-(2)----|
|-5-4---------5-4---------|-------------0---0---|-(0)------------|-(0)----|
|
|-------------------------|---------------------|----------------|--------|
|-------------------------|---------------------|----------------|--------|
|-------------------------|---------------------|----------------|--------|
|---------5-4---------5-4-|---------5-4-2---2---|-(2)------------|-(2)----|
|-----3-2---------3-2-----|-----3-2-----2---2---|-(2)------------|-(2)----|
|-5-4---------5-4---------|-5-4---------0---0---|-(0)------------|-(0)----|

 Interlude
 4/4
|--------0-----0------0-----0-----------|
|--8h=10---5h7---8h10---5h7---8h10------|
|---------------------------------------|
|----------------------------------10p0-|
|---------------------------------------|
|---------------------------------------|
|
|---------------------------------------|
|---------------------------------------|
|---------------------------------------|
|-(2)-----------------------------------|
|-(2)-----------------------------------|
|-(0)-----------------------------------|

|--------0-----0------0-----0----------|-----0-----0-----0-----0-------0-|
|--8h=10---5h7---8h10---5h7---8h10-----|-3h5---0h2---3h5---0h2---3h5-----|
|--------------------------------------|-----------------------------0---|
|----------------------------------10\-|---------------------------------|
|--------------------------------------|---------------------------------|
|--------------------------------------|---------------------------------|
|
|--------------------------------------|-----0-----0-----0-----0-------0-|
|--------------------------------------|-3h5---0h2---3h5---0h2---3h5-----|
|--------------------------------------|-----------------------------0---|
|-(2)----------------------------------|---------------------------------|
|-(2)----------------------------------|---------------------------------|
|-(0)----------------------------------|---------------------------------|

|-----0-----0-----0-----0-------0-|
|-3h5---0h2---3h5---0h2---3h5-----|
|-----------------------------0---|
|---------------------------------|
|---------------------------------|
|---------------------------------|

|-----0-----0-----0-----0---------|-----0-----0-----0-----0---------|
|-6h8---3h5---6h8---3h5---6h8-----|-6h8---3h5---6h8---3h5---6h8-----|
|-----------------------------5p0-|-----------------------------5p0-|
|---------------------------------|---------------------------------|
|---------------------------------|---------------------------------|
|---------------------------------|---------------------------------|

   4/4
||-------0-----0------0-----0-----------|
||o-8h10---5h7---8h10---5h7---8h10------|
||--------------------------------------|
||---------------------------------10p0-|
||o-------------------------------------|
||--------------------------------------|

|------0-----0------0-----0----------|-----0-----0-----0-----0-------0---|
|-8h10---5h7---8h10---5h7---8h10-----|-3h5---0h2---3h5---0h2---3h5-------|
|------------------------------------|-----------------------------0-----|
|--------------------------------10\-|-----------------------------------|
|------------------------------------|-----------------------------------|
|------------------------------------|-----------------------------------|

|-----0-----0-----0-----0-------0-|-----0-----0-----0-----0---------|
|-3h5---0h2---3h5---0h2---3h5-----|-6h8---3h5---6h8---3h5---6h8-----|
|-----------------------------0---|-----------------------------5p0-|
|---------------------------------|---------------------------------|
|---------------------------------|---------------------------------|
|---------------------------------|---------------------------------|

                                   3x
|-----0-----0-----0-----0----------||
|-6h8---3h5---6h8---3h5---6h8-----o||
|-----------------------------5p0--||
|----------------------------------||
|---------------------------------o||
|----------------------------------||

   7/8
||------3---0h3-------3---0h3---|-----3---0h3-------3---0h3---|
||o-0h1---1-----1-0h1---1-----1-|-0h1---1-----1-0h1---1-----1-|
||------------------------------|-----------------------------|
||------------------------------|-----------------------------|
||o-----------------------------|-----------------------------|
||------------------------------|-----------------------------|

 3/8     7/8                                                   3/8
|-------|---------0-----------0-----|-------0-----------0-----|---------||
|-------|-------0-----0-----0-----0-|-----0-----0-----0-----0-|--------o||
|-------|-----6-----6-----6-----6---|---6-----6-----6-----6---|---------||
|-7-5-3-|-7s9-----------9-----------|-9-----------9-----------|-7-5-3---||
|-7-5-3-|---------------------------|-------------------------|-7-5-3--o||
|-5-3-1-|---------------------------|-------------------------|-5-3-1---||

   7/8
||------3---0h3-------3---0h3---|-----3---0h3-------3---0h3---|
||o-0h1---1-----1-0h1---1-----1-|-0h1---1-----1-0h1---1-----1-|
||------------------------------|-----------------------------|
||------------------------------|-----------------------------|
||o-----------------------------|-----------------------------|
||------------------------------|-----------------------------|

|---------0-----------0-----|-------0-----------0------||
|-------0-----0-----0-----0-|-----0-----0-----0-----0-o||
|-----6-----6-----6-----6---|---6-----6-----6-----6----||
|-7s9-----------9-----------|-9-----------9------------||
|---------------------------|-------------------------o||
|---------------------------|--------------------------||

 3/8     7/8
|-------|---------0-------------0---|---------0-------------0---|
|-------|-------6-------------8-----|-------6-------------8-----|
|-------|---5-------5-----7-------5-|---5-------5-----7-------9-|
|-7-5-3-|-8---8-------8-8---8-------|-8---8-------8-8---8-------|
|-7-5-3-|---------------------------|---------------------------|
|-5-3-1-|---------------------------|---------------------------|

||-------------3-------------------5-3----|
||o-3-----5------------3-----5------------|
||-----5-----5-------5----5-----5-------5-|
||----------------5-----------------------|
||o---------------------------------------|
||----------------------------------------|
|
||-------------8------------------10-8----|
||o-8----10------------8----10------------|
||----10----10------10---10----10------10-|
||---------------10-----------------------|
||o---------------------------------------|
||----------------------------------------|

|------------3-------------------5-3----|
|-3-----5------------3-----5------------|
|----5-----5-------5----5-----5-------5-|
|---------------5-----------------------|
|---------------------------------------|
|---------------------------------------|
|
|------------8------------------10-8----|
|-8----10------------8----10------------|
|---10----10------10---10----10------10-|
|--------------10-----------------------|
|---------------------------------------|
|---------------------------------------|

  1.
|------------1--0------------3--1----|------------1--0------------3--1----|
|-------1---------------1------------|-------1---------------1------------|
|--3---------------3-----------------|--3---------------3-----------------|
|------------------------------------|------------------------------------|
|----1----1----------1----1--------3-|----1----1----------1----1--------3-|
|------------------------------------|------------------------------------|

|-----------13-12-----------15-13----|-----------13-12-----------15-13----|
|-11---13---------11---13------------|-11---13---------11---13------------|
|------------------------------------|------------------------------------|
|----8----8----------8----8-------10-|----8----8----------8----8-------10-|
|------------------------------------|------------------------------------|
|------------------------------------|------------------------------------|

  2.
 3/8     7/8
|-------|-----------------------------|-14-------------------------|
|-------|----------------14-----------|--------------14------------|
|-------|-----------------------------|----------------------------|
|-7-5-3-|-11--------------------------|----------------------------|
|-7-5-3-|-----------------------------|----------------------------|
|-5-3-1-|-----------------------------|----------------------------|
|
|-------|----------0------------0-----|--------0------------0------|
|-------|--------0-----0------0-----0-|------0-----0------0-----0--|
|-------|------6-----6------6-----6---|----6-----6------6-----6----|
|-7-5-3-|--7s9------------9-----------|--9------------9------------|
|-7-5-3-|-----------------------------|----------------------------|
|-5-3-1-|-----------------------------|----------------------------|

 3/8    7/8
|-------|-------------------------------|
|-(14)--|-----------------8-------------|
|-------|-------------------------------|
|-------|-4h5---------------------------|
|-------|-------------------------------|
|-------|-------------------------------|
|
|-------|-------3---0h3-------3---0h3---|
|-------|---0h1---1-----1-0h1---1-----1-|
|-------|-------------------------------|
|-7-5-3-|-------------------------------|
|-7-5-3-|-------------------------------|
|-5-3-1-|-------------------------------|

                               3/8
|-7b-r-b-r-b-r-----------------|---------|
|----------------8~------------|---------|
|------------------------------|---------|
|------------------------------|-7-5-3---|
|------------------------------|-7-5-3---|
|------------------------------|-5-3-1---|
|
|-----3---0h3--------3---0h3---|---------|
|-0h1---1-----1--0h1---1-----1-|---------|
|------------------------------|---------|
|------------------------------|---------|
|------------------------------|---------|
|------------------------------|---------|

   Interlude
   6/4
||--------------------------|--------------------------|
||o-------------------------|--------------------------|
||--------------------------|-------------------5-4----|
||--------------------3-2---|-------4---5-4-7-5-----7--|
||o-------2---3-2-5-3-----5-|-4-7-5---7----------------|
||--2-5-3---5---------------|--------------------------|
|
||--------------------------|--------------------------|
||o-------------------------|--------------------------|
||--------------------------|--------------------------|
||--------------------3-2---|-------------------3-2----|
||o-------2---3-2-5-3-----5-|-------2---3-2-5-3-----5--|
||--2-5-3---5---------------|-2-5-3---5----------------|

|-------------------------|------------------------------||
|-------------------------|-----------------------------o||
|-------------------------|-----------------7----10-9-7--||
|---------------5---8-7-5-|---7----9-7-10-9---10---------||
|---5---7-5-8-7---8-------|-9---10----------------------o||
|-7---8-------------------|------------------------------||
|
|-------------------------|------------------------------||
|-------------------------|-----------------------------o||
|-------------------------|------------------------------||
|---------------5---8-7-5-|-----------------5-----8-7-5--||
|---5---7-5-8-7---8-------|---5----7-5--8-7----8--------o||
|-7---8-------------------|-7----8-----------------------||

   Outro
   4/4
||-------------|-----------------|------------|------------------|
||o------------|-----------------|------------|------------------|
||-------------|-----------------|------------|------------------|
||-----9---9---|-9---6S=14-14-14-|----9---9---|-9---6S=14-14-14--|
||o----7---6---|-7---7S=15-15-15-|----7---6---|-7---7S=15-15-15--|
||--0----------|-----------------|-0----------|------------------|

|------------|-----------------|------------|------------------||
|------------|-----------------|------------|-----------------o||
|------------|-----------------|------------|------------------||
|----7---7---|-7---4S=12-12-12-|----7---7---|-7---4S=12-12-12--||
|----5---4---|-5---5S=13-13-13-|----5---4---|-5---5S=13-13-13-o||
|-0----------|-----------------|-0----------|------------------||


(Repeat Riff Above As Background)
     PM-------------------------------------------------|
||--------12----12----------|-------12----12------------|
||o-15-15----15----15-15-15-|-15-15----15----15-15-15---|
||--------------------------|---------------------------|
||--------------------------|---------------------------|
||o-------------------------|---------------------------|
||--------------------------|---------------------------|

 ------------------------------------------------------|
|-------12----12----------|-------12----12-------------|
|-15-15----15----15-15-15-|-15-15----15----15-15-15----|
|-------------------------|----------------------------|
|-------------------------|----------------------------|
|-------------------------|----------------------------|
|-------------------------|----------------------------|

|-------------0----------|-------------0----------|
|-------12------12----12-|-------12------12----12-|
|-14-14----14------14----|-14-14----14------14----|
|------------------------|------------------------|
|------------------------|------------------------|
|------------------------|------------------------|

|-------------0----------|-------------0-----------||
|-------12------12----12-|-------12------12----12-o||
|-14-14----14------14----|-14-14----14------14-----||
|------------------------|-------------------------||
|------------------------|------------------------o||
|------------------------|-------------------------||

 Guitar Solo
|-----------------------------------|
|-----------------------------------|
|-----------------------------------|
|-----------------------------------|
|-----------------------------------|
|-0h3h5-0h3h5-0h5h7-0h5h7-0h10h12-0h|

|---------------------------------------------|
|---------------------------------------------|
|---------------------------------------------|
|-------------------------0h12h14--0h14p12-0h=|
|---------0h10h12-0h10h12---------------------|
|-10h12-0-------------------------------------|

|---------------------------------------0h12p|
|-----------------------0h12h15-0h12h15------|
|-------0h12h14-0h12h14----------------------|
|-14p12--------------------------------------|
|--------------------------------------------|
|--------------------------------------------|

|-10-0h12p10-0h12p10-0h12h15--0h12p10---------|
|-------------------------------------0h12p10-|
|---------------------------------------------|
|---------------------------------------------|
|---------------------------------------------|
|---------------------------------------------|

|-0h12p10-----------------------------------|
|---------0h15p12---------------------------|
|-----------------0h14p12---------0h12h14---|
|-------------------------0h14p12---------0h|
|-------------------------------------------|
|-------------------------------------------|

|-------------------------------0h10h12--0h10h=|
|---------------0h12h15-0h12h15----------------|
|-------0h12h14--------------------------------|
|-14p12----------------------------------------|
|----------------------------------------------|
|----------------------------------------------|

|-12-0h12h15-0h12p10-0h12p10-0h12h15-0h12h15-|
|--------------------------------------------|
|--------------------------------------------|
|--------------------------------------------|
|--------------------------------------------|
|--------------------------------------------|

|-0h12h15-0h12h15-0h15h17-0h12h15--0h12p10-0-|
|--------------------------------------------|
|--------------------------------------------|
|--------------------------------------------|
|--------------------------------------------|
|--------------------------------------------|

|-0h12p10-0h12p10-0h12p10-0-17b18.5====|
|--------------------------------------|
|--------------------------------------|
|--------------------------------------|
|--------------------------------------|
|--------------------------------------|

|-17r=12h15p12p0-------------------------|
|----------------12h15p12p0----12--------|
|---------------------------15----14p12--|
|----------------------------------------|
|----------------------------------------|
|----------------------------------------|

|-12-------12-------12-------12-------12-------12-|
|-------------------------------------------------|
|----14h15----14p12----14h15----14p12----14h15----|
|-------------------------------------------------|
|-------------------------------------------------|
|-------------------------------------------------|

|-------12-------12-------12-------12-------12----|
|-------------------------------------------------|
|-14p12----14h15----14p12----14h15----14p12----14-|
|-------------------------------------------------|
|-------------------------------------------------|
|-------------------------------------------------|

|----------------------|-----------------------|
|---12~--11-12~--12-11-|-12~-12-11-12-13~------|
|-x-12~--11-12~--12-11-|-12~-12-11-12-13~------|
|-x-12~--11-12~--12-11-|-12~-12-11-12-13~------|
|----------------------|-----------------------|
|----------------------|-----------------------|

|----------------------|-----------------------|
|---12~--11-12~--12-11-|-12~-12-11-12-13~------|
|-x-12~--11-12~--12-11-|-12~-12-11-12-13~------|
|-x-12~--11-12~--12-11-|-12~-12-11-12-13~------|
|----------------------|-----------------------|
|----------------------|-----------------------|

|-17h18p17p15h17p15-------17h18p17p15h17p15-------|
|-------------------17p15-------------------17p15-|
|-------------------------------------------------|
|-------------------------------------------------|
|-------------------------------------------------|
|-------------------------------------------------|

|-17h18p17p15h17p15-------17h18p17p15h17p15-------|
|-------------------17p15-------------------17p15-|
|-------------------------------------------------|
|-------------------------------------------------|
|-------------------------------------------------|
|-------------------------------------------------|

|-17p15----17p15----17h20p17-15----15-17p15----17p15----17h20p17-15----15-|
|-------17-------17-------------17----------17-------17-------------17----|
|-------------------------------------------------------------------------|
|-------------------------------------------------------------------------|
|-------------------------------------------------------------------------|
|-------------------------------------------------------------------------|

|-17p15----17p15----17h20p17-15----15-17p15----17p15----17h20p17-15----15--|
|-------17-------17-------------17----------17-------17-------------17-----|
|--------------------------------------------------------------------------|
|--------------------------------------------------------------------------|
|--------------------------------------------------------------------------|
|--------------------------------------------------------------------------|

|--------22--------22--------|-22--------22----------22-------|
|-22b24-----22b24-----22b24--|----22b24-----22b24-------22b24-|
|----------------------------|--------------------------------|
|----------------------------|--------------------------------|
|----------------------------|--------------------------------|
|----------------------------|--------------------------------|

|-22-------22-------22-|------22-------22-------22-|-------22-------22------|
|----22b24----22b24----|22b24----22b24----22b24----|-22b24----22b24---22b24-|
|----------------------|---------------------------|------------------------|
|----------------------|---------------------------|------------------------|
|----------------------|---------------------------|------------------------|
|----------------------|---------------------------|------------------------|

|-22----------22-------22-----|
|----22b24-------22b24--------|
|-----------------------------|
|-----------------------------|
|-----------------------------|
|-----------------------------|

Outro
    PM|   PM|   PM|     PM|   PM|         PM|   PM|   PM|     PM|   PM|
|------------------|------------------|---------------|--------------------|
|------------------|------------------|---------------|--------------------|
|------------------|------------------|---------------|--------------------|
|-----9-----9------|-9-----6----14-14-|----9-----9----|-9-----6-----14-14--|
|-----7-----6------|-7-----7----15-15-|----7-----6----|-7-----7-----15-15--|
|--0-0---0-0---0-0-|--0-0---0-0-------|-0-0--0-0--0-0-|---0-0---0-0--------|

  PM|   PM|   PM|     PM|   PM|         PM|   PM|   PM|     PM|   PM|       6x
|-----------------|-------------------|-----------------|-------------------|
|-----------------|-------------------|-----------------|-------------------|
|-----------------|-------------------|-----------------|-------------------|
|-----7-----7-----|-7-----4-----12-12-|-----7-----7-----|-7-----4-----12-12-|
|-----5-----4-----|-5-----5-----13-13-|-----5-----4-----|-5-----5-----13-13-|
|-0-0---0-0---0-0-|---0-0---0-0-------|-0-0---0-0---0-0-|---0-0---0-0-------|

|------------|--------------|------------|--------*|
|------------|--------------|------------|--------*|
|------------|--------------|------------|--------*|
|----9---9---|-9---6----(6)-|-(6)--------|-(6)----*|
|----7---6---|-7---7----(7)-|-(7)--------|-(7)----*|
|-0--0---0---|-0---0----(0)-|-(0)--------|-(0)----*|

==============================
10. Joseph Merrick by Mastodon
D Tuning (D G C F A D)
==============================

Intro/Main Theme
E|---3p2---2--2-------1-1-1-1--1-------------------------------|
B|---3-----3--3-------2-2/3-2--2------3-1--------------3-------|
G|---0-----0--0-------2-2-2-2--2----1------------1---1---1-----|
D|---0-----0----------0-0-0-0----------------------0-------0---|
A|-2-----2--------0-1-----------------------1-2--------------2-|
E|--------------3-----------------1-------4--------------------|

E|----------------------------------------------------0---------------------|
B|-----3-1-------------3--------------------------0-----0-------------4-----|
G|---1-----------1---1---1------7-9-10-12\10----------------------4-----4---|
D|-----------------0-------0------------------7-----7-----7---6-----6-----6-|
A|-----------1-2-------------2--5-7-8--10\8-----8---------------6-----------|
E|-1-------4------------------------------------------------4---------------|

E|------------0-------------------------------|
B|--------0-----0--------------4--------------|
G|-------------------------4-----4------------|
D|-----7----7-----7----6-----6-----6--5-6-8-9-|
A|-7h8---8---------------6--------------------|
E|-------------------4----------------3-4-6-7-|

Before Solo
E|-2--2-2-2-2-3--3-3-3-3-2--2-2-2-2-3--3-3-3-3-0--0-0-0-2-3-3-3-3-|
B|-3--3-3-3-3-3--3-3-3-3-3--3-3-3-3-3--3-3-3-3-0--0-0-0-2-3-3-3-3-|
G|-4--4-4-4-4-4--4-4-4-4-4--4-4-4-4-4--4-4-4-4-1--1-1-1-3-4-4-4-4-|
D|-4--4-4-4-4-5--5-5-5-5-4--4-4-4-4-5--5-5-5-5-2--2-2-2-4-5-5-5-5-|
A|-2--2-2-2-2-5--5-5-5-5-2--2-2-2-2-5--5-5-5-5-2--2-2-2-4-5-5-5-5-|
E|------------3--3-3-3-3------------3--3-3-3-3-0--0-0-0-2-3-3-3-3-|

E|-1--1-1-1-1-1--1-1-1-1-1--1-1-1-1-1--1-1-1-1--0--0-0-0-2-3-3-3-3-3-|
B|-3--3-3-3-3-2--2-2-2-2-3--3-3-3-3-2--2-2-2-2--0--0-0-0-2-3-3-3-3-3-|
G|-2--2-2-2-2-2--2-2-2-2-2--2-2-2-2-2--2-2-2-2--1--1-1-1-3-4-4-4-4-4-|
D|-0--0-0-0-0-0--0-0-0-0-0--0-0-0-0-0--0-0-0-0--2--2-2-2-4-5-5-5-5-5-|
A|----------------------------------------------2--2-2-2-4-5-5-5-5-5-|
E|----------------------------------------------0--0-0-0-2-3-3-3-3-3-|

I don't know the solo backing.

Fill after solo
E|--------------------------------|
B|--------------------------------|
G|--------------------------------|
D|-------------------2----2h4-2h4-|
A|-------2-----2-3-5---3-5--------|
E|-2-3-5---3-5--------------------|
comments
We did not receive enough feedback on this tab! Please rate:
1 2 3 4 5
2 comments total.
0 reply
travislausch wrote on July 8 2013, 09:16 am

Most of this was my work, with help from a powertabs.net user named Woutjinho, adapted from our Power Tab files years ago. I was terrafirma on that site. Sad how credit doesn't remain where credit is due, huh?

At least most of it is correct...

0 reply
lovepainjohn wrote on November 25 2013, 04:18 pm

^Hey, thanks for posting them in the first place. Yeah, it's like the telephone game but what can you do?

Great tabbing and cool that you're not pissy like some I've seen.

I want to post or [tab]
guest
You may want to rate the tab now too:
select rating
Please do not post tabs as comments. Select "correction" instead!