Oops, an error
Loading. Please wait.

Pendulous Skin Tab

ver1
ver1

Intro

Whole song

Interactive

More versions @911Tabs.com
34,819 views 69 this week
6 commentsread comments
1 2 3 4 5
excellent!
x 11
Autoscroll
+/-
esc
set tempo
stop
Difficulty
intermediate
Hey! There's an official Ultimate Guitar app which is ideal
for learning songs when you're away from computer. Get the app
WARNING: You are trying to view
                                    content from Ultimate-Guitar.com
                                    in an unauthorized application,
                                    which is prohibited.

                                    Please use an official Ultimate
                                    Guitar Tabs application for iPhone,
                                    iPad or Android to access legitimate
                                    chords, guitar, bass, and drum tabs
                                    from Ultimate-Guitar.com database.

                                    Type "ultimate guitar tabs" in Apple
                                    App Store's or Android Market's
                                    search to find the application.
PENDULOUS SKIN
As recorded by Mastodon
(From the 2006 Album BLOOD MOUNTAIN)

Transcribed by Tom Wall

Words and Music by Mastodon

Gtr I (D G C F A D) - 'Acoustic'
Gtr II (D G C F A D) - 'Distortion I'
Gtr III (D G C F A D) - 'Distortion II'
Gtr IV (D G C F A D) - 'Distortion III'
Gtr V (D G C F A D) - 'Acoustic II'

   Intro
    Q=153
    Dmadd9/Eb                           Dmadd9
   5/4                   3/4           5/4                   3/4
    Gtr I
    E E E E E E E E E E   E E E E E E   E E E E E E E E E E   E E E E E E
||----------------0-----|-------------|---------------0-----|--------------||
||o---------6-------6---|---------6---|---------6-------6---|---------6---o||
||------7-----7-------7-|-----7-----7-|-----7-----7-------7-|-----7-----7--||
||----0---0-----0-------|---0---0-----|---0---0-----0-------|---0---0------||
||o-6-------------------|-6-----------|-5-------------------|-5-----------o||
||----------------------|-------------|---------------------|--------------||


  Bb    Aadd11Dm7/F E5              Amadd9
 12/8                          7/8               9/8
  E E E E E E E E E E E E  a     E  E E E E E E   E E E E E E E E E
|-----------------------------|-----------7-----|---------------7---|
|-----------------------------|-------------0---|---------0-------0-|
|-----------------------------|-------5-------5-|-----5-----5-------|
|-----0-----0-----0-----2-(2)s|=(7)-7---7-------|---7---7-----7-----|
|---5-----4-----3-----2-------|-----------------|-0-----------------|
|-6-----5-----1-----0---------|-----------------|-------------------|


                                       1.
    G                                   Amadd9
   7/8             9/8                 7/8             9/8
    E E E E E E E   E E E E E E E E E   E E E E E E E   E E E E E E E E E
||----------7-----|---------7---------|---------7-----|---------------7----||
||o-----0-----0---|-----0-----0-----0-|-----------0---|---------0-------0-o||
||----7---7-----7-|---7---7-----7-----|-----5-------5-|-----5-----5--------||
||--5-------------|-5-------------5---|---7---7-------|---7---7-----7------||
||o---------------|-------------------|-0-------------|-0-----------------o||
||----------------|-------------------|---------------|--------------------||


  2.
  Gmaj7          D6                    Gmaj7         D6
 6/8            10/8                  6/8           10/8
   E E E E E E   E E E E E E E E E E   E E E E E E   E E E E E E E E E E
|------2-----2-|-----------------0---|-----2-----2-|-----------------0----|
|----------0---|-------7-----7-----0-|---------0---|-------7-----7-----0--|
|----4---4-----|-----------4---------|---4---4-----|-----------4----------|
|-/5-----------|---0-----0-----0-----|-5-----------|---0-----0-----0------|
|--------------|-5---5---------------|-------------|-5---5----------------|
|--------------|---------------------|-------------|----------------------|


  Gmaj7/B         Cmaj9               Gmaj7/B         Cmaj9
 7/8             9/8                 7/8             9/8
  E E E E E E E   E E E E E E E E E   E E E E E E E   E E E E E E E E E
|---------------|-------------0-----|---------------|-------------0------|
|---------0-----|---------3-----3---|---------0-----|---------3-----3----|
|-----0-----0---|-----4-----------4-|-----0-----0---|-----4-----------4--|
|---4---4-----4-|---2---2---2-------|---4---4-----4-|---2---2---2--------|
|-2-------------|-3-----------------|-2-------------|-3------------------|
|---------------|-------------------|---------------|--------------------|


  Q=111           H=H                                          Q=127
  Dadd11/F#                       Fadd9/A
 6/8
  E E E S S E E   E E E S S E E     E  E E S S E E   E E E S S E +e
|-------2p0-----|-------2p0-----|----------5p0-----|-------5p0--------|
|-----3-----3---|-----3-----3---|-/(6)---6-----6---|-----6-----6-(6)--|
|---0---------0-|---0---------0-|------0---------0-|---0--------------|
|-4-------------|-4-------------|--/7--------------|-7----------------|
|---------------|---------------|------------------|------------------|
|---------------|---------------|------------------|------------------|


  Q=141      H=H                                                   Q=280
  A7/C#
 5/8               8/8
      |----5----|   |----5----| |----5----|   |----5----| |----5----|
    E E E  E E  E   E E  E E  E E E  E E  E   E E  E E  E E E  E E  E
|-----9p0---------|-9p0---------9p0---------|-9p0---------9p0---------|
|---------10------|-----10----------10------|-----10----------10------|
|------------0----|--------0-----------0----|--------0-----------0----|
|-/11----------11-|----------11----------11-|----------11----------11-|
|-----------------|-------------------------|-------------------------|
|-----------------|-------------------------|-------------------------|


  Q=20H.=H                              Q=9H=H
  |----5----| |----5----|   |----5----|
  E E  E E  E E E  E E  E   E E  E E  E Q  +Q
|-9p0---------9p0---------|-9p0-----------------|
|-----10----------10------|-----10--------------|
|--------0-----------0----|--------0------------|
|----------11----------11-|----------11---------|
|-------------------------|-------------0--(0)--|
|-------------------------|---------------------|


  Q.=118
  Bmadd11/F#
 12/8
  E +E  E +E  E E H        +E  E   Q  E Q  E E E E Q  E
|-----------------0--------(0)---|-----------0----------||
|--------------------------------|-------------0--------||
|-------------7----------------7-|------7--------7------||
|-------9-(9)---9----------------|----9----9-------9----||
|-9-(9)--------------------------|-9--------------------||
|--------------------------------|--------------------7-||
|
| Gtr II
| E +E  E +E  E E Q.   +Q.         Q  E Q  E E E E Q  E
|-----------------0----(0)-------|-----------0----------||
|--------------------------------|-------------0--------||
|-------------7------------------|------7--------7------||
|-------9-(9)---9----------------|----9----9-------9----||
|-9-(9)--------------------------|-9--------------------||
|--------------------------------|--------------------7-||


 Verse
  Em
  Gtr I
  Q.   Q.    Q  E +Q    E   +Q   E Q   E Q  E Q   E
|-----------^9--7-(7)-----|--------------7----------|
|-----------^8--8-(8)---7-|-(7)--8-7--------8-------|
|-----------^9--9-(9)-----|-------------------9-----|
|-----------^9--9-(9)-----|------------9----------9-|
|-----------^7--7-(7)-----|-------------------------|
|-0----0------------------|-------------------------|
|
| Gtr II
| Q.   Q.    Q  E +Q    E   +Q   E Q   E Q  E Q   E
|-----------^9--7-(7)-----|--------------7----------|
|-----------^8--8-(8)---7-|-(7)--8-7--------8-7-----|
|-----------^9--9-(9)-----|-------------------------|
|-----------^9--9-(9)-----|------------9----------9-|
|-----------^7--7-(7)-----|-------------------------|
|-0----0------------------|-------------------------|
|
| Gtr III
|                     >
| Q.   Q.    Q  Q     Q      Q   Q   Q   Q  Q   Q
|-----------^7--7-----7---|--7---7---7---7--7---7---|
|-----------^8--8-----8---|--8---8---8---8--8---8---|
|-----------^9--9-----9---|--9---9---9---9--9---9---|
|-----------^9--9-----9---|--9---9---9---9--9---9---|
|-----------^7--7-----7---|--7---7---7---7--7---7---|
|-0----0------------------|-------------------------|


  Bmadd11
  Q  E +E  E E Q  E Q  E   Q  E Q  E E E E Q  E
|--------------0---------|-----------0-------------|
|--------------0---------|-------------0-----------|
|----------7------7----7-|------7--------7---------|
|----9-(9)---9------9----|----9----9-------9-------|
|-9----------------------|-9------------------9----|
|------------------------|-------------------------|
|
| Q  E +E  E E Q  E Q  E   Q  E Q  E E E E Q  E
|--------------0---------|-----------0-------------|
|--------------0---------|-------------0-----------|
|----------7------7----7-|------7--------7---------|
|----9-(9)---9------9----|----9----9-------9-------|
|-9----------------------|-9------------------9----|
|------------------------|-------------------------|
|
| W                        W
|------------------------|-------------------------|
|------------------------|-------------------------|
|------------------------|-------------------------|
|------------------------|-------------------------|
|------------------------|-------------------------|
|------------------------|-------------------------|


  Em
  Q.   Q.    Q  E Q   E   +Q   E Q   E Q  E Q   E
|-----------^9--7-------|--------------7----------|
|-----------^8--8-----7-|-(7)--8-7--------8-------|
|-----------^9--9-------|-------------------9-----|
|-----------^9--9-------|------------9----------9-|
|------7----^7--7-------|-------------------------|
|-0----0----------0-----|-------------------------|
|
| Q.   Q.    Q  E Q   E   +Q   E Q   E Q  E Q   E
|-----------^9--7-------|--------------7----------|
|-----------^8--8-----7-|-(7)--8-7--------8-7-----|
|-----------^9--9-------|-------------------------|
|-----------^9--9-------|------------9----------9-|
|------7----^7--7-------|-------------------------|
|-0----0----------0-----|-------------------------|
|
|                   >
| Q.   Q.    Q  Q   Q      Q   Q   Q   Q  Q   Q
|-----------^7--7---7---|--7---7---7---7--7---7---|
|-----------^8--8---8---|--8---8---8---8--8---8---|
|-----------^9--9---9---|--9---9---9---9--9---9---|
|-----------^9--9---9---|--9---9---9---9--9---9---|
|-----------^7--7---7---|--7---7---7---7--7---7---|
|-0----0----------------|-------------------------|


  Badd11         Cmaj7                            C#m7/F#
  Q  E Q  E Q  E  Q.      +Q   E Q  E  Q   E  Q   E
|------0----0----------|-------0-----------------------|
|---------0-0----------|---------0---------------------|
|-----------8-----x----|--(x)-------9------------------|
|----9------9--9-10----|-(10)---------10---------------|
|-----------9----10----|-(10)-------------10-10\--4----|
|-7---------7-----8----|--(8)--------------8--8\--2----|
|
| Q  E Q  E Q  E  Q.      +Q   E Q  E  Q   E  Q   E
|------0---------------|-------0-----------------------|
|---------0------------|---------0---------------------|
|-----------8----------|------------9------------------|
|----9------9--9-10----|-(10)---------10---------------|
|-----------9----10----|-(10)-------------10-10\--4----|
|-7---------7-----8----|--(8)--------------8--8\--2----|
|
| W                        W
|----------------------|-------------------------------|
|----------------------|-------------------------------|
|----------------------|-------------------------------|
|----------------------|-------------------------------|
|----------------------|-------------------------------|
|----------------------|-------------------------------|


                   G                             Am
 9/8              12/8
  Q  E Q  E Q  E   E E E E E E E E E E  a  E E   E  +E  E E E E  Q.    +Q    E
|------0---------|-----------------------------|-------------------------------|
|----0----0------|-----------------0---------3-|-----------------------------8-|
|----------------|-----------0-0h2---3-(3)s4---|-------------------------------|
|--------------4-|-----0-0h2-------------------|------------5----5-----(5)-----|
|-4---------4----|---0-------------------------|--------5h7---7----------------|
|-2---------2----|-2---------------------------|-5--(5)------------------------|
|
| Q  E Q  E Q  E   E E E E E E E E E E  a  E E   E  +E  E E E E  Q.    +Q    E
|------0---------|-----------------------------|-------------------------------|
|----0----0------|-----------------0---------3-|-----------------------------8-|
|----------------|-----------0-0h2---3-(3)s4---|-------------------------------|
|--------------4-|-----0-0h2-------------------|------------5----5-----(5)-----|
|-4---------4----|---0-------------------------|--------5h7---7----------------|
|-2---------2----|-2---------------------------|-5--(5)------------------------|
|
|                                                                          >
| W                W                             H.              Q   Q     Q
|----------------|-----------------------------|-------------------------------|
|----------------|-----------------------------|----------------^8---8-----8---|
|----------------|-----------------------------|----------------^7---7-----7---|
|----------------|-----------------------------|----------------^5---5-----5---|
|----------------|-----------------------------|-------------------------------|
|----------------|-----------------------------|-5-----------------------------|


  E  a  E E E  a   E  E  E   a  E  E E  a  E E
|--------------------------------------------0---|
|---------8----------13-----------10---------0---|
|-7-(7)s9---9-(9)s12----12-(12)s9----9-(9)s7-----|
|------------------------------------------------|
|------------------------------------------------|
|------------------------------------------------|
|
| E  a  E E E  a   E  E  E   a  E  E E  a  E E
|--------------------------------------------0---|
|---------8----------13-----------10---------0---|
|-7-(7)s9---9-(9)s12----12-(12)s9----9-(9)s7-----|
|------------------------------------------------|
|------------------------------------------------|
|------------------------------------------------|
|
| Q       Q        Q     Q         Q       Q
|------------------------------------------------|
|-8-------8--------8-----8---------8-------8-----|
|-7-------7--------7-----7---------7-------7-----|
|-5-------5--------5-----5---------5-------5-----|
|------------------------------------------------|
|------------------------------------------------|


  Gmaj7
  H.       E E E  E  E E   E E E E E  a  E E E  a  E E E E
|----------2p0-----------|---------------------------------|
|--------------3p(0)-----|-----------------0---------------|
|--------------------4p0-|-2p0---0h2-(2)s4---4-(4)s2p0h2p0-|
|------------------------|-----4---------------------------|
|------------------------|---------------------------------|
|-3----------------------|---------------------------------|
|
| H.       E E E  E  E E   E E E E E  a  E E E  a  E E E E
|----------2p0-----------|---------------------------------|
|--------------3---------|-----------------0---------------|
|--------------------4p0-|-2p0---0h2-(2)s4---4-(4)s2p0h2p0-|
|------------------------|-----4---------------------------|
|------------------------|---------------------------------|
|-3----------------------|---------------------------------|
|
|                    >
| H.       Q   Q     Q     Q   Q   Q       Q       Q   Q
|---------^2---2-----2---|-2---2---2-------2-------2---2---|
|---------^3---3-----3---|-3---3---3-------3-------3---3---|
|---------^0---0-----0---|-0---0---0-------0-------0---0---|
|---------^0---0-----0---|-0---0---0-------0-------0---0---|
|------------------------|---------------------------------|
|-3----------------------|---------------------------------|


  Am
   Q.   Q  E  S  E. S  E. +E  E   Q     E Q     E Q     E Q.
|-------------5-(5)-5-(5)-(5)-5-|-------5-------5-------5--------|
|-------------5-(5)-5-(5)-(5)---|-3b5-----3b5-----3b5------------|
|-------------5h=7--5h=7--(7)---|--------------------------------|
|-------------7-(7)-7-(7)-(7)---|--------------------------------|
|-------------------------------|--------------------------------|
|-/5----5--5--------------------|--------------------------------|
|
|  Q.   Q  E  S  E. S  E. +E  E   E   E E E   E E E   E E E E E
|-------------5-(5)-5-(5)-(5)-5-|-------5-------5-------5--------|
|-------------5-(5)-5-(5)-(5)---|--------------------------------|
|-------------5h=7--5h=7--(7)---|-5h==7---5h==7---5h==7----------|
|-------------7-(7)-7-(7)-(7)---|-------------------------5h7-5--|
|-------------------------------|--------------------------------|
|-/5----5--5--------------------|--------------------------------|
|
|                          >
|  H.         Q     Q      Q      Q     Q     Q   Q     Q   Q
|------------^5-----5------5----|-5-----5-----5---5-----5---5----|
|------------^5-----5------5----|-5-----5-----5---5-----5---5----|
|------------^7-----7------7----|-7-----7-----7---7-----7---7----|
|------------^7-----7------7----|-7-----7-----7---7-----7---7----|
|------------^5-----5------5----|-5-----5-----5---5-----5---5----|
|--5----------------------------|--------------------------------|


  Gmaj7                                N.C.
  Q.   Q.    Q  E +Q    E   +H.        Q   Q   Q
|------------2--2-(2)---2-|-(2)-------------------||
|------------3--3-(3)---3-|-(3)-------------------||
|------------0--0-(0)---0-|-(0)--------7---9--11--||
|------------0--0-(0)---0-|-(0)--------x---x---x--||
|------------x--x-(x)---x-|-(x)--------5---7---9--||
|-3----3-----3--3-(3)---3-|-(3)-------------------||
|
| Q.   Q.    Q  E +Q    E   +H.        Q   Q   Q
|------------2--2-(2)---2-|-(2)-------------------||
|------------3--3-(3)---3-|-(3)-------------------||
|------------0--0-(0)---0-|-(0)--------7---9--11--||
|------------0--0-(0)---0-|-(0)--------x---x---x--||
|------------x--x-(x)---x-|-(x)--------5---7---9--||
|-3----3-----3--3-(3)---3-|-(3)-------------------||
|
|                     >
| H.         Q  Q     Q      Q   Q  Q  H.
|-----------^2--2-----2---|--2---2--2-------------||
|-----------^3--3-----3---|--3---3--3-------------||
|-----------^0--0-----0---|--0---0--0-------------||
|-----------^0--0-----0---|--0---0--0-------------||
|-------------------------|-----------------------||
|-3-----------------------|-----------------------||


 Chorus
  G6                                N.C.
  Gtr I
   Q  Q  E E Q  E Q  E    Q  E Q  E Q  Q   Q
|------------0---------|----------------------|
|----------0-0---------|-------0--------------|
|--------7------7----7-|------------7--9--10--|
|-----9-----------9----|-----9----9-x--x---x--|
|-10-------------------|-10---------5--7---8--|
|----------------------|----------------------|
|
| Gtr II
|  Q  Q  E E Q  E Q  E    Q  E Q  E Q  Q   Q
|------------0---------|----------------------|
|----------0-0---------|-------0--------------|
|--------7------7----7-|------------7--9--10--|
|-----9-----------9----|-----9----9-x--x---x--|
|-10-------------------|-10---------5--7---8--|
|----------------------|----------------------|


  Bmadd11/F#                      N.C.
  Q  Q  E E Q  E Q  E   Q  E Q  E  Q   Q   Q
|-----------0---------|-------------------------||
|---------0-----------|------0----12------------||
|-------7------7----7-|------------x--12--11----||
|----9-----------9----|----9----9--9---x---x----||
|-9-------------------|-9-------------10---9----||
|---------------------|-------------------------||
|
| Q  Q  E E Q  E Q  E   Q  E Q  E  Q   Q   Q
|-----------0---------|-------------------------||
|---------0-----------|------0----12------------||
|-------7------7----7-|------------x--12--11----||
|----9-----------9----|----9----9--9---x---x----||
|-9-------------------|-9-------------10---9----||
|---------------------|-------------------------||


 Verse
  Em
   Q.   Q.    Q  E +Q    E   +Q   E Q   E Q  E Q   E
|------------^9--7-(7)-----|--------------7----------|
|------------^8--8-(8)---7-|-(7)--8-7--------8-------|
|-/9---------^9--9-(9)-----|-------------------9-----|
|--x---------^9--9-(9)-----|------------9----------9-|
|-/7---------^7--7-(7)-----|-------------------------|
|-------0------------------|-------------------------|
|
|  Q.   Q.    Q  E  Q    E   +Q   E Q   E Q  E Q   E
|------------^9--7---------|--------------7----------|
|------------^8--8-------7-|-(7)--8-7--------8-7-----|
|-/9---------^9--9---------|-------------------------|
|--x---------^9--9---------|------------9----------9-|
|-/7---------^7--7---------|-------------------------|
|-------0-----------0------|-------------------------|
|
| Gtr III
|                      >
|  H.         Q  Q     Q      Q   Q   Q   Q  Q   Q
|------------^7--7-----7---|--7---7---7---7--7---7---|
|------------^8--8-----8---|--8---8---8---8--8---8---|
|------------^9--9-----9---|--9---9---9---9--9---9---|
|------------^9--9-----9---|--9---9---9---9--9---9---|
|------------^7--7-----7---|--7---7---7---7--7---7---|
|--------------------------|-------------------------|


  Bmadd11
  Q  E +E  E E Q  E Q  E   Q  E Q  E E E E Q  E
|--------------0---------|-----------0-------------|
|--------------0---------|-------------0-----------|
|----------7------7----7-|------7--------7---------|
|----9-(9)---9------9----|----9----9-------9-------|
|------------------------|-9------------------9----|
|-7----------------------|-------------------------|
|
| Q  E +E  E E Q  E Q  E   Q  E Q  E E E E Q  E
|--------------0---------|-----------0-------------|
|--------------0---------|-------------0-----------|
|----------7------7----7-|------7--------7---------|
|----9-(9)---9------9----|----9----9-------9-------|
|-9----------------------|-9------------------9----|
|------------------------|-------------------------|
|
| W                        W
|------------------------|-------------------------|
|------------------------|-------------------------|
|------------------------|-------------------------|
|------------------------|-------------------------|
|------------------------|-------------------------|
|------------------------|-------------------------|


  Em
  Q.   Q.    Q  E +Q    E   +Q   E Q   E Q  E Q   E
|-----------^9--7-(7)-----|--------------7----------|
|-----------^8--8-(8)---7-|-(7)--8-7--------8-------|
|-----------^9--9-(9)-----|-------------------9-----|
|-----------^9--9-(9)-----|------------9----------9-|
|------7----^7--7-(7)-----|-------------------------|
|-0----0------------------|-------------------------|
|
| Q.   Q.    Q  E  Q    E   +Q   E Q   E Q  E Q   E
|-----------^9--7---------|--------------7----------|
|-----------^8--8-------7-|-(7)--8-7--------8-------|
|-----------^9--9---------|-------------------9-----|
|-----------^9--9---------|------------9----------9-|
|------7----^7--7---------|-------------------------|
|-0----------------0------|-------------------------|
|
|                     >
| H.         Q  Q     Q      Q   Q   Q   Q  Q   Q
|-----------^7--7-----7---|--7---7---7---7--7---7---|
|-----------^8--8-----8---|--8---8---8---8--8---8---|
|-----------^9--9-----9---|--9---9---9---9--9---9---|
|-----------^9--9-----9---|--9---9---9---9--9---9---|
|-----------^7--7-----7---|--7---7---7---7--7---7---|
|-------------------------|-------------------------|


  Badd11         Cmaj7                           C#m7/F#
  Q  E Q  E Q  E  Q.      +Q   E Q  E  Q   E  Q  E
|------0---------------|-------0----------------------|
|---------0------------|---------0--------------------|
|-----------8-----x----|--(x)-------9-----------------|
|----9------9--9-10----|-(10)---------10--------------|
|-----------9----10----|-(10)-------------10-10--4----|
|-7---------7-----8----|--(8)--------------8--8--2----|
|
| Q  E Q  E Q  E  Q.      +Q   E Q  E  Q   E  Q  E
|------0---------------|-------0----------------------|
|---------0------------|---------0--------------------|
|-----------8----------|------------9-----------------|
|----9------9--9-10----|-(10)---------10--------------|
|-----------9----10----|-(10)-------------10-10--4----|
|-7---------7-----8----|--(8)--------------8--8--2----|
|
| W                        W
|----------------------|------------------------------|
|----------------------|------------------------------|
|----------------------|------------------------------|
|----------------------|------------------------------|
|----------------------|------------------------------|
|----------------------|------------------------------|


                   G                             Am
 9/8              12/8
  Q  E Q  E Q  E   E E E E E E E E E E  a  E E   E  +E  E E E E  Q.    +Q    E
|------0---------|-----------------------------|-------------------------------|
|----0----0------|-----------------0---------3-|-----------------------------8-|
|----------------|-----------0-0h2---3-(3)s4---|-------------------------------|
|--------------4-|-----0-0h2-------------------|------------5----5-----(5)-----|
|-4---------4----|---0-------------------------|--------5h7---7----------------|
|-2---------2----|-2---------------------------|-5--(5)------------------------|
|
| Q  E Q  E Q  E   E E E E E E E E E E  a  E E   E  +E  E E E E  Q.    +Q    E
|------0---------|-----------------------------|-------------------------------|
|----0----0------|-----------------0---------3-|-----------------------------8-|
|----------------|-----------0-0h2---3-(3)s4---|-------------------------------|
|--------------4-|-----0-0h2-------------------|------------5----5-----(5)-----|
|-4---------4----|---0-------------------------|--------5h7---7----------------|
|-2---------2----|-2---------------------------|-5--(5)------------------------|
|
|                                                                          >
| W                W                             H.              Q   Q     Q
|----------------|-----------------------------|-------------------------------|
|----------------|-----------------------------|----------------^8---8-----8---|
|----------------|-----------------------------|----------------^7---7-----7---|
|----------------|-----------------------------|----------------^5---5-----5---|
|----------------|-----------------------------|-------------------------------|
|----------------|-----------------------------|-5-----------------------------|


  E  a  E E E  a   E  E  E   a   E  E  E   a   E E
|------------------------------------------------0---|
|---------8----------13------------15------------0---|
|-7-(7)s9---9-(9)s12----12-(12)s14----14-(14)s16-----|
|----------------------------------------------------|
|----------------------------------------------------|
|----------------------------------------------------|
|
| E  a  E E E  a   E  E  E   a   E  E  E   a   E E
|------------------------------------------------0---|
|---------8----------13------------15------------0---|
|-7-(7)s9---9-(9)s12----12-(12)s14----14-(14)s16-----|
|----------------------------------------------------|
|----------------------------------------------------|
|----------------------------------------------------|
|
| Q       Q        Q     Q          Q          Q
|----------------------------------------------------|
|-8-------8--------8-----8----------8----------8-----|
|-7-------7--------7-----7----------7----------7-----|
|-5-------5--------5-----5----------5----------5-----|
|----------------------------------------------------|
|----------------------------------------------------|


  Gmaj7
  H.       E E E E E E   E E E E E  a  E E E  a  E E E E
|----------2p0---------|---------------------------------|
|--------------3p0-----|-----------------0---------------|
|------------------4p0-|-2p0---0h2-(2)s4---4-(4)s2p0h2p0-|
|----------------------|-----4---------------------------|
|----------------------|---------------------------------|
|-3--------------------|---------------------------------|
|
| H.       E E E E E E   E E E E E  a  E E E  a  E E E E
|----------2p0---------|---------------------------------|
|--------------3p0-----|-----------------0---------------|
|------------------4p0-|-2p0---0h2-(2)s4---4-(4)s2p0h2p0-|
|----------------------|-----4---------------------------|
|----------------------|---------------------------------|
|-3--------------------|---------------------------------|
|
|                  >
| H.       Q   Q   Q     Q   Q   Q       Q       Q   Q
|---------^2---2---2---|-2---2---2-------2-------2---2---|
|---------^3---3---3---|-3---3---3-------3-------3---3---|
|---------^0---0---0---|-0---0---0-------0-------0---0---|
|---------^0---0---0---|-0---0---0-------0-------0---0---|
|----------------------|---------------------------------|
|-3--------------------|---------------------------------|


  Am
   Q.   Q  E  S  E. S  E. +E  E   Q     E Q     E Q     E Q.
|-------------5-(5)-5-(5)-(5)-5-|-------5-------5-------5--------|
|-------------5-(5)-5-(5)-(5)---|-3b5-----3b5-----3b5------------|
|-------------5h=7--5h=7--(7)---|--------------------------------|
|-------------7-(7)-7-(7)-(7)---|--------------------------------|
|-------------------------------|--------------------------------|
|-/5----5--5--------------------|--------------------------------|
|
|  Q.   Q  E  S  E. S  E. +E  E   E   E E E   E E E   E E E E E
|-------------5-(5)-5-(5)-(5)-5-|-------5-------5-------5--------|
|-------------5-(5)-5-(5)-(5)---|--------------------------------|
|-------------5h=7--5h=7--(7)---|-5h==7---5h==7---5h==7----------|
|-------------7-(7)-7-(7)-(7)---|-------------------------5h7-5--|
|-------------------------------|--------------------------------|
|-/5----5--5--------------------|--------------------------------|
|
|                          >
|  H.         Q     Q      Q      Q     Q     Q   Q     Q   Q
|------------^5-----5------5----|-5-----5-----5---5-----5---5----|
|------------^5-----5------5----|-5-----5-----5---5-----5---5----|
|------------^7-----7------7----|-7-----7-----7---7-----7---7----|
|------------^7-----7------7----|-7-----7-----7---7-----7---7----|
|------------^5-----5------5----|-5-----5-----5---5-----5---5----|
|--5----------------------------|--------------------------------|


  Gmaj7                                   N.C.
  Q.   Q.    Q  E +Q    E   +Q   E +Q.    Q   Q   Q
|------------2--2-(2)---2-|-(2)--2-(2)---------------||
|------------3--3-(3)---3-|-(3)--3-(3)---------------||
|------------0--0-(0)---0-|-(0)--0-(0)----7---9--11--||
|------------0--0-(0)---0-|-(0)--0-(0)----x---x---x--||
|------------x--x-(x)---x-|-(x)--x-(x)----5---7---9--||
|-3----3-----3--3-(3)---3-|-(3)--3-(3)---------------||
|
| Q.   Q.    Q  E +Q    E   +H.           Q   Q   Q
|------------2--2-(2)---2-|-(2)----------------------||
|------------3--3-(3)---3-|-(3)----------------------||
|------------0--0-(0)---0-|-(0)-----------7---9--11--||
|------------0--0-(0)---0-|-(0)-----------x---x---x--||
|------------x--x-(x)---x-|-(x)-----------5---7---9--||
|-3----3-----3--3-(3)---3-|-(3)----------------------||
|
|                     >
| H.         Q  Q     Q      Q   Q     Q  H.
|-----------^2--2-----2---|--2---2-----2-------------||
|-----------^3--3-----3---|--3---3-----3-------------||
|-----------^0--0-----0---|--0---0-----0-------------||
|-----------^0--0-----0---|--0---0-----0-------------||
|-------------------------|--------------------------||
|-3-----------------------|--------------------------||


 Chorus
  G6                                N.C.
  Gtr I
   Q  Q  E E Q  E Q  E    Q  E Q  E Q  Q   Q
|------------0---------|-------0--------------|
|----------0-0---------|-------0--------------|
|--------7------7----7-|------------7--9--10--|
|-----9-----------9----|-----9----9-x--x---x--|
|-10-------------------|-10---------5--7---8--|
|----------------------|----------------------|
|
| Gtr II
|  Q  Q  E E Q  E Q  E    Q  E Q  E Q  Q   Q
|------------0---------|-------0--------------|
|----------0-0---------|-------0--------------|
|--------7------7----7-|------------7--9--10--|
|-----9-----------9----|-----9----9-x--x---x--|
|-10-------------------|-10---------5--7---8--|
|----------------------|----------------------|


  Bmadd11/F#                      N.C.
  Q  Q  E E Q  E Q  E   Q  E Q  E  Q   Q   Q
|-----------0---------|-------------------------||
|---------0-0---------|------0----12------------||
|-------7------7----7-|------------x--12--11----||
|----9-----------9----|----9----9--9---x---x----||
|-9-------------------|-9-------------10---9----||
|---------------------|-------------------------||
|
| Q  Q  E E Q  E Q  E   Q  E Q  E  Q   Q   Q
|-----------0---------|-------------------------||
|---------0-0---------|------0----12------------||
|-------7------7----7-|------------x--12--11----||
|----9-----------9----|----9----9--9---x---x----||
|-9-------------------|-9-------------10---9----||
|---------------------|-------------------------||


 Verse
  Em
   Q.   Q.    Q  E +Q    E   +Q   E Q   E Q  E Q   E
|------------^9--7-(7)-----|--------------7----------|
|------------^8--8-(8)---7-|-(7)--8-7--------8-------|
|-/9---------^9--9-(9)-----|-------------------9-----|
|--x---------^9--9-(9)-----|------------9----------9-|
|-/7---------^7--7-(7)-----|-------------------------|
|-------0------------------|-------------------------|
|
|  Q.   Q.    Q  E +Q    E   +Q   E Q   E Q  E Q   E
|------------^9--7-(7)-----|--------------7----------|
|------------^8--8-(8)---7-|-(7)--8-7--------8-7-----|
|-/9---------^9--9-(9)-----|-------------------------|
|--x---------^9--9-(9)-----|------------9----------9-|
|-/7---------^7--7-(7)-----|-------------------------|
|-------0------------------|-------------------------|
|
| Gtr III
|                      >
|  H.         Q  Q     Q      Q   Q   Q   Q  Q   Q
|------------^7--7-----7---|--7---7---7---7--7---7---|
|------------^8--8-----8---|--8---8---8---8--8---8---|
|------------^9--9-----9---|--9---9---9---9--9---9---|
|------------^9--9-----9---|--9---9---9---9--9---9---|
|------------^7--7-----7---|--7---7---7---7--7---7---|
|--------------------------|-------------------------|


  Bmadd11
  Q  E +E  E E Q  E Q  E   Q  E Q  E E E E Q  E
|--------------0---------|-----------0-------------|
|--------------0---------|-------------0-----------|
|----------7------7----7-|------7--------7---------|
|----9-(9)---9------9----|----9----9-------9-------|
|-9----------------------|-9------------------9----|
|------------------------|-------------------------|
|
| Q  E +E  E E Q  E Q  E   Q  E Q  E E E E Q  E
|--------------0---------|-----------0-------------|
|--------------0---------|-------------0-----------|
|----------7------7----7-|------7--------7---------|
|----9-(9)---9------9----|----9----9-------9-------|
|-9----------------------|-9------------------9----|
|------------------------|-------------------------|
|
| W                        W
|------------------------|-------------------------|
|------------------------|-------------------------|
|------------------------|-------------------------|
|------------------------|-------------------------|
|------------------------|-------------------------|
|------------------------|-------------------------|


  Em
  Q.   Q.    Q  E +Q     E   +Q   E Q   E Q  E Q   E
|-----------^9--7-(7)------|--------------7----------|
|-----------^8--8-(8)---^7-|-(7)--8-7--------8-------|
|-----------^9--9-(9)---^9-|-------------------9-----|
|-----------^9--9-(9)---^9-|------------9----------9-|
|------7----^7--7-(7)------|-------------------------|
|-0----0-------------------|-------------------------|
|
| Q.   Q.    Q  E +Q     E   +Q   E Q   E Q  E Q   E
|-----------^9--7-(7)------|--------------7----------|
|-----------^8--8-(8)----7-|-(7)--8-7--------8-7-----|
|-----------^9--9-(9)------|-------------------------|
|-----------^9--9-(9)------|------------9----------9-|
|------7----^7--7-(7)------|-------------------------|
|-0------------------------|-------------------------|
|
|                     >
| H.         Q  Q     Q       Q   Q   Q   Q  Q   Q
|-----------^7--7-----7----|--7---7---7---7--7---7---|
|-----------^8--8-----8----|--8---8---8---8--8---8---|
|-----------^9--9-----9----|--9---9---9---9--9---9---|
|-----------^9--9-----9----|--9---9---9---9--9---9---|
|-----------^7--7-----7----|--7---7---7---7--7---7---|
|--------------------------|-------------------------|


  Badd11         Cmaj7                           C#m7/F#
  Q  E Q  E Q  E  Q.      +Q   E Q  E  Q   E  Q  E
|------0---------------|-------0----------------------|
|---------0------------|---------0--------------------|
|-----------8-----x----|--(x)-------9-----------------|
|----9------9--9-10----|-(10)---------10--------------|
|-----------9----10----|-(10)-------------10-10--4----|
|-7---------7-----8----|--(8)--------------8--8--2----|
|
| Q  E Q  E Q  E  Q.      +Q   E Q  E  Q   E  Q  E
|------0---------------|-------0----------------------|
|---------0------------|---------0--------------------|
|-----------8----------|------------9-----------------|
|----9------9--9-10----|-(10)---------10--------------|
|-----------9----10----|-(10)-------------10-10--4----|
|-7---------7-----8----|--(8)--------------8--8--2----|
|
| W                        W
|----------------------|------------------------------|
|----------------------|------------------------------|
|----------------------|------------------------------|
|----------------------|------------------------------|
|----------------------|------------------------------|
|----------------------|------------------------------|


                   G                             Am
 9/8              12/8
  Q  E Q  E Q  E   E E E E E E E E E E  a  E E   E  +E  E E E E  Q.    +Q    E
|------0---------|-----------------------------|-------------------------------|
|----0----0------|-----------------0---------3-|-----------------------------8-|
|----------------|-----------0-0h2---3-(3)s4---|-------------------------------|
|--------------4-|-----0-0h2-------------------|------------5----5-----(5)-----|
|-4---------4----|---0-------------------------|--------5h7---7----------------|
|-2---------2----|-2---------------------------|-5--(5)------------------------|
|
| Q  E Q  E Q  E   E E E E E E E E E E  a  E E   E  +E  E E E E  Q.    +Q    E
|------0---------|-----------------------------|-------------------------------|
|----0----0------|-----------------0---------3-|-----------------------------8-|
|----------------|-----------0-0h2---3-(3)s4---|-------------------------------|
|--------------4-|-----0-0h2-------------------|------------5----5-----(5)-----|
|-4---------4----|---0-------------------------|--------5h7---7----------------|
|-2---------2----|-2---------------------------|-5--(5)------------------------|
|
| Gtr III
|                                                                          >
| W                W                             H.              Q   Q     Q
|----------------|-----------------------------|-------------------------------|
|----------------|-----------------------------|----------------^8---8-----8---|
|----------------|-----------------------------|----------------^7---7-----7---|
|----------------|-----------------------------|----------------^5---5-----5---|
|----------------|-----------------------------|-------------------------------|
|----------------|-----------------------------|-5-----------------------------|


  E  a  E E E  a   E  E  E   a  E  E E  a  E E
|--------------------------------------------0---|
|---------8----------13-----------10---------0---|
|-7-(7)s9---9-(9)s12----12-(12)s9----9-(9)s7-----|
|------------------------------------------------|
|------------------------------------------------|
|------------------------------------------------|
|
| E  a  E E E  a   E  E  E   a  E  E E  a  E E
|--------------------------------------------0---|
|---------8----------13-----------10---------0---|
|-7-(7)s9---9-(9)s12----12-(12)s9----9-(9)s7-----|
|------------------------------------------------|
|------------------------------------------------|
|------------------------------------------------|
|
| Q       Q        Q     Q         Q       Q
|------------------------------------------------|
|-8-------8--------8-----8---------8-------8-----|
|-7-------7--------7-----7---------7-------7-----|
|-5-------5--------5-----5---------5-------5-----|
|------------------------------------------------|
|------------------------------------------------|


  Gmaj7
  H.       E E E E E E   E E E E E  a  E E E  a  E E E E
|----------2p0---------|---------------------------------|
|--------------3p0-----|-----------------0---------------|
|------------------4p0-|-2p0---0h2-(2)s4---4-(4)s2p0h2p0-|
|----------------------|-----4---------------------------|
|----------------------|---------------------------------|
|-3--------------------|---------------------------------|
|
| H.       E E E E E E   E E E E E  a  E E E  a  E E E E
|----------2p0---------|---------------------------------|
|--------------3p0-----|-----------------0---------------|
|------------------4p0-|-2p0---0h2-(2)s4---4-(4)s2p0h2p0-|
|----------------------|-----4---------------------------|
|----------------------|---------------------------------|
|-3--------------------|---------------------------------|
|
|                  >
| H.       Q   Q   Q     Q   Q   Q       Q       Q   Q
|---------^2---2---2---|-2---2---2-------2-------2---2---|
|---------^3---3---3---|-3---3---3-------3-------3---3---|
|---------^0---0---0---|-0---0---0-------0-------0---0---|
|---------^0---0---0---|-0---0---0-------0-------0---0---|
|----------------------|---------------------------------|
|-3--------------------|---------------------------------|


  Am
   Q.   Q  E  S  E. S  E. +E  E   Q     E Q     E Q     E Q.
|-------------5-(5)-5-(5)-(5)-5-|-------5-------5-------5--------|
|-------------5-(5)-5-(5)-(5)---|-3b5-----3b5-----3b5------------|
|-------------5h=7--5h=7--(7)---|--------------------------------|
|-------------7-(7)-7-(7)-(7)---|--------------------------------|
|-------------------------------|--------------------------------|
|-/5----5--5--------------------|--------------------------------|
|
|  Q.   Q  E  S  E. S  E. +E  E   E   E E E   E E E   E E E E E
|-------------5-(5)-5-(5)-(5)-5-|-------5-------5-------5--------|
|-------------5-(5)-5-(5)-(5)---|--------------------------------|
|-------------5h=7--5h=7--(7)---|-5h==7---5h==7---5h==7----------|
|-------------7-(7)-7-(7)-(7)---|-------------------------5h7-5--|
|-------------------------------|--------------------------------|
|-/5----5--5--------------------|--------------------------------|
|
|                          >
|  H.         Q     Q      Q      Q     Q     Q   Q     Q   Q
|------------^5-----5------5----|-5-----5-----5---5-----5---5----|
|------------^5-----5------5----|-5-----5-----5---5-----5---5----|
|------------^7-----7------7----|-7-----7-----7---7-----7---7----|
|------------^7-----7------7----|-7-----7-----7---7-----7---7----|
|------------^5-----5------5----|-5-----5-----5---5-----5---5----|
|--5----------------------------|--------------------------------|


  Gmaj7                                     N.C.
  Q.   Q.     Q  E +Q    E   +Q   E +Q    E Q   Q   Q
|-------------2--2-(2)---2-|-(2)--2-(2)---0-------------|
|-------------3--3-(3)---3-|-(3)--3-(3)---0-------------|
|-------------0--0-(0)---0-|-(0)--0-(0)---0-4---5---7---|
|-------------0--0-(0)---0-|-(0)--0-(0)---0-5---7---9---|
|-------------x--x-(x)---x-|-(x)--x-(x)-----------------|
|-3----3------3--3-(3)---3-|-(3)--3-(3)-----------------|
|
| Q.   Q   E  Q  E +Q    E   +H.            Q   Q   Q
|-------------2--2-(2)---2-|-(2)------------------------|
|-------------3--3-(3)---3-|-(3)------------------------|
|-------------0--0-(0)---0-|-(0)------------4---5---7---|
|-------------0--0-(0)---0-|-(0)------------5---7---9---|
|-------------x--x-(x)---x-|-(x)------------------------|
|-3----3---3--3--3-(3)---3-|-(3)------------------------|
|
|                      >
| H.          Q  Q     Q      Q   Q     Q   E E E E E E
|------------^2--2-----2---|--2---2-----2---------------|
|------------^3--3-----3---|--3---3-----3---------------|
|------------^0--0-----0---|--0---0-----0---------------|
|------------^0--0-----0---|--0---0-----0-------------5-|
|--------------------------|--------------------3-5h7---|
|-3------------------------|----------------3h5---------|


 Guitar Solo
  Cmaj7/G
  Gtr III
   E.   S S S S E   +Q.         e.     Q.
|----------------------------------------------|
|----------------------------------------------|
|-------7-7-7-7-7---(7)---------9--------------|
|-/9-------------------------------------------|
|----------------------------------------------|
|----------------------------------------------|
|
| Gtrs I, II
|  H.                      Q.         +Q     E
|----------------------------------------------|
|----------------------------------------------|
|--9-----------------------9----------(9)----9-|
|-10----------------------10---------(10)---10-|
|----------------------------------------------|
|----------------------------------------------|
|
| Gtrs IV, V
|  E  E   E   E   E     E  E  E    E   E  E  E
|----------------------------------------------|
|-------------5------------5-------5------5----|
|-----5-----------5-----------5--------------5-|
|--9------9-------------9--------------9-------|
|----------------------------------------------|
|----------------------------------------------|


   Q.      S  S S S S S  S  S  S S  S S  S  S  S  S      S  S
|-------------------------------------------------------------|
|----------7--7-7-7-8-8-10-10-10-8--8-8-10-10-10-10b12==10-10-|
|-------------------------------------------------------------|
|-------------------------------------------------------------|
|-------------------------------------------------------------|
|-------------------------------------------------------------|
|
|  Q.      Q.            Q          Q          Q
|-------------------------------------------------------------|
|-------------------------------------------------------------|
|--9-------9-------------9---------10----------9--------------|
|-10------10------------10---------12---------10--------------|
|-------------------------------------------------------------|
|-------------------------------------------------------------|
|
|  E  E E  E    E   E    E     E    E    E     E         E
|-------------------------------------------------------------|
|--5-------5--------------------------------------------------|
|-----5---------5--------------7------------------------------|
|-------9-----------9----9----------9----------9--------------|
|---------------------------------------10--------------10----|
|-------------------------------------------------------------|


  G
   S  S S  S  S  S  +E.    E.     H.
|----------------------------------------------|
|-10r10-7-10-10-10-(10)---10b12----------------|
|----------------------------------------------|
|----------------------------------------------|
|----------------------------------------------|
|----------------------------------------------|
|
|  H.                             H.
|----------------------------------------------|
|----------------------------------------------|
|--7------------------------------7------------|
|--9------------------------------9------------|
|----------------------------------------------|
|----------------------------------------------|
|
|  E    E     E      E  E       E E  E E E E E
|--------------------------------------0-------|
|-------------0-----------------0--------------|
|--7-----------------7------------7--------7---|
|-------9---------------9------------9---9---9-|
|----------------------------------------------|
|----------------------------------------------|


  Q.      E   E  E  E  E  E  E  E  E
|------------------------------------|
|--------12--13----12-15-13----13-12-|
|---------------14----------14-------|
|------------------------------------|
|------------------------------------|
|------------------------------------|
|
| Q.      Q.        Q     Q     Q
|------------------------------------|
|------------------------------------|
|-7-------7---------7-----9-----7----|
|-9-------9---------9----10-----9----|
|------------------------------------|
|------------------------------------|
|
| E  E E  E   E  E  E  E  E  E  E  E
|------------------------------------|
|-------------------------0--------0-|
|----7----7---------7--------7-------|
|-9----9------9--------9--------9----|
|---------------10-------------------|
|------------------------------------|


                                     Am
   S  S  S  S S S  S   S  S  S  S  S  S   S  S  S  S  S  S  S  S  S  S  S
|-------------------------------------------------------------------------|
|-12h13p12----------------------------------------------------------------|
|----------14-x-x-12-----14----12h14p12h=14p12h14p12h14p12h14p12h14p12h14p|
|---------------------14----14--------------------------------------------|
|-------------------------------------------------------------------------|
|-------------------------------------------------------------------------|
|
|  Q          E   +Q            E     Q            H
|-------------------------------------------------------------------------|
|-------------------------------------------------------------------------|
|-------------7---(7)-----------7-----7\-----------5----------------------|
|-/9----------9---(9)-----------------9\-----------7----------------------|
|-------------------------------------------------------------------------|
|-------------------------------------------------------------------------|
|
|  E     E    E    E      E     E     E      E     E     E     E     E
|-------------------------0-----------------------------------------------|
|--------0----------------------0------------0----------------------------|
|-------------7------------------------------------5-----------5----------|
|--9---------------9------------------7------------------7-----------7----|
|-------------------------------------------------------------------------|
|-------------------------------------------------------------------------|


   S  S  S  S  S  S  S  S  S  S  S S  S.  S.  S.    S.  +E.  E.
|-------------------------------------------------------------------|
|-------------------------------------------------------------------|
|-12h14p12h14p12-14p12h14p12----14-x--------------------------------|
|----------------------------14------14--12-----------------10------|
|--------------------------------------------12----12--(12)---------|
|-------------------------------------------------------------------|
|
|  H.                                 Q          E       Q      E
|-------------------------------------------------------------------|
|-------------------------------------------------------------------|
|--5---------------------------------/7----------5-------4------5---|
|--7---------------------------------/9----------7-------5------7---|
|-------------------------------------------------------------------|
|-------------------------------------------------------------------|
|
|  E     E     E     E     E     E    Q          E       Q      E
|--------------------0----------------------------------------------|
|--0-----------------------0----------------------------------------|
|--------5-----------------------0---/5----------4-------2------5---|
|--------------7---------------------/7----------5-------4------7---|
|-------------------------------------------------------------------|
|-------------------------------------------------------------------|


  G6
   Q.      +Q     a  E  Q.      +E.    S.    S.
|-----------------------------------------------|
|-----------------------------------------------|
|-----------------------------------------------|
|-12------(12)---12h14-12------(12)---12----14--|
|-----------------------------------------------|
|-----------------------------------------------|
|
|  H.                   H.
|-----------------------------------------------|
|-----------------------------------------------|
|--4--------------------4-----------------------|
|--5--------------------5-----------------------|
|-----------------------------------------------|
|-----------------------------------------------|
|
|  E  E E   E  E     E  E  E E   E  E     E
|--------------------------------0--------------|
|-------0------0-------------0------0-----------|
|-----4-----4--------4-----4--------------4-----|
|--5--------------------5-----------------------|
|-----------------------------------------------|
|-----------------------------------------------|


          ~~~~~~~~~~~~~~~~~~
   Q.     H.            +E.   +E.
|------------------------------------|
|------------------------------------|
|------------------------------------|
|-\7------7b8-----------(7)---(7)\---|
|------------------------------------|
|------------------------------------|
|
| +H.             Q   Q     Q
|------------------------------------|
|------------------------------------|
|-(4)-------------4---5-----7--------|
|-(5)-------------5---7-----9--------|
|------------------------------------|
|------------------------------------|
|
|  E  E E E   E E E E E  E  E      E
|------------------------------------|
|-------0-----0-------0------------0-|
|-----4---4-----4---4-------4--------|
|--5--------------5------5-----------|
|------------------------------------|
|------------------------------------|


  Cmaj7/G
   E.  E.   +E.   E   E     E.   +e    E  S +E.
|--------------------------------------------------|
|--------------------------------------------------|
|--------------------------------------------------|
|-----------------5---4-----5----(5)---5s=7-(7)----|
|--5s==7----(7)------------------------------------|
|--------------------------------------------------|
|
|  H.                    Q.           +Q         E
|--------------------------------------------------|
|--------------------------------------------------|
|--9---------------------9------------(9)--------9-|
|-10--------------------10-----------(10)-------10-|
|--------------------------------------------------|
|--------------------------------------------------|
|
|  E E    E  E  E   E    E     E  E    E  E      E
|--------------------------------------------------|
|------------5-----------5--------5-------5--------|
|----5----------5--------------5-----------------5-|
|--9------9---------9------------------9-----------|
|--------------------------------------------------|
|--------------------------------------------------|


  +S. S.   S.   S.  S. e   e   e    S.   S.    S.  S. S.    S.    S.
|----------------------------------------------------------------------|
|-----------------------------------------------------------8----------|
|----------------------4-------4----7----5-----4---7--9-----------9----|
|-(7)-7----5----4---5------7-------------------------------------------|
|----------------------------------------------------------------------|
|----------------------------------------------------------------------|
|
|  Q.               Q.            Q          Q            Q
|----------------------------------------------------------------------|
|----------------------------------------------------------------------|
|--9----------------9-------------9---------10------------9------------|
|-10---------------10------------10---------12-----------10------------|
|----------------------------------------------------------------------|
|----------------------------------------------------------------------|
|
|  E     E    E     E    E   E    E    E     E     E      E     E
|----------------------------------------------------------------------|
|--5----------------5--------------------------------------------------|
|--------5---------------5-------------7-------------------------------|
|-------------9--------------9----9----------9------------9------------|
|-------------------------------------------------10-----------10------|
|----------------------------------------------------------------------|


  G
  E E E  E E  E E E E  a   E E E    E  E E E  E  E E E  E E E E
|---------------7h8-8-(8)s10-----|-10----7---------8------------|
|-8p7-8-10-8-10--------------8-7-|-----8---8--7------8----8-7---|
|--------------------------------|---------------9------9-----9-|
|--------------------------------|------------------------------|
|--------------------------------|------------------------------|
|--------------------------------|------------------------------|
|
| H.            H.                  Q.     Q.      Q    Q   Q
|--------------------------------|------------------------------|
|--------------------------------|------------------------------|
|-7-------------7----------------|--7------7-------7----9---7---|
|-9-------------9----------------|--9------9-------9---10---9---|
|--------------------------------|------------------------------|
|--------------------------------|------------------------------|
|
| E E E  E E  E E E E      E E E    E  E E E  E  E E E  E E E E
|-------------------0------------|------------------------------|
|-----0-------0------------------|----------------------0-----0-|
|-7------7------7------------7---|-----7---7-------7------7-----|
|---9------9------9--------9---9-|--9----9----9------9------9---|
|--------------------------------|--------------10--------------|
|--------------------------------|------------------------------|


                              Am
                           ~~~~~~~~~~~~~~~~~~
   S S S  S e  E   E      +E   +Q.      +E    E E
|-------------------------------------------------|
|-------------------------------------------------|
|--7-9-7------------------------------------------|
|--------10-9-10--10b12==(10)-(10)-----(10)r-10-9-|
|-------------------------------------------------|
|-------------------------------------------------|
|
|  Q        E +Q           E    Q    H
|-------------------------------------------------|
|-------------------------------------------------|
|-----------7-(7)----------7----7\---5------------|
|-/9--------9-(9)---------------9\---7------------|
|-------------------------------------------------|
|-------------------------------------------------|
|
|  E   E    E  E   E       E    E  E E   E    E E
|------------------0------------------------------|
|------0-------------------0-------0--------------|
|-----------7------------------------5--------5---|
|--9-----------9----------------7--------7------7-|
|-------------------------------------------------|
|-------------------------------------------------|


           ~~~~~~~~
   E   E  +E   +Q    E  E E E E E E
|-----------------------------------|
|-----------------------------------|
|-----------------------------------|
|-10--10-(10)-(10)---9-10-9-7-9-7-5-|
|-----------------------------------|
|-----------------------------------|
|
|  H.                   Q   E Q   E
|-----------------------------------|
|-----------------------------------|
|--5-------------------/7---5-4---5-|
|--7-------------------/9---7-5---7-|
|-----------------------------------|
|-----------------------------------|
|
|  E   E   E    E  E E  Q   E Q   E
|---------------0-------------------|
|--0---------------0----------------|
|------5-------------0-/5---4-2---5-|
|----------7-----------/7---5-4---7-|
|-----------------------------------|
|-----------------------------------|


  G6
  TP     TP     TP     TP        TP     TP     TP  TP  TP
  Q.     Q.     Q.     Q.        Q.     Q.     Q   Q   Q
|-----------------------------|----------------------------|
|-----------------------------|----------------------------|
|-----------------------------|----------------------------|
|-7------5------4-------------|----------------------------|
|----------------------7------|--5------3------3-----------|
|-----------------------------|--------------------7---5---|
|
| H.            H.              +H.            Q   Q   Q
|-----------------------------|----------------------------|
|-----------------------------|----------------------------|
|-4-------------4-------------|-(4)------------4---5---7---|
|-5-------------5-------------|-(5)------------5---7---9---|
|-----------------------------|----------------------------|
|-----------------------------|----------------------------|
|
| E  E E E  E E E  E E E  E E    E  E E E  E E E E E E E E
|----------------------0------|----------------------------|
|------0----0--------0----0---|-------0----0-------0-----0-|
|----4---4----4----4--------4-|-----4---4----4---4-----4---|
|-5-------------5-------------|--5-------------5-----5-----|
|-----------------------------|----------------------------|
|-----------------------------|----------------------------|


  Cmaj7/G
   TP      TP          TP~
   Q.     +E.   S S S  H.
|---------------------------------------|
|---------------------------------------|
|---------------------------------------|
|---------------------------------------|
|---------------------------------------|
|--7------(7)---7h8p5h=7----------------|
|
|  H.                  Q.      +Q     E
|---------------------------------------|
|---------------------------------------|
|--9-------------------9-------(9)----9-|
|-10------------------10------(10)---10-|
|---------------------------------------|
|---------------------------------------|
|
|  E  E E  E  E   E    E  E E   E  E  E
|---------------------------------------|
|----------5-----------5----5------5----|
|-----5-------5-----------5-----------5-|
|--9----9---------9-------------9-------|
|---------------------------------------|
|---------------------------------------|


   TP      TP        TP       TP
   Q.     +Q    S S  Q.      +E   E  E
|---------------------------------------|
|---------------------------------------|
|---------------------------------------|
|---------------------------------------|
|---------------------------------------|
|--7------(7)---8-5--7-------(7)--5--3--|
|
|  Q.      Q.        Q     Q      Q
|---------------------------------------|
|---------------------------------------|
|--9-------9---------9----10------9-----|
|-10------10--------10----12-----10-----|
|---------------------------------------|
|---------------------------------------|
|
|  E  E E  E  E E    E  E  E  E   E  E
|---------------------------------------|
|--5-------5----------------------------|
|-----5-------5---------7---------------|
|-------9-------9----9-----9------9-----|
|----------------------------10-----10--|
|---------------------------------------|


  G
                      ~~~~~~~~~~~~~~~~~~~~~
  Q    E   +Q    E   +H.               +Q.     E E  E E E  E E  E E
|------------------------------------|------------------------------|
|------------------------------------|------------------------------|
|------------------------------------|------------------------------|
|------------------------------------|---------------------5------5-|
|------------------------------------|--------------3h5------5-/7---|
|-5----5b7-(5)---5b7-(5)b7-----------|-(5)-----3h5------0-----------|
|
| H.                  H.                Q.     Q.     Q    Q    Q
|------------------------------------|------------------------------|
|------------------------------------|------------------------------|
|-7-------------------7--------------|--7------7------7----9----7---|
|-9-------------------9--------------|--9------9------9---10----9---|
|------------------------------------|------------------------------|
|------------------------------------|------------------------------|
|
| E  E E    E  E E    E    E E E E E    E  E E E E  E E E  E E  E E
|----------------------------0-------|------------------------------|
|------0---------0-------------------|---------------------0------0-|
|-7---------7---------7----------7---|-----7---7------7------7------|
|----9---------9-----------9---9---9-|--9----9---9------9-------9---|
|------------------------------------|-------------10---------------|
|------------------------------------|------------------------------|


                             Am
   E.   S S  S S +E    +Q.        e.   Q.
|---------------------------------------------|
|---------------------------------------------|
|-------7-7--7-7-(7)---(7)--------9-----------|
|-/9------------------------------------------|
|---------------------------------------------|
|---------------------------------------------|
|
|  Q      Q.               E Q       H
|---------------------------------------------|
|---------------------------------------------|
|---------7----------------7-7\------5--------|
|-/9------9------------------9\------7--------|
|---------------------------------------------|
|---------------------------------------------|
|
|  E  E   E    E     E     E E  E    E E  E E
|--------------------0------------------------|
|-----0--------------------0----0-------------|
|---------7--------------------------5----5---|
|--9-----------9-------------7---------7----7-|
|---------------------------------------------|
|---------------------------------------------|


  Q.     S  S  S S  S S  S S  S S  S  S  S  S  S  S  S  S
|---------------------------------------------------------|
|---------------------------------------------10-------10-|
|--------------------------9------11-12-11-12----12-11----|
|--------9-------9h10-9h10---12-9-------------------------|
|----------12-10------------------------------------------|
|---------------------------------------------------------|
|
| H.                     Q         E     Q           E
|---------------------------------------------------------|
|---------------------------------------------------------|
|-5---------------------/7---------5-----4-----------5----|
|-7---------------------/9---------7-----5-----------7----|
|---------------------------------------------------------|
|---------------------------------------------------------|
|
| E  E E E     E    E    Q         E     Q           E
|--------0------------------------------------------------|
|-0------------0------------------------------------------|
|----5--------------0---/5---------4-----2-----------5----|
|------7----------------/7---------5-----4-----------7----|
|---------------------------------------------------------|
|---------------------------------------------------------|


  G6
   S   S  S  S  S  S  S  S  S  S S  S  S  S  S  S  S  S S  S  S  S  S  S
|-----------------------12----12-x-15p14p12----17----17-x-20p19p17----17-|
|-----10-12-15-13-12-15----15---------------20----20---------------20----|
|-12---------------------------------------------------------------------|
|------------------------------------------------------------------------|
|------------------------------------------------------------------------|
|------------------------------------------------------------------------|
|
|  H.                                  H.
|------------------------------------------------------------------------|
|------------------------------------------------------------------------|
|--4-----------------------------------4---------------------------------|
|--5-----------------------------------5---------------------------------|
|------------------------------------------------------------------------|
|------------------------------------------------------------------------|
|
|  E      E     E     E     E    E     E     E     E    E     E     E
|-------------------------------------------------------0----------------|
|---------------0-----------0----------------------0----------0----------|
|---------4-----------4----------4-----------4----------------------4----|
|--5-----------------------------------5---------------------------------|
|------------------------------------------------------------------------|
|------------------------------------------------------------------------|


   S   S  S  S  S  S  S  S  S  S  S  S  S  S  S  S  S  S  S  S  S  S  S     S
|-----17-20p19p17----17----17-20p19p17----17----17----20----17----17-------17--|
|-17--------------20----17-------------20----17----17----20----17----20b22-----|
|------------------------------------------------------------------------------|
|------------------------------------------------------------------------------|
|------------------------------------------------------------------------------|
|------------------------------------------------------------------------------|
|
| +H.                                   Q           Q           Q
|------------------------------------------------------------------------------|
|------------------------------------------------------------------------------|
|-(4)-----------------------------------4-----------5-----------7--------------|
|-(5)-----------------------------------5-----------7-----------9--------------|
|------------------------------------------------------------------------------|
|------------------------------------------------------------------------------|
|
|  E      E     E     E     E     E     E     E     E     E     E     E
|------------------------------------------------------------------------------|
|---------------0-----------0-----------------------0-----------------0--------|
|---------4-----------4-----------4-----------4-----------------4--------------|
|--5------------------------------------5-----------------5--------------------|
|------------------------------------------------------------------------------|
|------------------------------------------------------------------------------|


  Cmaj7/G
                                                                            ~~~~~~~~~
   S.    S.    S.      S.  S.    S.    S.      S.  S.    S.    S.      S.   Q.
|-------17------------17--------17------------17--------17------------17------------|
|-20b22-------20b22-------20b22-------20b22-------20b22-------20b22--------20-------|
|-----------------------------------------------------------------------------------|
|-----------------------------------------------------------------------------------|
|-----------------------------------------------------------------------------------|
|-----------------------------------------------------------------------------------|
|
|  H.                                              Q.                      +Q     E
|-----------------------------------------------------------------------------------|
|-----------------------------------------------------------------------------------|
|--9-----------------------------------------------9-----------------------(9)----9-|
|-10----------------------------------------------10----------------------(10)---10-|
|-----------------------------------------------------------------------------------|
|-----------------------------------------------------------------------------------|
|
|  E        E       E      E        E       E      E        E       E       E  E  E
|-----------------------------------------------------------------------------------|
|--------------------------5-----------------------5----------------5----------5----|
|-----------5-----------------------5-----------------------5---------------------5-|
|--9----------------9-----------------------9-------------------------------9-------|
|-----------------------------------------------------------------------------------|
|-----------------------------------------------------------------------------------|


    >
 ~~~~~~
   +H.              H.
|-------------------------------------|
|-(20)--------------------------------|
|-------------------------------------|
|-------------------------------------|
|-------------------------------------|
|-------------------------------------|
|
|   Q.      Q.      Q     Q     Q
|-------------------------------------|
|-------------------------------------|
|---9-------9-------9----10-----9-----|
|--10------10------10----12----10-----|
|-------------------------------------|
|-------------------------------------|
|
|   E  E E  E  E E  E  E  E  E  E  E
|-------------------------------------|
|---5-------5-------------------------|
|------5-------5-------7--------------|
|--------9-------9--9-----9-----9-----|
|---------------------------10----10--|
|-------------------------------------|


  G
   ~~~~~
                   |---------5---------|
   H.              S.  S.    S.  S.    S.  S.  S.    S.    S.
|-----------------12------------------------------------------|
|-15b17---------------15----13--12----13--12--10----12----10--|
|-------------------------------------------------------------|
|-------------------------------------------------------------|
|-------------------------------------------------------------|
|-------------------------------------------------------------|
|
|  H.              H.
|-------------------------------------------------------------|
|-------------------------------------------------------------|
|--7---------------7------------------------------------------|
|--9---------------9------------------------------------------|
|-------------------------------------------------------------|
|-------------------------------------------------------------|
|
|  E    E E E E E  E      E         E      E      E     E
|-----------------------------------0-------------------------|
|---------0-----0---------------------------------------------|
|--7--------7------7------------------------------7-----------|
|-------9-----9-----------9----------------9------------9-----|
|-------------------------------------------------------------|
|-------------------------------------------------------------|


                |---------5----------|     |---------5---------|
   S. S.   S.   S. S.     a  S.   S. S.    S. S.   S.   S.  a  S.    Q     +S.  E
|-----------------------------------------------------------------------------------|
|---------------8----------------------------------------------------8-----(8)-10---|
|-12--9----9-------9-----(9)s7----5--------5-------5----7--(7)s9--------------------|
|------------------------------------7--------7-------------------------------------|
|-----------------------------------------------------------------------------------|
|-----------------------------------------------------------------------------------|
|
|  Q.                 Q.                         Q                 Q     Q
|-----------------------------------------------------------------------------------|
|-----------------------------------------------------------------------------------|
|--7------------------7--------------------------7-----------------9-----7----------|
|--9------------------9--------------------------9----------------10-----9----------|
|-----------------------------------------------------------------------------------|
|-----------------------------------------------------------------------------------|
|
|  E     E    E       E         E        E       E    E            E   E E      E
|-----------------------------------------------------------------------------------|
|------------------------------------------------------------------0------------0---|
|--------7------------7--------------------------7---------------------7------------|
|--9----------9-----------------9---------------------9------------------9----------|
|---------------------------------------10------------------------------------------|
|-----------------------------------------------------------------------------------|


                      Amadd9
   Q.       +E   E  E  Q.      +E   E  E
|----------------------------------------|
|-10-------(10)-12-13-12------(12)-13-12-|
|----------------------------------------|
|----------------------------------------|
|----------------------------------------|
|----------------------------------------|
|
|  Q    Q.          E  Q    H
|----------------------------------------|
|----------------------------------------|
|-------7-----------7--7\---5------------|
|-/9----9--------------9\---7------------|
|----------------------------------------|
|----------------------------------------|
|
|  E  E E    E   E  E  E  E E   E   E  E
|----------------0-----------------------|
|-----0-------------0-----0--------------|
|-------7-------------------5-------5----|
|--9---------9---------7--------7------7-|
|----------------------------------------|
|----------------------------------------|


   E   E  E  E  E  E  E      +E    E   +E   +E    E
|---------------------------------15--(15)-(15)---------|
|---------------------------------15--(15)-(15)---------|
|-14--16-14-12-14-12-14b16==(14)-(14)-(14)-(14)r-14b16==|
|-------------------------------------------------------|
|-------------------------------------------------------|
|-------------------------------------------------------|
|
|  H.                 Q            E    Q         E
|-------------------------------------------------------|
|-------------------------------------------------------|
|--5-----------------/7------------5----4---------5-----|
|--7-----------------/9------------7----5---------7-----|
|-------------------------------------------------------|
|-------------------------------------------------------|
|
|  E   E  E  E  E  E  Q            E    Q         E
|------------0------------------------------------------|
|--0------------0---------------------------------------|
|------5-----------0-/5------------4----2---------5-----|
|---------7----------/7------------5----4---------7-----|
|-------------------------------------------------------|
|-------------------------------------------------------|


  G6
   +Q.      +E   +E    E  E    a   E  E  E.    S  E
|---------------------15----------------------------|
|---------------------------------------------------|
|-(14)-----(14)-(14)r----16--(16)s14-12-12----12h14-|
|---------------------------------------------------|
|---------------------------------------------------|
|---------------------------------------------------|
|
|   H.                    H.
|---------------------------------------------------|
|---------------------------------------------------|
|---4---------------------4-------------------------|
|---5---------------------5-------------------------|
|---------------------------------------------------|
|---------------------------------------------------|
|
|   E  E E   E    E    E  E        E  E  E  E     E
|----------------------------------------0----------|
|--------0--------0-------------------0-----0-------|
|------4-----4---------4-----------4--------------4-|
|---5---------------------5-------------------------|
|---------------------------------------------------|
|---------------------------------------------------|


   Q     +W                  Q
|--------------------------------||
|--------------------------------||
|-12----(12)\--------------------||
|--------------------------------||
|--------------------------------||
|--------------------------------||
|
| +H.               Q   Q    Q
|--------------------------------||
|--------------------------------||
|-(4)---------------7---9---11---||
|-(5)---------------x---x----x---||
|-------------------5---7----9---||
|--------------------------------||
|
|  E  E   E   E E E E E E E  E E
|--------------------------------||
|---------0-----0-------0------0-||
|-----4-------4---4---4------4---||
|--5----------------5-----5------||
|--------------------------------||
|--------------------------------||


 Chorus
  G6                                N.C.
  Gtr I
   Q  Q  E E Q  E Q  E    Q  E Q  E Q  Q   Q
|------------0---------|----------------------|
|----------0-----------|-------0--------------|
|--------7------7----7-|------------7--9--10--|
|-----9-----------9----|-----9----9-x--x---x--|
|-10-------------------|-10---------5--7---8--|
|----------------------|----------------------|
|
| Gtr II
|  Q  Q  E E Q  E Q  E    Q  E Q  E Q  Q   Q
|------------0---------|----------------------|
|----------0-----------|-------0--------------|
|--------7------7----7-|------------7--9--10--|
|-----9-----------9----|-----9----9-x--x---x--|
|-10-------------------|-10---------5--7---8--|
|----------------------|----------------------|


  Bmadd11/F#                      N.C.
  Q  Q  E E Q  E Q  E   Q  E Q  E  Q   Q   Q
|-----------0---------|-------------------------||
|---------0-----------|------0----12------------||
|-------7------7----7-|------------x--12--11----||
|----9-----------9----|----9----9--9---x---x----||
|-9-------------------|-9-------------10---9----||
|---------------------|-------------------------||
|
| Q  Q  E E Q  E Q  E   Q  E Q  E  Q   Q   Q
|-----------0---------|-------------------------||
|---------0-----------|------0----12------------||
|-------7------7----7-|------------x--12--11----||
|----9-----------9----|----9----9--9---x---x----||
|-9-------------------|-9-------------10---9----||
|---------------------|-------------------------||


 Verse
  Em
   Q.   Q.    Q  E +Q    E   +Q   E Q   E Q  E Q   E
|------------^9--7-(7)-----|--------------7----------|
|------------^8--8-(8)---7-|-(7)--8-7--------8-------|
|-/9---------^9--9-(9)-----|-------------------9-----|
|--x---------^9--9-(9)-----|------------9----------9-|
|-/7---------^7--7-(7)-----|-------------------------|
|-------0------------------|-------------------------|
|
|  Q.   Q.    Q  E +Q    E   +Q   E Q   E Q  E Q   E
|------------^9--7-(7)-----|--------------7----------|
|------------^8--8-(8)---7-|-(7)--8-7--------8-7-----|
|-/9---------^9--9-(9)-----|-------------------------|
|--x---------^9--9-(9)-----|------------9----------9-|
|-/7---------^7--7-(7)-----|-------------------------|
|-------0------------------|-------------------------|
|
| Gtr III
|                      >
|  H.         Q  Q     Q      Q   Q   Q   Q  Q   Q
|------------^7--7-----7---|--7---7---7---7--7---7---|
|------------^8--8-----8---|--8---8---8---8--8---8---|
|------------^9--9-----9---|--9---9---9---9--9---9---|
|------------^9--9-----9---|--9---9---9---9--9---9---|
|------------^7--7-----7---|--7---7---7---7--7---7---|
|--------------------------|-------------------------|


  Bmadd11
  Q  E +E  E E Q  E Q  E   Q  E Q  E E E E Q  E
|--------------0---------|-----------0-------------|
|--------------0---------|-----------0-0-----------|
|----------7------7----7-|------7--------7---------|
|----9-(9)---9------9----|----9----9-------9-------|
|-9----------------------|-9------------------9----|
|------------------------|-------------------------|
|
| Q  E +E  E E Q  E Q  E   Q  E Q  E E E E Q  E
|--------------0---------|-----------0-------------|
|--------------0---------|-------------0-----------|
|----------7------7----7-|------7--------7---------|
|----9-(9)---9------9----|----9----9-------9-------|
|-9----------------------|-9------------------9----|
|------------------------|-------------------------|
|
| W                        W
|------------------------|-------------------------|
|------------------------|-------------------------|
|------------------------|-------------------------|
|------------------------|-------------------------|
|------------------------|-------------------------|
|------------------------|-------------------------|


  Em
  Q.   Q.    Q  E +Q    E   +Q   E Q   E Q  E Q   E
|-----------^9--7-(7)-----|--------------7----------|
|-----------^8--8-(8)---7-|-(7)--8-7--------8-------|
|-----------^9--9-(9)-----|-------------------9-----|
|-----------^9--9-(9)-----|------------9----------9-|
|------7----^7--7-(7)-----|-------------------------|
|-0----0------------------|-------------------------|
|
| Q.   Q.    Q  E +Q    E   +Q   E Q   E Q  E Q   E
|-----------^9--7-(7)-----|--------------7----------|
|-----------^8--8-(8)---7-|-(7)--8-7--------8-7-----|
|-----------^9--9-(9)-----|-------------------------|
|-----------^9--9-(9)-----|------------9----------9-|
|------7----^7--7-(7)-----|-------------------------|
|-0----0------------------|-------------------------|
|
|                     >
| H.         Q  Q     Q      Q   Q   Q   Q  Q   Q
|-----------^7--7-----7---|--7---7---7---7--7---7---|
|-----------^8--8-----8---|--8---8---8---8--8---8---|
|-----------^9--9-----9---|--9---9---9---9--9---9---|
|-----------^9--9-----9---|--9---9---9---9--9---9---|
|-----------^7--7-----7---|--7---7---7---7--7---7---|
|-------------------------|-------------------------|


  Badd11         Cmaj7                           C#m7/F#
  Q  E Q  E Q  E  Q.      +Q   E Q  E  Q   E  Q  E
|------0---------------|-------0----------------------|
|---------0------------|---------0--------------------|
|-----------8-----x----|--(x)-------9-----------------|
|----9------9--9-10----|-(10)---------10--------------|
|-----------9----10----|-(10)-------------10-10--4----|
|-7---------7-----8----|--(8)--------------8--8--2----|
|
| Q  E Q  E Q  E  Q.      +Q   E Q  E  Q   E  Q  E
|------0---------------|-------0----------------------|
|---------0------------|---------0--------------------|
|-----------8----------|------------9-----------------|
|----9------9--9-10----|-(10)---------10--------------|
|-----------9----10----|-(10)-------------10-10--4----|
|-7---------7-----8----|--(8)--------------8--8--2----|
|
| W                        W
|----------------------|------------------------------|
|----------------------|------------------------------|
|----------------------|------------------------------|
|----------------------|------------------------------|
|----------------------|------------------------------|
|----------------------|------------------------------|


                   G                             Am
 9/8              12/8
  Q  E Q  E Q  E   E E E E E E E E E E  a  E E   E  +E  E E E E  Q.    +Q    E
|------0---------|-----------------------------|-------------------------------|
|----0----0------|-----------------0---------3-|-----------------------------8-|
|----------------|-----------0-0h2---3-(3)s4---|-------------------------------|
|--------------4-|-----0-0h2-------------------|------------5----5-----(5)-----|
|-4---------4----|---0-------------------------|--------5h7---7----------------|
|-2---------2----|-2---------------------------|-5--(5)------------------------|
|
| Q  E Q  E Q  E   E E E E E E E E E E  a  E E   E  +E  E E E E  Q.    +Q    E
|------0---------|-----------------------------|-------------------------------|
|----0----0------|-----------------0---------3-|-----------------------------8-|
|----------------|-----------0-0h2---3-(3)s4---|-------------------------------|
|--------------4-|-----0-0h2-------------------|------------5----5-----(5)-----|
|-4---------4----|---0-------------------------|--------5h7---7----------------|
|-2---------2----|-2---------------------------|-5--(5)------------------------|
|
|                                                                          >
| W                W                             H.              Q   Q     Q
|----------------|-----------------------------|-------------------------------|
|----------------|-----------------------------|----------------^8---8-----8---|
|----------------|-----------------------------|----------------^7---7-----7---|
|----------------|-----------------------------|----------------^5---5-----5---|
|----------------|-----------------------------|-------------------------------|
|----------------|-----------------------------|-5-----------------------------|


  E  a  E E E  a   E  E  E   a   E  E  E   a   E E
|------------------------------------------------0---|
|---------8----------13------------15------------0---|
|-7-(7)s9---9-(9)s12----12-(12)s14----14-(14)s16-----|
|----------------------------------------------------|
|----------------------------------------------------|
|----------------------------------------------------|
|
| E  a  E E E  a   E  E  E   a   E  E  E   a   E E
|------------------------------------------------0---|
|---------8----------13------------15------------0---|
|-7-(7)s9---9-(9)s12----12-(12)s14----14-(14)s16-----|
|----------------------------------------------------|
|----------------------------------------------------|
|----------------------------------------------------|
|
| Q       Q        Q     Q          Q          Q
|----------------------------------------------------|
|-8-------8--------8-----8----------8----------8-----|
|-7-------7--------7-----7----------7----------7-----|
|-5-------5--------5-----5----------5----------5-----|
|----------------------------------------------------|
|----------------------------------------------------|


  Gmaj7
  H.         E E E E E E   E E E E E  a  E E E  a  E E E E
|------------2p0---------|---------------------------------|
|----------------3p0-----|-----------------0---------------|
|--------------------4p0-|-2p0---0h2-(2)s4---4-(4)s2p0h2p0-|
|------------------------|-----4---------------------------|
|------------------------|---------------------------------|
|-3----------------------|---------------------------------|
|
| Q.   Q.    E E E E E E   E E E E E  a  E E E  a  E E E E
|------------2p0---------|---------------------------------|
|----------------3-------|-----------------0---------------|
|--------------------4p0-|-2p0---0h2-(2)s4---4-(4)s2p0h2p0-|
|------------------------|-----4---------------------------|
|------------------------|---------------------------------|
|-3----3-----------------|---------------------------------|
|
|                    >
| H.         Q   Q   Q     Q   Q   Q       Q       Q   Q
|-----------^2---2---2---|-2---2---2-------2-------2---2---|
|-----------^3---3---3---|-3---3---3-------3-------3---3---|
|-----------^0---0---0---|-0---0---0-------0-------0---0---|
|-----------^0---0---0---|-0---0---0-------0-------0---0---|
|------------------------|---------------------------------|
|-3----------------------|---------------------------------|


  Am
   Q.   Q  E  S  E. S  E. +E  E   Q     E Q     E Q     E Q.
|-------------5-(5)-5-(5)-(5)-5-|-------5-------5-------5--------|
|-------------5-(5)-5-(5)-(5)---|-3b5-----3b5-----3b5------------|
|-------------5h=7--5h=7--(7)---|--------------------------------|
|-------------7-(7)-7-(7)-(7)---|--------------------------------|
|-------------------------------|--------------------------------|
|-/5----5--5--------------------|--------------------------------|
|
|  Q.   Q  E  S  E. S  E. +E  E   E   E E E   E E E   E E E E E
|-------------5-(5)-5-(5)-(5)-5-|-------5-------5-------5--------|
|-------------5-(5)-5-(5)-(5)---|--------------------------------|
|-------------5h=7--5h=7--(7)---|-5h==7---5h==7---5h==7----------|
|-------------7-(7)-7-(7)-(7)---|-------------------------5h7-5--|
|-------------------------------|--------------------------------|
|-/5----5--5--------------------|--------------------------------|
|
|                          >
|  H.         Q     Q      Q      Q     Q     Q   Q     Q   Q
|------------^5-----5------5----|-5-----5-----5---5-----5---5----|
|------------^5-----5------5----|-5-----5-----5---5-----5---5----|
|------------^7-----7------7----|-7-----7-----7---7-----7---7----|
|------------^7-----7------7----|-7-----7-----7---7-----7---7----|
|------------^5-----5------5----|-5-----5-----5---5-----5---5----|
|--5----------------------------|--------------------------------|


  H.=H
  Gmaj7
  Gtrs I, II
  H.      +Q.   T T T T T E..   +H.      +H.        +H.      +H.
|---------------2-------------|-------------------|-----------------*|
|-----------------3-----------|-------------------|-----------------*|
|-------------------0---------|-------------------|-----------------*|
|---------------------0-------|-------------------|-----------------*|
|-----------------------x-----|-------------------|-----------------*|
|-3-------(3)-------------3---|-(3)------(3)------|-(3)------(3)----*|




--------------------------------------------------------------------------------


Duration Legend
---------------
W - whole; H - half; Q - quarter; E - 8th; S - 16th; T - 32nd; X - 64th; a - acciaccatura
+ - note tied to previous; . - note dotted; .. - note double dotted
Uncapitalized letters represent notes that are staccato (1/2 duration)
Irregular groupings are notated above the duration line
Duration letters will always appear directly above the note/fret number it represents the
duration for.  Duration letters with no fret number below them represent rests.  Multi-
bar rests are notated in the form Wxn, where n is the number of bars to rest for.  Low
melody durations appear below the staff

Tablature Legend
----------------
 h   - hammer-on
 p   - pull-off
 b   - bend
 pb  - pre-bend
 r   - bend release (if no number after the r, then release immediately)
 /\  - slide into or out of (from/to "nowhere")
 s   - legato slide
 S   - shift slide
 - natural harmonic
[n]  - artificial harmonic
n(n) - tapped harmonic
 ~   - vibrato
 tr  - trill
 T   - tap
 TP  - trem. picking
 PM  - palm muting
\n/  - tremolo bar dip; n = amount to dip
 \n  - tremolo bar down
 n/  - tremolo bar up
/n\  - tremolo bar inverted dip
 =   - hold bend; also acts as connecting device for hammers/pulls
 <> - volume swell (louder/softer)
 x   - on rhythm slash represents muted slash
 o   - on rhythm slash represents single note slash

Misc Legend
-----------
 |  - bar
||  - double bar
||o - repeat start
o|| - repeat end
*|  - double bar (ending)
 :  - bar (freetime)
 $  - Segno
 &  - Coda
Tempo markers -  = BPM(8/16=s8/s16), where s8 = swing 8ths, s16 = swing 16ths

comments
print report bad tab
6 comments total. Showing first comments.
0 reply
john21 wrote on September 9 2007, 04:59 am

great tab man. but i wish you could of put some times on the verses and choruses. but no doubt a five.

0 reply
Mikke wrote on October 11 2007, 09:26 am

Any chance of putting it on Guitar Pro? or at least say when to play what

0 reply
mitchrushton182 wrote on February 18 2008, 12:08 pm

wow man u got skills. what an awesome song.

I want to post or [tab]
guest
You may want to rate the tab now too:
select rating
Please do not post tabs as comments. Select "correction" instead!