Oops, an error
Loading. Please wait.

The Czar Bass Tab

ver2
ver2

Whole song

Interactive

More versions @911Tabs.com
7,437 views 9 this week
4 commentsread comments
1 2 3 4 5
excellent!
x 9
Autoscroll
+/-
esc
set tempo
stop
Contributor
Hey! There's an official Ultimate Guitar app which is ideal
for learning songs when you're away from computer. Get the app
WARNING: You are trying to view
                                    content from Ultimate-Guitar.com
                                    in an unauthorized application,
                                    which is prohibited.

                                    Please use an official Ultimate
                                    Guitar Tabs application for iPhone,
                                    iPad or Android to access legitimate
                                    chords, guitar, bass, and drum tabs
                                    from Ultimate-Guitar.com database.

                                    Type "ultimate guitar tabs" in Apple
                                    App Store's or Android Market's
                                    search to find the application.
Mastodon's
"The Czar. I. Usurper II. Escape III. Martyr IV. Spiral"
track no.4 from the 2009 album "Crack the Skye"

Tabbed out by beevvy 

This tab is not a final version yet. There are still many mistakes.
I'm working on this.

Please send any feedback, suggestions, corrections,
etc. to my e-mail address (above).

You can also find my Guitar Pro tab of this song here on ultimate-guitar.com.
These are almost exact the same.

I made this text version for users who don't have GP5.

Here you can download MIDI file if you don't own Guitar Pro 5:
http://rapidshare.com/files/247542464/Mastodon_-_The_Czar_bass.mid


Tuning: D Standard (down 1 step): DGCF

Tempo: synth intro starts with 117, but guitar enters with 124-125,
       and Verse 1 and the rest of the song is 117 again, except Escape,
       which is 121 (for more details look at GP tab)


Duration Legend
---------------
W - whole
H - half
Q - quarter
E - 8th
S - 16th
. - note dotted


Tablature Legend
----------------
x - dead note
h - hammer on
p - pull off
S - shift slide
s - legato slide
/ -  slide into from below or out of upwards
\ -  slide into from above or out of downwards


*** Escape ***

** Intro **

  Q  Q    H           Q  E  E  H
-------------------|--------------------|
-------------------|--------------------|
--5--5----7--------|--5--5--7--8--------|
-------------------|--------------------|

  Q    Q    H           Q    Q    Q    Q
---------------------|----------------------|
---------------------|----------------------|
--5----5----7--------|--5-------------------|
---------------------|-------5----6----5----|

  Q    Q    H           Q    E  E  H
---------------------|----------------------|
---------------------|----------------------|
--5----5----7--------|--5----5--7--8--------|
---------------------|----------------------|

  Q    Q    Q.     E      E  E  E   E  E  E  E  E
-----------------------|---------------------------|
-------------------3s--|--8--5--7S--3--5--3--0--2--|
--5----5----7----------|---------------------------|
-----------------------|---------------------------|

  Q    Q    H           Q    Q    E  E  E  E
---------------------|------------------------|
---------------------|------------------------|
--5----5-------------|--5----5----8--7--5-----|
------------5--------|---------------------8--|

  Q    Q    H           Q    Q    Q    Q
---------------------|----------------------|
---------------------|----------------------|
--5----5-------------|--5-------------------|
------------5--------|-------5----6----5----|

** Verse 1 **

Don't stay...
  Q    Q    H           Q    E  E  H
---------------------|----------------------|
---------------------|----------------------|
--5----5-------------|--5----5--7--8--------|
------------5--------|----------------------|

He has ordered...
  Q    Q    Q    Q       Q    Q    Q    Q
----------------------|----------------------|
------------7---------|----------------------|
--5----5---------5----|--5-------------------|
----------------------|-------5----6----5----|

Don't stay...
  Q    Q    H           Q    Q    E  E  E  E
---------------------|------------------------|
---------------------|------------------------|
--5----5-------------|--5----5----8--7--5-----|
------------5--------|---------------------8--|

The henchmen...
  Q    Q    H           Q    Q    Q    Q
---------------------|----------------------|
------------7--------|----------------------|
--5----5-------------|--5-------------------|
---------------------|-------5----6----5----|

Don't stay...
  Q    Q    H           Q    E  E  H
---------------------|----------------------|
---------------------|----------------------|
--5----5-------------|--5----5--7--8--------|
------------5--------|----------------------|

Your role...
  Q    Q    Q    Q       Q    Q    Q    Q
----------------------|----------------------|
------------7---------|----------------------|
--5----5---------5----|--5-------------------|
----------------------|-------5----6----5----|

Don't stay...
  Q    Q    H           Q    Q    E  E  E  E
---------------------|------------------------|
---------------------|------------------------|
--5----5-------------|--5----5----8--7--5-----|
------------5--------|---------------------8--|

Tsarina...
  Q    Q    H           Q    Q    Q    Q
---------------------|----------------------|
------------7--------|----------------------|
--5----5-------------|--5-------------------|
---------------------|-------5----6----5----|

  Q    Q    H           Q    E  E  H
---------------------|----------------------|
---------------------|----------------------|
--5----5-------------|--5----5--7--8--------|
------------5--------|----------------------|

  Q    Q    Q    Q       Q    Q    Q    Q
----------------------|----------------------|
------------7---------|----------------------|
--5----5---------5----|----------------------|
----------------------|-------5----6----5----|

  Q    Q    H           Q    E  E  H
---------------------|----------------------|
------------7--------|----------------------|
--5----5-------------|--5----5--7--8--------|
---------------------|----------------------|

  Q    Q    H           Q    Q    E  E  Q
---------------------|-----------------------|
---------------------|-----------------------|
--5----5----7--------|--5--------------------|
---------------------|-------5----6--6--5----|

** Verse 2 **

It's your own fault...
  Q    E  E  Q    Q       Q    Q    Q    E  E
-----------------------|-----------------------|
-------------7---------|-----------------------|
--0----0--0-------0----|-----------------------|
-----------------------|--5----5----5----5--3--|

That is what we wanted...
  Q    Q    Q.      E      Q    Q    E  E  E  E
------------------------|------------------------|
------------------------|------------------------|
------------------------|------------------------|
--5----7----8\------3s--|--5----7----8--8--5--0--|

It's your own fault...
   Q    Q    Q.     E      Q    Q    E  E  E  E
------------------------|------------------------|
--/7----7---------------|------------------------|
-------------7------5s--|--7----7----7--5--7--5--|
------------------------|------------------------|

This is where we lay...
  Q    Q     Q.      E      Q    Q     E   E  E   E
-------------------------|---------------------------|
--7----9----10\------5s--|--7----9----10--10--7------|
-------------------------|-----------------------10--|
-------------------------|---------------------------|

** Bridge 1 **

  Q    Q    E  Q    E     Q    Q    Q.     E
-----------------------|----------------------|
------------7----------|----------------------|
--0----0-------7----3--|----------------------|
-----------------------|--1----1----1------1--|

  Q    E  E  Q.     E     Q    Q    Q    Q
-----------------------|----------------------|
-----------------------|----------------------|
--1----1--1--1------1--|--1----1----1----1----|
-----------------------|----------------------|

** Verse 1 **

Don't stay...
  Q    Q    H           Q    E  E  H
---------------------|----------------------|
---------------------|----------------------|
--5----5-------------|--5----5--7--8--------|
------------5--------|----------------------|

He has ordered...
  Q    Q    H           Q    Q    Q    Q
---------------------|----------------------|
---------------------|----------------------|
--5----5----7--------|--5-------------------|
---------------------|-------5----6----5----|

Don't stay...
  Q    Q    H           Q    E  E  H
---------------------|----------------------|
---------------------|----------------------|
--5----5-------------|--5----5--7--8--------|
------------5--------|----------------------|

The henchmen...
  Q    Q    H           Q    Q    Q    Q
---------------------|----------------------|
---------------------|----------------------|
--5----5----7--------|--5-------------------|
---------------------|-------5----6----5----|

Don't stay...
  Q    Q    H           Q    E  E  H
---------------------|----------------------|
---------------------|----------------------|
--5----5-------------|--5----5--7--8--------|
------------5--------|----------------------|

Your role...
  Q    Q    H           Q    Q    Q    Q
---------------------|----------------------|
---------------------|----------------------|
--5----5----7--------|--5-------------------|
---------------------|-------5----6----5----|

Don't stay...
  Q    Q    H           Q    E  E  H
---------------------|----------------------|
---------------------|----------------------|
--5----5-------------|--5----5--7--8--------|
------------5--------|----------------------|

Tsarina...
  Q    Q    Q    Q       Q    Q    Q    Q
----------------------|----------------------|
------------0---------|-------5----7----8----|
--5----5---------7----|--8-------------------|
----------------------|----------------------|

** Verse 2 **

It's your own fault...
  Q    Q    Q.     E     Q    Q     E   E  E   E
----------------------|---------------------------|
------------7---------|---------------------------|
--0----0--------------|--------------------5s--7--|
-------------------5--|--5----5\----3s--5---------|

That is what we wanted...
  Q    Q    Q.      E      Q    Q    E  E  Q
------------------------|------------------------|
------------------------|------------------------|
------------------------|------------------------|
--5----7----8\------3s--|--5----7----8--8--8\----|

It's your own fault...
   Q    Q    Q.     E      Q    Q    Q    E  E
------------------------|------------------------|
--/7----7---------------|--------------------5s--|
-------------7------5s--|--7----7----7----7------|
------------------------|------------------------|

This is where we lay...
  Q    Q     Q.      E      Q    Q     E   E  E   E
-------------------------|---------------------------|
--7----9----10\------5s--|--7----9----10--10--7------|
-------------------------|-----------------------10--|
-------------------------|---------------------------|

** Bridge 1 **

  Q    Q    E  Q    E     Q    E  E  E  Q    E
-----------------------|------------------------|
------------4----------|-------------3----------|
-----------------------|------------------------|
--2----2-------2----2--|--1----1--1-----1----1--|

  E  E  E  E  E  E  E  E     E  E  E  E  E  E  E  E     E  E  E
--------------------------|--------------------------|-----------|
--------------------------|--------------------------|-----------|
--------------------------|--------------------------|-----------|
--0--0--0--0--0--0--0--0--|--0--0--0--0--0--0--0--0--|--0--0--0--|


*** Escape ***

** Riff 1 **

  E  W                   W
----------------------|-------------------|
----------------------|-------------------|
----------------------|-------------------|
--0-------------------|-------------------|

  W                   H        Q    E  E
-------------------|----------------------|
-------------------|----------------------|
-------------------|----------------------|
--0----------------|-------------------0--|

  H        Q    E  E     E  Q    Q    Q    E
----------------------|-----------------------|
----------------------|-----------------------|
-------------------3--|-----5----8----5----7--|
----------------------|-----------------------|

  H        Q    E  E     E  Q    Q    E  S S S S
----------------------|--------------------------|
----------------------|--------------------------|
-------------------3--|-----5----8----8----------|
--0-------------------|------------------0-0-0-0-|

  E  E  S S S S E  E  S S S S    E  E  S S S S E  E  S S S S
------------------------------|------------------------------|
------------------------------|------------------------------|
--8--8----------8--8----------|--8--8----------8--8----------|
--------0-0-0-0-------0-0-0-0-|--------0-0-0-0-------0-0-0-0-|

  E  E  S S S S E  E  S S S S    E  E  Q
------------------------------|-------------|
------------------------------|-------------|
--8--8----------8--8----------|--8--8-------|
--------0-0-0-0-------0-0-0-0-|-------------|

** Verse 3 **

    I broke something here

By the light of the moon...
    E.  E   S E.  E.   E  E     S E.  E.   E  E.    Q
|----------------------------|---------------------------|
|*---------------------------|---------------------------|
|*---------------------------|--------------------8s7----|
|---0---0---0-0---0----0--0--|----0---0----0--0----------|

  E.  E   S E.  E.   E  E     S E.  E.   E  E.    Q     3x
---------------------------|----------------------------||
---------------------------|---------------------------*||
---------------------------|--------------------8s7----*||
--0---0---0-0---0----0--0--|----0---0----0--0-----------||


  Q    Q    Q    Q       Q    Q    Q    Q
----------------------|----------------------|
----------------------|----------------------|
--7----5----3----2----|--3----3----2----0----|
----------------------|----------------------|

** Verse 4 **

Ride the tides of blood...
  E  S S E  Q      Q     E      E  E  E  S S E  E  Q
-----------------------------|--------------------------|
-----------------------------|--------------------------|
--8--8-8-8--8---\--7-----7\--|---------------7--7-------|
-----------------------------|-----0--0--0-0------------|

Beauties sudden hand...
  E  S S E  Q       Q     E      E  E  E  S S E  E  Q
------------------------------|--------------------------|
------------------------------|--------------------------|
--8--8-8-8--8---\--10-----7\--|---------------7--7-------|
------------------------------|-----0--0--0-0------------|

Stretching arms up high...
  E  S S E  Q      E  E  E      E  E  E  S S E  E  Q
-----------------------------|--------------------------|
-----------------------------|--------------------------|
--8--8-8-8--8---\--7-----7\--|---------------7--7-------|
-----------------------------|-----0--0--0-0------------|

Leave the Czar to die...
  E  S S E  Q       Q     E      E  E  E  S S E  E  Q
------------------------------|---------------------------|
------------------------------|---------------------------|
--8--8-8-8--8---\--11-----7\--|---------------7--7--------|
------------------------------|-----0--0--0-0-------x\----|

** Bridge 2 **

My favorite bass part :-)

  E.  S Q    E  Q    E     Q    E  E  E     Q     E
------------------------|----------------------------|
------------------------|----------------------------|
--7---7------5--7----8--|-------8--5--5---/10----10--|
--------0---------------|----------------------------|

  E.  S Q    E  Q    E     Q    E  E  E    E   E   E
------------------------|-----------------------------|
------------------------|-----------------------------|
--7---7------5--7----8--|-------8--5--5s--10--10------|
--------0---------------|-------------------------10--|

  E.  S Q    E  Q    E     Q    E  E  E     Q     E
------------------------|----------------------------|
------------------------|----------------------------|
--7---7------5--7----8--|-------8--5--5---/10----10--|
--------0---------------|----------------------------|

  E.  S Q    E  Q    E     Q    E  E  E    E   E   E
------------------------|-----------------------------|
------------------------|-----------------------------|
--7---7------5--7----8--|-------8--5--5s--10--10------|
--------0---------------|-------------------------10--|

** Bridge 3 ***

    E  E  E  E  Q    E  E     E  E  E  E  E  E  E  E
|--------------------------|--------------------------|
|*-------------------------|--------------------------|
|*--------8-----7----------|--8-----7-----8--0--5--7--|
|---0--5-----5-------0--5--|-----5-----5--------------|

  E  E  E  E  Q    E  E     E  E  E  E  E  E  Q
-------------------------|--------------------------||
-------------------------|-------------------------*||
--------5-----3----------|--5-----3-----3----------*||
--0--5-----5-------0--5--|-----5-----5-----0--3-----||

** Riff 1 **

  E  E   E   E  Q    S S E     S S E  S S E  S S E  S S E
----------------------------|------------------------------|
----------------------------|------------------------------|
--------10s--8--7----7-7-3--|--3-3-5--5-5-8--8-8-5--5-5-7--|
--0--0----------------------|------------------------------|

  E  E   E   E  Q    S S E     S S E  S S Q    Q    E
----------------------------|--------------------------|
----------------------------|--------------------------|
--------10s--8--7----7-7-3--|--3-3-5--5-5-7----7-------|
-----0----------------------|-----------------------0--|

  E  E   E   E  Q    S S E     S S E  S S E  S S E  S S E
----------------------------|------------------------------|
----------------------------|------------------------------|
--------10s--8--7----7-7-3--|--3-3-5--5-5-8--8-8-5--5-5-7--|
-----0----------------------|------------------------------|

  E  E   E   E  Q    S S E     E  Q    Q    E  S S S S
----------------------------|--------------------------|
----------------------------|--------------------------|
--------10s--8--7----7-7-3--|-----5----8----8----------|
-----0----------------------|------------------0-0-0-0-|

  E  E  S S S S E  E  S S S S    E  E  S S S S E  E  S S S S
------------------------------|------------------------------|
------------------------------|------------------------------|
--8--8----------8--8----------|--8--8----------8--8----------|
--------0-0-0-0-------0-0-0-0-|--------0-0-0-0-------0-0-0-0-|

  E  E  S S S S E  E  S S S S    E  E  Q
------------------------------|-------------|
------------------------------|-------------|
--8--8----------8--8----------|--8--8-------|
--------0-0-0-0-------0-0-0-0-|-------------|

Now go back to the begining of Verse 3. And after Bridge 2 play this:

** Bridge 4 **

    E.  E   S E.  E   S E.  S    S S E  E  E  E  E  E   E
|-----------------------------|----------------------------|
|*--5---5-----6---6-----------|----------------------------|
|*----------------------8---8-|--L---7--7--5--5--3--3s--5--|
|-----------------------------|----------------------------|

  E.  E   S E.  E   S E.  S    S S Q     E  E  E  E  E       W
----------------------------|----------------------------||-------------------|
--5---5-----6---6-----------|---------------------------*||-------------------|
----------------------8---8-|--L---5-----3--5--3--8--7--*||--0----------------|
----------------------------|----------------------------||-------------------|

(7 bars)


*** Martyr ***

** Bridge 5 **

      W                    W
||---------------------|--------------------|
||*--------------------|--------------------|
||*--12----------------|--------------------|
||---------------------|--------------------|

   W                    W
--------------------|---------------------||
--------------------|--------------------*||
--12----------------|--12----------------*||
--------------------|---------------------||

** Bridge 3 **

  E  E  Q    H
----------------------|-------|
----------------------|-------|
----------------------|-------|
--0--0----------------|-------|

  E  E  Q    H
----------------------|-------|
----------------------|-------|
----------------------|-------|
--0--0----------------|-------|

  E  E  E  E  E  E  E  E     E  E  E  E  E  E  E  E
--------------------------|--------------------------|
--------------------------|--------------------------|
--------------------------|--------------------------|
--0--0--0--0--0--0--0--0--|--0--0--0--0--0--0--0--0--|

  E  E  E  E  E  E  E  E     E  E  E  E  E  E  E  E
--------------------------|--------------------------|
--------------------------|--------------------------|
--------------------------|--------------------------|
--0--0--0--0--0--0--0--0--|--0--0--0--0--0--0--0--0--|

** Verse 5 and Guitar Solo **

Spiraling up...
  Q    H+E         E     Q    E  E   E   E   E   E
----------------------|-----------------------------|
--7----7-----------7--|--9----9--9--10--10--10--10--|
----------------------|-----------------------------|
----------------------|-----------------------------|

  Q.     Q.     E  E     E  E  Q     E  E  Q
----------------------|--------------------------|
----------------------|--------------------------|
--7------7------7--7--|-----7--7-----7--7--7\----|
----------------------|--------------------------|

Leaving material...
  Q.     H        E     Q    Q     E   E   Q
---------------------|---------------------------|
--7------7--------7--|--9----9----10--10--10\----|
---------------------|---------------------------|
---------------------|---------------------------|

  Q.     Q.     E  E     E  E  E  E  E  E  E  E
----------------------|--------------------------|
----------------------|--------------------------|
--7------7------7--7--|--7--7--7--7--7--7--7--7--|
----------------------|--------------------------|

I see your face...
  Q.     E  E  Q    E     Q    E  E   E   E   Q
-----------------------|-----------------------------|
--7------7--7----------|--9----9--9--10--10--10------|
---------------7----7--|-----------------------------|
-----------------------|-----------------------------|

  Q.     Q.     E  E     Q     E  E  Q     Q
----------------------|-------------------------|
----------------------|-------------------------|
--7------7------7--7--|--7-----7--7--7-----7----|
----------------------|-------------------------|

The martyr is ending...
  Q.     H        E     Q    Q     E   E   Q
---------------------|---------------------------|
--7------7--------7--|--9----9----10--10--10\----|
---------------------|---------------------------|
---------------------|---------------------------|

  Q.     Q.     E  E     E  E  E  E  E  E   Q
----------------------|--------------------------|
----------------9--9--|--9--9--9--9--9--9\-------|
--7------7------------|--------------------------|
----------------------|--------------------------|

  Q    H+E         E     Q    E  E   E   E   E   E
----------------------|-----------------------------|
--7----7-----------7--|--9----9--9--10--10--10--10--|
----------------------|-----------------------------|
----------------------|-----------------------------|

  Q.     Q.     E  E     E  E  Q     E  E  Q
----------------------|-------------------------|
----------------------|-------------------------|
--7------7------7--7--|-----7--7-----7--7--7----|
----------------------|-------------------------|

  Q    H+E         E     Q    Q     E   E   Q
----------------------|---------------------------|
--7----7-----------7--|--9----9----10--10--10\----|
----------------------|---------------------------|
----------------------|---------------------------|

  Q.     Q.     E  E     E  E  E  E  E  E  Q
----------------------|-------------------------|
----------------------|-------------------------|
--7------7------7--7--|--7--7--7--7--7--7--7----|
----------------------|-------------------------|

  Q.     E  E  Q    E     Q    E  E   E   E   Q
-----------------------|---------------------------|
--7------7--7----------|--9----9--9--10--10--10----|
---------------7----7--|---------------------------|
-----------------------|---------------------------|

  Q.     Q.     E  E     Q     E  E  Q     Q
----------------------|-------------------------|
----------------------|-------------------------|
--7------7------7--7--|--7-----7--7--7-----7----|
----------------------|-------------------------|

  Q.     H        E     Q    Q     E   E   Q
---------------------|---------------------------|
--7------7--------7--|--9----9----10--10--10\----|
---------------------|---------------------------|
---------------------|---------------------------|

  Q.     Q.     E  E     E  E  E  E  E  E   Q
----------------------|--------------------------|
----------------9--9--|--9--9--9--9--9--9\-------|
--7------7------------|--------------------------|
----------------------|--------------------------|

** Bridge 5 **

   E   E  H.               W
-----------------------|--------------------|
-----------------------|--------------------|
--12--12--L------------|--------------------|
-----------------------|--------------------|

   E   E+H.                E    E+H.
-----------------------|------------------------|
-----------------------|------------------------|
--12--12---------------|--12s--15---------------|
-----------------------|------------------------|

   E   E+H.                W
-----------------------|--------------------|
-----------------------|--------------------|
--12--12---------------|--------------------|
-----------------------|--------------------|

   E   E+H.                E    E+H.
-----------------------|------------------------|
-----------------------|------------------------|
--12--12---------------|--12s--15---------------|
-----------------------|------------------------|

** Bridge 6 **

  E  E  E  E  E  E  Q       W
-------------------------|-------------------|
-------------------------|-------------------|
--7--7--8--8--7--7--7----|--7----------------|
-------------------------|-------------------|

  E  E  E  E  Q    Q       W
------------------------|-------------------|
--7--7--8--8--7----7----|--7----------------|
------------------------|-------------------|
------------------------|-------------------|


*** Spiral ***

** Verse 1 **

Don't stay...
  Q    Q    H             Q    E  E  H
---------------------|------------------------|
---------------------|------------------------|
--5----5----7--------|--3s5----5--7--8--------|
---------------------|------------------------|

He has ordered...
  Q    Q    H           Q    Q    Q    Q
---------------------|----------------------|
---------------------|----------------------|
--5----5----7--------|--5-------------------|
---------------------|-------5----6----5----|

Don't stay...
  Q    Q    H           Q    E  E  H
---------------------|----------------------|
------------7--------|----------------------|
--5----5-------------|--5----5--7--8--------|
---------------------|----------------------|

The henchmen...
  Q    Q    H           Q    Q    Q    Q
---------------------|----------------------|
---------------------|----------------------|
--5----5----7--------|--5-------------------|
---------------------|-------5----6----5----|

Don't stay...
  Q    Q    H           Q    Q    E  E  E  E
---------------------|------------------------|
------------7--------|------------------------|
--5----5-------------|--5----5----8--7--5-----|
---------------------|---------------------8--|

Your role...
  Q    Q    Q    Q       Q    Q    Q    Q
----------------------|----------------------|
-----------------5----|----------------------|
--5----7----8---------|--8----7----5---------|
----------------------|-----------------8----|

Don't stay...
  Q    Q    H           Q    E  E  H
---------------------|----------------------|
---------------------|----------------------|
--5----5-------------|--5----5--7--8--------|
------------5--------|----------------------|

Tsarina...
  Q    Q    H           Q    Q    Q    Q
---------------------|----------------------|
---------------------|----------------------|
--5----5----7--------|--5-------------------|
---------------------|-------5----6----5----|

  Q    Q    H           Q    E  E  H
---------------------|----------------------|
------------7--------|----------------------|
--5----5-------------|--5----5--7--8--------|
---------------------|----------------------|

  Q    Q    Q    Q       Q    Q    Q    Q
----------------------|----------------------|
-----------------5----|--7----8----7----5----|
--5----7----8---------|----------------------|
----------------------|----------------------|

** Verse 2 **

It's your own fault...
  Q    Q    Q.     E     Q    Q     E   E  E   E
----------------------|---------------------------|
------------7---------|---------------------------|
--0----0--------------|--------------------5s--7--|
-------------------5--|--5----5\----3s--5---------|

That is what we wanted...
  Q    Q    Q.      E      Q    Q    E  E  Q
------------------------|------------------------|
------------------------|------------------------|
------------------------|------------------------|
--5----7----8\------3s--|--5----7----8--8--8\----|

It's your own fault...
   Q    Q    Q.     E      Q    Q    Q    E  E
------------------------|------------------------|
--/7----7---------------|--------------------5s--|
-------------7------5s--|--7----7----7----7------|
------------------------|------------------------|

This is where we lay...
  Q    Q     Q.      E      Q    Q     E   E  E   E
-------------------------|---------------------------|
--7----9----10\------5s--|--7----9----10--10--7------|
-------------------------|-----------------------10--|
-------------------------|---------------------------|

** Bridge 1 **

  Q    Q    E  Q    E     Q    E  E  E  Q    E
-----------------------|------------------------|
------------4----------|-------------3----------|
-----------------------|------------------------|
--2----2-------2----2--|--1----1--1-----1----1--|

  E  E  E  E  E  E  E  E     E  E  E  E  E  E  E  E
--------------------------|--------------------------|
--------------------------|--------------------------|
--------------------------|--------------------------|
--0--0--0--0--0--0--0--0--|--0--0--0--0--0--0--0--0--|

** Outro **

  E  E  E     E+W                    W
-----------|----------------------|-------------------|
-----------|----------------------|-------------------|
-----------|----------------------|-------------------|
--0--0--0--|--0-------------------|-------------------|


  W                   W
-------------------|-------------------||
-------------------|-------------------||
-------------------|-------------------||
-------------------|-------------------||


Have a good fun!
comments
print report bad tab
4 comments total. Showing first comments.
+1 reply
Cliff Geezer wrote on June 23 2009, 11:32 am

Nice tab
i think just one or two parts are a little off
i like it

0 reply
TormentedRx wrote on January 22 2010, 02:13 pm

This tab is great.

0 reply
Spacecowgirled wrote on February 22 2010, 11:42 am

Sounds good to me. ^_^ Love it.

I want to post or [tab]
guest
You may want to rate the tab now too:
select rating
Please do not post tabs as comments. Select "correction" instead!