Oops, an error
Loading. Please wait.

The Czar Bass Tab

ver3
ver3

Whole song

More versions @911Tabs.com
359 views 1 this week
no commentswrite comment
1 2 3 4 5
please rate
add to favorites launch autoscroll
font size
0
reset
Autoscroll
+/-
esc
set tempo
stop
Tuning
D G C F A D
WARNING: You are trying to view
                                    content from Ultimate-Guitar.com
                                    in an unauthorized application,
                                    which is prohibited.

                                    Please use an official Ultimate
                                    Guitar Tabs application for iPhone,
                                    iPad or Android to access legitimate
                                    chords, guitar, bass, and drum tabs
                                    from Ultimate-Guitar.com database.

                                    Type "ultimate guitar tabs" in Apple
                                    App Store's or Android Market's
                                    search to find the application.
The Czar
I. Usurper II. Escape III. Martyr IV. Spiral
Mastodon
Crack the Skye
JGBrown
Tempo = 117
Bass

Legend
L - tied note
x - dead note
h - hammer on/pull off
b - bend
s - slide
~ - vibrato
g - ghost note
> - accentuated note
t - trill
M - palm mute
. - staccato
P - popping (bass)
S - slapping (bass)
+ - tapping
W - wide vibrato
< - fade in
w - whammy bar
= - tremolo picking
v - brush up
^ - brush down
V - pick stroke up
n - pick stroke down


F |-----7--9-------|--------7--9--10------------|-----7--9-------|
C |--0.-0--0-------|--0.----------0-------------|--0.-0--0-------|
G |----------------|----------------------------|----------------|
D |----------------|----------------------------|----------------|


--7-------------|-----7--9-------|--------7--9--10------------|
--0--7--8--7----|--0.-0--0-------|--0.----------0-------------|
----------------|----------------|----------------------------|
----------------|----------------|----------------------------|


--------7-----9-------------|----------------------------|----------------|
--0.----0-----0-------------|----------------------------|--------7-------|
-----------------------10s--|--13-10-12-8--10-7--8--7----|--5.-5----------|
----------------------------|----------------------------|----------------|


--7.------------------------|----------------|--7.------------|----------------|
----------------------------|--------7-------|----------------|--------7-------|
--------5-----8--7--5--3----|--5.-5----------|----------------|--5.-5----------|
----------------------------|----------------|-----5--6--5----|----------------|


----------------------------|----------------|----------------|----------------|
----------------------------|--------7-------|----------------|--------7-------|
--5.----5--7--8-------------|--5.-5-----5----|--5-------------|--5.-5----------|
----------------------------|----------------|-----5--6--5----|----------------|


----------------------------|----------------|--7-------------|----------------|
----------------------------|--------7-------|----------------|--------7-------|
--5.----5-----8--7--5-------|--5.-5----------|----------------|--5.-5----------|
-----------------------8----|----------------|-----5--6--5----|----------------|


----------------------------|----------------|----------------|----------------|
----------------------------|--------7-------|----------------|--------7-------|
--5.----5--7--8-------------|--5.-5-----5----|--5-------------|--5.-5----------|
----------------------------|----------------|-----5--6--5----|----------------|


----------------------------|----------------|--7-------------|----------------|
----------------------------|--------7-------|----------------|--------7-------|
--5.----5-----8--7--5-------|--5.-5----------|----------------|--5.-5----------|
-----------------------8----|----------------|-----5--6--5----|----------------|


----------------------------|----------------|----------------------------|
----------------------------|--------7-------|----------------------------|
--5h-0--5--7--8-------------|--5.-5-----5----|--5-------------------------|
----------------------------|----------------|--------5-----6-----5h-0----|


----------------|----------------------------|----------------|----------------|
--------7-------|----------------------------|----------------|----------------|
--5.-5----------|--5h-0--5--7--8-------------|--5.-5--7-------|--5-------------|
----------------|----------------------------|----------------|-----5--6--5----|


----------------|----------------------------|----------------------------|
--------7-------|----------------------------|----------------------------|
----------------|--0-----------0-------------|----------------------------|
--5--------5----|--------5-----------5--3----|--5-----7-----8-----8g-3s---|


----------------------------|----------------|----------------------------|
----------------------------|--------14L-----|--14------------------------|
-----------------------7s---|--12-12---------|--------12----10h12-12-10---|
--5-----7-----8--7--5-------|----------------|----------------------------|


----------------------------|----------------------------|
----------------------------|----------------------------|
--12----14----15----15g10s--|--12----14----15h14-12s-----|
----------------------------|----------------------------|


----------------------------|----------------------------|
--------------4-------------|--------------3-------------|
----------------------------|----------------------------|
--2--------------2-----2----|--1--------------1-----1----|


----------------------------|----------------|----------------------------|
----------------------------|----------------|--------------7-------------|
--1-----1L----1--------1----|--1--1-----1----|--5.----5--------------0----|
----------------------------|----------------|----------------------------|


----------------------------|----------------|----------------|----------------|
----------------------------|----------------|----------------|--------7-------|
--5h-0--5--7--8-------------|--5.-5--7-------|--5-------------|--5.-5----------|
----------------------------|----------------|-----5--6--5----|----------------|


----------------------------|----------------|----------------|
----------------------------|----------------|----------------|
--5.----5--7--8-------------|--5.-5--7-------|--5-------------|
----------------------------|----------------|-----5--6--5----|


----------------------------|----------------------------|----------------|
--------------7-------------|----------------------------|----------------|
--5.----5--------------0----|--5.----5--7--8-------------|--5.-5--7-------|
----------------------------|----------------------------|----------------|


----------------|----------------|----------------------------|-----7----------|
----------------|--------7-------|----------------------------|----------------|
--5-------------|--5.-5----------|--5.----5--7--8-------------|--5.----5--7----|
-----5--6--5----|----------------|----------------------------|----------------|


----------------|----------------------------|----------------------------|
----------------|--------------14------------|--------------------12h14---|
--8--10-12-13---|--12----12-------------12---|--12----12----10s12---------|
----------------|----------------------------|----------------------------|


----------------------------|----------------------------|
----------------------------|----------------------------|
--0-----14----15----15g10s--|--12----14----15h14-12s10---|
----------------------------|----------------------------|


----------------------------|----------------------------|
-----------7--------7L------|--7-----------7--------12---|
--0-----------0--0----------|-----0--0--------7s-12------|
----------------------------|----------------------------|


----------------------------|----------------------------|
--14------------------------|----------------------------|
--------14----15-------10s--|--12----14----15-14-12s10---|
----------------------------|----------------------------|


----------------------------|----------------------------|
--------------4-------------|--------------3-------------|
----------------------------|----------------------------|
--2-----2--------2-----2----|--1-----1--1-----1-----1----|


----------------------------|----------------------------|----------------|
----------------------------|-----------------------9----|-----9----------|
----------------------------|-----------7--7--7--7-------|--7-----7-------|
--0--0--0--0--0--0--0--0----|--0--0--0-------------------|-----------0L---|


-------|----------------------------|-------|----------------------------|
-------|----------------------------|-------|----------------------------|
-------|----------------------------|-------|----------------------------|
--0L---|--0L----------0--------0L---|--0L---|--0L----------0--------0L---|


-------|----------------------------|----------------------------|
-------|----------------------------|-----------------------5----|
-------|----------------------------|-----------------------3----|
--0L---|--0L----------0--------0----|----------------------------|


----------------|----------------------------|----------------------------|
-----7-----10L--|--10-10-------10-10---------|--10-10-------10-10---------|
-----5-----8L---|--8--8--------8--8----------|--8--8--------8--8----------|
----------------|----------------------------|----------------------------|


----------------------------|----------------------------||
--10-10-------10-10---------|--10-10-------10-10---------||
--8--8--------8--8----------|--8--8--------8--8----------||
----------------------------|----------------------------||


---------------------------------------------------|
o--------------------------------------------------|
o--------------------------------------------------|
-0--------0-----------0--0-----0--------------0----|


----------------------------------------------------|
----------------------------------------------------|
--------------------------7-----7-----5h-7----------|
--0-----0--------------0----------------------------|


----------------------------------------------------|
----------------------------------------------------|
----------------------------------------------------|
--0--------0-----------0--0-----0--------------0----|


---------------------------------------------------||----------------|
--------------------------------------------------o||----------------|
--------------------------7-----7-----5h-7--------o||--7--5--3--2----|
--0-----0--------------0---------------------------||----------------|


----------------|----------------------------|----------------------------|
----------------|----------------------------|----------------------------|
--3--2--0-------|----------------------------|----------------------------|
-----------3----|--1--------1-----0-----0L---|--0--0--------0--0----------|


----------------------------|
----------------------------|
----------------------------|
--1--------1L-1--3-----0L---|


----------------------------------------------------|
----------------------------------------------------|
----------------------------------------------------|
--0-----0-----0--------0--0-----0-------------------|


----------------------------|
----------------------------|
----------------------------|
--1--------1L-1--0-----0L---|


----------------------------------------------------|
----------------------------------------------------|
--------7--7--7-----7.------------------------------|
--0-----------------------0-----0-------------------|


----------------------------|
----------------------------|
----------------------------|
--1--------1L-1--4-----0L---|


----------------------------------------------------|
----------------------------------------------------|
----------------------------------------------------|
--0-----0-----0--------0--0-----0-----0-------------|


----------------------------|
----------------------------|
--7-----------------7--8L---|
--------0-----5--7----------|


--------------------------------------------------------------------------------|
--------------------------------------------------------------------------------|
--8-----------------8-----8-----------5L----------5-----------5s-11-------------|
--------------------------------------------------------------------------------|


-----------------------|----------------------------------------------------|
-----------------------|----------------------------------------------------|
---------11------------|--------------7-------------------------------------|
-----------------------|--0--------0--------0-----0-----12s---------1L------|


----------------------------|
----------------------------|
-----------------5-----5----|
--1-----1s-3L-3-------------|


----------------------------------------------------|
----------------------------------------------------|
--------------7-----------------------7-----8L------|
--0--------0--------0-----5-----7-------------------|


--------------------------------------------------------------------------------|
--------------------------------------------------------------------------------|
--8-----------------8-----8-----------5L----------5-----------5s-11-------------|
--------------------------------------------------------------------------------|


-----------------------|----------------------------|
-----------------------|----------------------------|
---------11------------|--------7--------7s---------|
-----------------------|--0-----------0--------1L---|


----------------------------||---------------------------|
----------------------------||o--------------------------|
-----------------5-----5----||o------8-----7-------------|
--1-----1s-3L-3-------------||-0--5-----5--------0--5----|


----------------------------|----------------------------|
----------------------------|----------------------------|
--8-----7-----8-----5--7----|--------5-----3-------------|
-----5-----5-----5----------|--0--5-----5--------0--5----|


---------------------------||----------------------------|
--------------------------o||----------------------------|
--5-----3-----3-----------o||--------10s8--7--------3----|
-----5-----5-----0--3--3---||--0--0--------------0-------|


----------------------------|----------------------------|
----------------------------|----------------------------|
-----5-----8-----5-----7----|--------10s8--7--------3----|
--0-----0-----0-----0-------|--0--0--------------0-------|


----------------------------|----------------------------|
----------------------------|--------12s10-9--------5----|
-----5-----7L-7--7--7-------|--------10s8--7--------3----|
--0-----0--------------0L---|--0--0--------------0-------|


----------------------------|----------------------------|----------------|
-----7-----10----7-----9----|--------12s10-9--------5----|-----7-----10L--|
-----5-----8-----5-----7----|--------10s8--7--------3----|-----5-----8L---|
--0-----0-----0-----0-------|--0--0--------------0-------|--0-----0-------|


----------------------------|----------------------------|
--10-10-------10-10---------|--10-10-------10-10---------|
--8--8--------8--8----------|--8--8--------8--8----------|
----------------------------|----------------------------|


----------------------------|----------------------------||
--10-10-------10-10---------|--10-10-------10-10---------||
--8--8--------8--8----------|--8--8--------8--8----------||
----------------------------|----------------------------||


---------------------------------------------------|
o--------------------------------------------------|
o--------------------------------------------------|
-0--------0-----------0--0-----0--------------0----|


----------------------------------------------------|
----------------------------------------------------|
--------------------------7-----7-----5h-7----------|
--0-----0--------------0----------------------------|


----------------------------------------------------|
----------------------------------------------------|
----------------------------------------------------|
--0--------0-----------0--0-----0--------------0----|


---------------------------------------------------||----------------|
--------------------------------------------------o||----------------|
--------------------------7-----7-----5h-7--------o||--7--5--3--2----|
--0-----0--------------0---------------------------||----------------|


----------------|----------------------------|----------------------------|
----------------|----------------------------|----------------------------|
--3--2--0-------|----------------------------|----------------------------|
-----------3----|--1--------1-----0-----0L---|--0--0--------0--0----------|


----------------------------|
----------------------------|
----------------------------|
--1--------1L-1--3-----0L---|


----------------------------------------------------|
----------------------------------------------------|
----------------------------------------------------|
--0-----0-----0--------0--0-----0-------------------|


----------------------------|
----------------------------|
----------------------------|
--1--------1L-1--0-----0L---|


----------------------------------------------------|
----------------------------------------------------|
--------7--7--7-----7.------------------------------|
--0-----------------------0-----0-------------------|


----------------------------|
----------------------------|
----------------------------|
--1--------1L-1--4-----0L---|


----------------------------------------------------|
----------------------------------------------------|
----------------------------------------------------|
--0-----0-----0--------0--0-----0-----0-------------|


----------------------------------------------------|
----------------------------------------------------|
--7-----------------------------------7-----8L------|
--------------0--------0--5-----7-------------------|


----------------------------|----------------------------|
--------------------12-12---|----------------------------|
--8-----8--5L-5--11----11---|--------7-------------------|
----------------------------|--0-----------0--12s---1L---|


----------------------------|
----------------------------|
-----------------5-----5----|
--1-----1s-3L-3-------------|


----------------------------------------------------|
----------------------------------------------------|
--------------7-----------------------7-----8L------|
--0--------0--------0-----5-----7-------------------|


----------------------------|----------------------------|
-----------------12----12---|----------------------------|
--8-----8--5L-5--11----11---|--------7-------------------|
----------------------------|--0-----------0--12s---1L---|


----------------------------||---------------------------|
----------------------------||o--------------------------|
-----------------5----------||o10-------11L11----8L------|
--1-----1s-3L-3-------------||---------------------------|


----------------------------|----------------------------|
----------------------------|----------------------------|
--8--7--7--5--5--3--3--5----|--10-10----11L11----8L------|
----------------------------|--------0-------------------|


---------------------------||-------|-------|-------|-------|-------|-------|
--------------------------o||-------|-------|-------|-------|-------|-------|
--8--5-----3--5--3--8--7--o||--0L---|--0L---|--0L---|--0L---|--0L---|--0L---|
---------------------------||-------|-------|-------|-------|-------|-------|


-------|-------|-------|----|----|----|----|----|----|----|----|
-------|-------|-------|----|----|----|----|----|----|----|----|
--0L---|--0L---|--0----|----|----|----|----|----|----|----|----|
-------|-------|-------|----|----|----|----|----|----|----|----|


----------------------------|-------|----------------------------|-------|
----------------------------|-------|----------------------------|-------|
----------------------------|-------|----------------------------|-------|
--0--5----------------------|-------|--0--5----------------------|-------|


----------------------------|----------------------------|
----------------------------|----------------------------|
--------8-----7-------------|--8-----7-----8-----5--7----|
--0--5-----5--------0--5----|-----5-----5-----5----------|


----------------------------|----------------------------|
----------------------------|----------------------------|
--------5-----3-------------|--5-----3-----3-------------|
--0--5-----5--------0--5----|-----5-----5-----0--3--3----|


----------------------------|----------------------------|-------|
----------------------------|----------------------------|-------|
--0L----------0--------0----|--2--------2--3--------3----|--7L---|
----------------------------|----------------------------|-------|


----------------------------|----------------------------|
----------------------------|----------------------------|
--7L----------7--------7s---|--12L---------12-------12s--|
----------------------------|----------------------------|


----------------------------|----------------------------|
----------------------------|----------------------------|
--14----------15-15----15g--|-----------------------7s---|
----------------------------|--0L----------0-------------|


----------------------------|----------------------|
----------------------------|--------------2-------|
--19-19-19-19-19-19-19-19---|--0L-------0-----0----|
----------------------------|----------------------|


----------------------------|-------|----------------------------|
----------------------------|-------|----------------------------|
--2--------2--3--------3g---|--7L---|--7L----------7--------7s---|
----------------------------|-------|----------------------------|


----------------------------|----------------------------|
----------------------------|----------------------------|
--12L---------12-------12s--|--14----------15-15----15g--|
----------------------------|----------------------------|


----------------------------|----------------------------|
----------------------------|----------------------------|
--7L----------7--------7s---|--19-19-19-19-19-19-19-19---|
--0L----------0-------------|----------------------------|


----------------------------|----------------------------|-------|
----------------------------|----------------------------|-------|
--0L----------0--------0----|--2--------2--3--------3----|--7L---|
----------------------------|----------------------------|-------|


----------------------------|----------------------------|
----------------------------|----------------------------|
--7L----------7--------7s---|--12L---------12-------12s--|
----------------------------|----------------------------|


----------------------------|----------------------------|
----------------------------|----------------------------|
--14----------15-15----15g--|-----------------------7s---|
----------------------------|--0L----------0-------------|


----------------------------|----------------------|
----------------------------|--------------2-------|
--19-19-19-19-19-19-19-19---|--0L-------0-----0----|
----------------------------|----------------------|


----------------------------|-------|----------------------------|
----------------------------|-------|----------------------------|
--2--------2--3--------3g---|--7L---|--7L----------7--------7s---|
----------------------------|-------|----------------------------|


----------------------------|----------------------------|
----------------------------|----------------------------|
--12L---------12-------12s--|--14----------15-15----15g--|
----------------------------|----------------------------|


----------------------------|----------------------------|
----------------------------|----------------------------|
--7L----------7--------7s---|--19-19-19-19-19-19-19-19---|
--0L----------0-------------|----------------------------|


----------------------------------------------------|-------|
--------------------15L---15L-----------------------|--15---|
--0--------12L12------------------------------------|-------|
----------------------------------------------------|-------|


----------------------------------------------------|-------|
----------------------------------------------------|-------|
--0--------12L12----12s---14L-----------------------|--14---|
----------------------------------------------------|-------|


--------------------------14L-----------------------|--14---|
--------------------15------------------------------|-------|
--0--------12L12------------------------------------|-------|
----------------------------------------------------|-------|


----------------------------|-------|----------------------------|
----------------------------|-------|----------------------------|
--0--0-----0s-2L------------|--2----|----------------------------|
----------------------------|-------|--0--0--1--1--0--0--1--1----|


----------------------------|----------------------------|-------|
----------------------------|----------------------------|-------|
----------------------------|----------------------------|-------|
--1--0--0--0--1--1--0--0----|--5--5--6--6--5L------------|--5----|


----------------|----------------------------|----------------|----------------|
----------------|----------------------------|----------------|----------------|
--5.-5--7-------|--3s-5--5--7--8-------------|--5.-5--7-------|--5-------------|
----------------|----------------------------|----------------|-----5--6--5----|


----------------|----------------------------|----------------|----------------|
--------7-------|----------------------------|----------------|----------------|
--5.-5----------|--5.----5--7--8-------------|--5.-5--7-------|--5-------------|
----------------|----------------------------|----------------|-----5--6--5----|


----------------|----------------------------|----------------|----------------|
--------7-------|----------------------------|----------------|----------------|
--5.-5----------|--5.----5-----8--7--5--3----|--5--7--8--10---|--8--7--5--3----|
----------------|----------------------------|----------------|----------------|


----------------|----------------------------|
--------7-------|----------------------------|
--5.-5----------|--5.----5--7--8-------------|
----------------|----------------------------|


--------------------------------------------------------------------------------|
--------------------------------------------------------------------------------|
--5.----------------------5-----------------------5s-7--------------------------|
--------------------------------------------------------------------------------|


-----------------------|----------------|----------------|
-----------------------|----------------|--------7-------|
-----------------------|--5-------------|-----5----------|
-----------------------|-----5--6--5----|----------------|


----------------------------|----------------|----------------|----------------|
----------------------------|----------------|----------------|--------14------|
--5.----5--7--8-------------|--5--7--8--10---|--12-13-12-10---|--0--0----------|
----------------------------|----------------|----------------|----------------|


----------------------------|----------------------------|
----------------------------|----------------------------|
--12----12----12g------7s---|--12----14----15----15g10s--|
----------------------------|----------------------------|


----------------------------|----------------------------|
----------------------------|----------------------------|
--12----14----15-14-12-10---|--0-------------------------|
----------------------------|--------0s-5L-5L------------|


----------------------------|----------------------------|----------------|
----------------------------|----------------------------|----------------|
----------------------------|----------------------------|----------------|
--5-----5L----5--5.----3s---|--5-----7-----8-----8g-3s---|--5--7--8-------|


----------------------------|----------------------------|
----------------------------|----------------------------|
----------------------------|----------------------------|
--2-----2L----2--------2----|--1--1--1-------------------|


----------------------------|----------------------------|----------------|
----------------------------|----------------------------|----------------|
--7--7--7--7--7--7--7--7----|--7--7--7-------------------|--7-------------|
----------------------------|-----------0--0--0--0--0----|-----0--0--0L---|


-------|-------|-------|-------||
-------|-------|-------|-------||
-------|-------|-------|-------||
--0L---|--0L---|--0L---|--0----||
comments
We did not receive enough feedback on this tab! Please rate:
print report bad tab
1 2 3 4 5
I want to post or [tab]
guest
You may want to rate the tab now too:
select rating
Please do not post tabs as comments. Select "correction" instead!