Oops, an error
Loading. Please wait.

3 Am Tab

ver3
ver3

Whole song

Interactive

Video

More versions @911Tabs.com
11,441 views 18 this week
9 commentsread comments
1 2 3 4 5
accurate
x 5
add to favorites launch autoscroll
font size
0
reset
Autoscroll
+/-
esc
set tempo
stop
Contributor
Difficulty
advanced
WARNING: You are trying to view
                                    content from Ultimate-Guitar.com
                                    in an unauthorized application,
                                    which is prohibited.

                                    Please use an official Ultimate
                                    Guitar Tabs application for iPhone,
                                    iPad or Android to access legitimate
                                    chords, guitar, bass, and drum tabs
                                    from Ultimate-Guitar.com database.

                                    Type "ultimate guitar tabs" in Apple
                                    App Store's or Android Market's
                                    search to find the application.
#----------------------------------PLEASE NOTE---------------------------------#
#This file is the author's own work and represents their interpretation of the #
#song. You may only use this file for private study, scholarship, or research. #
#------------------------------------------------------------------------------##

                                       3AM
                           As recorded by Matchbox 20
               (From the 1996 Album YOURSELF OR SOMEONE LIKE YOU)

Words by Rob Thomas

Music by Rob Thomas, Brian Yale, John Goff and John Stanley
Transcribed by DRK HRSE

           D                  Cadd9                  G                   Em
      x x 0 2 3 2          x 3 2 0 3 3          3 2 0 0 3 3          0 2 2 0 0 0

         G5/B                 G5/A                 Dsus2                Dsus4
      x 2 0 0 3 x          x 0 0 0 3 x          x x 0 2 3 0          x x 0 2 3 3

         G+5/B                G+5/A
      x x x 5 5 3          x 0 x 5 5 3

Gtr I (E A D G B E) - 'Electric I'
Gtr II (E A D G B E) - 'Acoustic I - 1st half'
Gtr III (E A D G B E) - 'Acoustic II - 2nd Half'
Gtr IV (E A D G B E) - 'Electric II'

 Intro
  Moderately Q=108
  G            Cadd9
 4/4
  Gtr I
  W                      H     Q  S S E
|---------------------|-----------------|
|---------------------|-----------------|
|---------------------|---------------0-|
|---------------------|-----------0h2---|
|---------------------|-----------------|
|---------------------|-----------------|
|
| Gtrs II, III
| E. S S S a E +H       +H.       S S E
|-3--3---3---3-(3)----|-(3)-------------|
|-3--3---3---3-(3)----|-(3)-------------|
|-0--0---0---0-(0)----|-(0)-----------0-|
|-0--0-0-0-0h2-(2)----|-(2)-------0h2---|
|-2----2-----3-(3)----|-(3)-------------|
|-3----3--------------|-----------------|


  G             Cadd9
  +W                     +H     E. S +E  E
|----------------------|--------3----------||
|----------------------|-----------3-(3)---||
|-(0)------------------|-(0)-------------2-||
|----------------------|-------------------||
|----------------------|-------------------||
|----------------------|-------------------||
|
|  E. S S S a E +H       +H     E. S +E  E
|--3--3---3---3-(3)----|-(3)----3----------||
|--3--3---3---3-(3)----|-(3)-------3-(3)---||
|--0--0---0---0-(0)----|-(0)-------------2-||
|--0--0-0-0-0h2-(2)----|-(2)---------------||
|--2----2-----3-(3)----|-(3)---------------||
|--3----3--------------|-------------------||


   Pre-Verse
    G                Cadd9
    E. S S S   S  S  +Q      E.   S
||-----------------------------------|
||o-0--0---0---0h=1--(1)-----1p===0--|
||--0--0---0---0-(0)-(0)-----0---(0)-|
||--0--0-0-0---0h=2--(2)-----2p===0--|
||o-2----2---------------------------|
||--3----3---------------------------|
|
|   E. S S S a E     +S  S E E E
||--3--3---3---3-----(3)-3-3-3-3-----|
||o-3--3---3---3-----(3)-3-3-3-3-----|
||--0--0---0---0-----(0)-0-0-0-0-----|
||--0--0-0-0-0h2-----(2)-2-2-2-0-----|
||o-2----2-----3-----(3)---3-3-------|
||--3----3---------------------------|


  G                Cadd9             G                Cadd9
  E. S S S   S  S  +Q      E.   S    E. S S S   S  S  +Q      E.   S
|----------------------------------|------------------------------------|
|-0--0---0---0h=1--(1)-----1p===0--|-0--0---0---0h=1--(1)-----1p===0----|
|-0--0---0---0-(0)-(0)-----0---(0)-|-0--0---0---0-(0)-(0)-----0---(0)---|
|-0--0-0-0---0h=2--(2)-----2p===0--|-0--0-0-0---0h=2--(2)-----2p===0----|
|-2----2---------------------------|-2----2-----------------------------|
|-3----3---------------------------|-3----3-----------------------------|
|
| E. S S S a E     +S  S E E E       E. S S S a E     +S  S E E E
|-3--3---3---3-----(3)-3-3-3-3-----|-3--3---3---3-----(3)-3-3-3-3-------|
|-3--3---3---3-----(3)-3-3-3-3-----|-3--3---3---3-----(3)-3-3-3-3-------|
|-0--0---0---0-----(0)-0-0-0-0-----|-0--0---0---0-----(0)-0-0-0-0-------|
|-0--0-0-0-0h2-----(2)-2-2-2-0-----|-0--0-0-0-0h2-----(2)-2-2-2-0-------|
|-2----2-----3-----(3)---3-3-------|-2----2-----3-----(3)---3-3---------|
|-3----3---------------------------|-3----3-----------------------------|


                                     Verse
  G            Cadd9               D
                                      Gtr IV
  W                                    W
                                       |
                                       /

  E. S S S   S  S  +Q      S S S S     Q  E a E +E  Q  E
|----------------------------------||-------0h2-(2)p0----|
|-0--0---0---0h=1--(1)-------------||------------------3-|
|-0--0---0---0-(0)-(0)-------------||-----2--------------|
|-0--0-0-0---0h=2--(2)---------0h2-||--0-----------------|
|-2----2-------------------0h2-----||--------------------|
|-3----3---------------------------||--------------------|
|
| E. S S S a E     +S  S E E   E       W
|-3--3---3---5-----(5)-3-3-3---3---||-^2-----------------|
|-3--3---3---3-----(3)-3-3-3---3---||-^3-----------------|
|-0--0---0---0-----(0)-0-0-0---0---||-^2-----------------|
|-0--0-0-0-0h2-----(2)-2-2-2---0---||-^0-----------------|
|-2----2-----3-----(3)---3-3-------||--------------------|
|-3----3---------------------------||--------------------|


  Cadd9                 G            Cadd9
   W                    W
   |                    |
   /                    /

   E  E E E E E S S E   E. S S S   S  S  +Q      E.   S
|---------0-----------|------------------------------------|
|-----------3---------|-0--0---0---0h=1--(1)-----1p===0----|
|-------0-----0-----0-|-0--0---0---0-(0)-(0)-----0---(0)---|
|-----2---------0h2---|-0--0-0-0---0h=2--(2)-----2p===0----|
|--3------------------|-2----2-----------------------------|
|---------------------|-3----0-----------------------------|
|
|  H.           S S E   E. S S S a E     +S  S E E E
|---------------------|-3--3---3---3-----(3)-3-3-3-3-------|
|-^3------------------|-3--3---3---3-----(3)-3-3-3-3-------|
|-^2----------------0-|-0--0---0---0-----(0)-0-0-0-0-------|
|-^0------------0h2---|-0--0-0-0-0h2-----(2)-2-2-2-0-------|
|-^3------------------|-2----2-----3-----(3)---3-3---------|
|---------------------|-3----3-----------------------------|


  G             Cadd9
  +W
   |
   /

   E. S S S   S  S  +Q      S S S S
|-----------------------------------|
|--0--0---0---0h=1--(1)-------------|
|--0--0---0---0-(0)-(0)-------------|
|--0--0-0-0---0h=2--(2)---------0h2-|
|--2----2-------------------0h2-----|
|--0----3---------------------------|
|
|  E. S S S a E     +S  S E E   E
|--3--3---3---3-----(3)-3-3-3---3---|
|--3--3---3---3-----(3)-3-3-3---3---|
|--0--0---0---0-----(0)-0-0-0---0---|
|--0--0-0-0-0h2-----(2)-2-2-2---0---|
|--2----2-----3-----(3)---3-3-------|
|--3----3---------------------------|


  D                    Cadd9
   W                    W
   |                    |
   /                    /

   Q  E a E +E  Q  E    E  E E E E E S S E
|-------0h2-(2)p0----|---------0------------|
|------------------3-|-----------3----------|
|-----2--------------|-------0-----0-----0--|
|--0-----------------|-----2---------0h2----|
|--------------------|--3-------------------|
|--------------------|----------------------|
|
|  W                    H.           S S E
|-^2-----------------|----------------------|
|-^3-----------------|-^3-------------------|
|-^2-----------------|-^2----------------0--|
|-^0-----------------|-^0------------0h2----|
|--------------------|-^3-------------------|
|--------------------|----------------------|


  G            Cadd9                 G             Cadd9
  W                                  +W
  |                                   |
  /                                   /

  E. S S S   S  S  +Q      E.   S     E. S S S   S  S  +Q      S S S S
|----------------------------------|-----------------------------------|
|-0--0---0---0h=1--(1)-----1p===0--|--0--0---0---0h=1--(1)-------------|
|-0--0---0---0-(0)-(0)-----0---(0)-|--0--0---0---0-(0)-(0)-------------|
|-0--0-0-0---0h=2--(2)-----2p===0--|--0--0-0-0---0h=2--(2)---------0h2-|
|-2----2---------------------------|--2----2-------------------0h2-----|
|-3----0---------------------------|--0----3---------------------------|
|
| E. S S S a E     +S  S E E E        E. S S S a E     +S  S E E   E
|-3--3---3---3-----(3)-3-3-3-3-----|--3--3---3---3-----(3)-3-3-3---3---|
|-3--3---3---3-----(3)-3-3-3-3-----|--3--3---3---3-----(3)-3-3-3---3---|
|-0--0---0---0-----(0)-0-0-0-0-----|--0--0---0---0-----(0)-0-0-0---0---|
|-0--0-0-0-0h2-----(2)-2-2-2-0-----|--0--0-0-0-0h2-----(2)-2-2-2---0---|
|-2----2-----3-----(3)---3-3-------|--2----2-----3-----(3)---3-3-------|
|-3----3---------------------------|--3----3---------------------------|


  D                    Cadd9
   W                    W
   |                    |
   /                    /

   Q  E a E +E  Q  E    E  E E E E E S S E
|-------0h2-(2)p0----|---------0-------------|
|------------------3-|-----------3-----------|
|-----2--------------|-------0-----0-----0---|
|--0-----------------|-----2---------0h2-----|
|--------------------|--3--------------------|
|--------------------|-----------------------|
|
|  W                    H.           S S E
|-^2-----------------|-----------------------|
|-^3-----------------|-^3--------------------|
|-^2-----------------|-^2----------------0---|
|-^0-----------------|-^0------------0h2-----|
|--------------------|-^3--------------------|
|--------------------|-----------------------|


  G            Cadd9                 G             Cadd9
  W                                  +W
  |                                   |
  /                                   /

  E. S S S   S  S  +Q      E.   S     E. S S S   S  S  +Q      S S S S
|----------------------------------|-----------------------------------|
|-0--0---0---0h=1--(1)-----1p===0--|--0--0---0---0h=1--(1)-------------|
|-0--0---0---0-(0)-(0)-----0---(0)-|--0--0---0---0-(0)-(0)-------------|
|-0--0-0-0---0h=2--(2)-----2p===0--|--0--0-0-0---0h=2--(2)---------0h2-|
|-2----2---------------------------|--2----2-------------------0h2-----|
|-3----0---------------------------|--3----3---------------------------|
|
| E. S S S a E     +S  S E E E        E. S S S a E     +S  S E E   E
|-3--3---3---3-----(3)-3-3-3-3-----|--3--3---3---3-----(3)-3-3-3---3---|
|-3--3---3---3-----(3)-3-3-3-3-----|--3--3---3---3-----(3)-3-3-3---3---|
|-0--0---0---0-----(0)-0-0-0-0-----|--0--0---0---0-----(0)-0-0-0---0---|
|-0--0-0-0-0h2-----(2)-2-2-2-0-----|--0--0-0-0-0h2-----(2)-2-2-2---0---|
|-2----2-----3-----(3)---3-3-------|--2----2-----3-----(3)---3-3-------|
|-3----3---------------------------|--3----3---------------------------|


  D              Dsus2  Cadd9
   W                     W
   |                     |
   /                     /

   E E E a E +E  Q  E    E  E E E +E  Q     E
|--------0h2-(2)p0----|---------0-(0)-----------|
|------3------------3-|---------------3---------|
|----2----------------|-------0-------------0---|
|--0------------------|-----2-------------------|
|---------------------|--3----------------------|
|---------------------|-------------------------|
|
|  W                     H.             S S E
|-^2------------------|-------------------------|
|-^3------------------|-^3----------------------|
|-^2------------------|-^2------------------0---|
|-^0------------------|-^0--------------0h2-----|
|---------------------|-^3----------------------|
|---------------------|-------------------------|


  Dsus4                D       Cadd9
  W                            W
  |                            |
  /                            /

  E  E   E   a E +E    E E E   E E E E E E S S E
|------------2h3-(3)---2-----|-------0-----------||
|--------3---------------3---|---------3---------||
|----2---------------------2-|-----0-----0-----0-||
|-0--------------------------|---2---------0h2---||
|----------------------------|-3-----------------||
|----------------------------|-------------------||
|
| E.   S S S a E +S  S E E E   E E E E E E E   E
|-3----3---3---3-(3)-3-3-3-3-|-0-0-0-0-0-0-0---0-||
|-3----3---3---3-(3)-3-3-3-3-|-1-1-1-1-1-1-1---1-||
|-0----0---0---0-(0)-0-0-0-0-|-0-0-0-0-0-0-0---0-||
|-0----0-0-0-0h2-(2)-2-2-2-0-|-2-2-2-2-2-2-2---2-||
|-2------2-----3-(3)---3-3---|-3-3-3-3-3-3-3---3-||
|-3------3-------------------|-------------------||


 Chorus
  $
  G           D   Cadd9             D
  Gtrs I, II, III
  Q    E. S E E E E   +Q   E. S  E  E E E
  |    |  |   | | |    |   |  |     | | |
  /    /  /   / x /    /   /  /     / / /

  Gtr IV
  E. S E. S E q   E   +H        +E  E E S S
|-7--7-7--7-x-5---3-|-(3)-------(3)-5-5-x-x-|
|-8--8-8--8-x-7---5-|-(5)-------(5)-7-7-x-x-|
|-7--7-7--7-x-7---5-|-(5)-------(5)-7-7-x-x-|
|-------------------|-----------------------|
|-------------------|-----------------------|
|-------------------|-----------------------|
|
| W                    W
|-------------------|-----------------------|
|-------------------|-----------------------|
|-------------------|-----------------------|
|-------------------|-----------------------|
|-------------------|-----------------------|
|-------------------|-----------------------|


  G           D   Cadd9              D
  Q    E. S E E E E   +Q    E. S E   E   E   E
  |    |  |   | | |    |    |  |     |   |   |
  /    /  /   / x /    /    /  /     /   /   /

  E. S E. S E q   E   +Q   +E. S S S S S S S S S
|-7--7-7--7-x-5---3-|-(3)--(3)-x-x-x-2-2-2-2-x-x-|
|-8--8-8--8-x-7---5-|-(5)--(5)-x-x-x-3-3-3-3-x-x-|
|-7--7-7--7-x-7---5-|-(5)--(5)-x-x-x-2-2-2-2-x-x-|
|-------------------|----------------------------|
|-------------------|----------------------------|
|-------------------|----------------------------|


                                         To Coda
  G           D   Cadd9                 D
  Q    E. S E E E E   +Q   E.     S E   E   E   E
  |    |  |   | | |    |   |      |     |   |   |
  /    /  /   / x /    /   /      /     /   /   /

  E. S E. S E q   E   +Q   S  S S S S S S S S S E
|-7--7-7--7-x-5---3-|-(3)--7--7-7-7-x-x-5-5-5-5---|
|-8--8-8--8-x-7---5-|-(5)--8--8-8-8-x-x-7-7-7-5---|
|-7--7-7--7-x-7---5-|-(5)--7--7-7-7-x-x-7-7-7-7---|
|-------------------|-----------------------------|
|-------------------|-----------------------------|
|-------------------|-----------------------------|


                      1.                  2.
  Em           D                          Cadd9
  E E E  S S E E E E   +H.      S S E     W
  | | |  | |   |   |    |       | | |
  / / /  / /   /   /    /       o o o

                                          Gtr I
  Q   E.   S E E E E   +H.      S S E     Q.   E E E S S E
|-7---7----7---5---3-|-(3)-------------||-3----3-3---------|
|-8---8----8---7---5-|-(5)------------o||-3--------3-------|
|-9---9----9---7---5-|-(5)----------0--||-0--------------0-|
|--------------------|----------0h2----||-2----------0h2---|
|--------------------|----------------o||-3----------------|
|--------------------|-----------------||------------------|
|
|                                         Gtrs II, III
| W                     W                 H.         S S E
|--------------------|-----------------||-3----------------|
|--------------------|----------------o||-3----------------|
|--------------------|-----------------||-0----------------|
|--------------------|-----------------||-2--------------0-|
|--------------------|----------------o||-3----------0h2---|
|--------------------|-----------------||------------------|
|
|                                         Gtr IV
| W                     W                 H      E E E   E
|--------------------|-----------------||-3----------------|
|--------------------|----------------o||-3------3-------3-|
|--------------------|-----------------||-5--------5-------|
|--------------------|-----------------||------------5-----|
|--------------------|----------------o||------------------|
|--------------------|-----------------||------------------|


  Cadd9
  Q   E E +E  E S S E   Q   E E +E  E S S E
|-------3-(3)---------|-------3-(3)---------|
|-------------3-------|-------------3-------|
|-----0-------------0-|-----0-------------0-|
|---------------0h2---|---------------0h2---|
|-3-------------------|-3-------------------|
|---------------------|---------------------|
|
| Q   E E  E  E S S E   Q   E E  E  E S S E
|-------3-------------|-------3-------------|
|----------3--1-------|----------3--1-------|
|-----0-------------0-|-----0-------------0-|
|-----2---------0h2---|-----2---------0h2---|
|-3-------------------|-3-------------------|
|---------------------|---------------------|
|
| Q.    E  E  E E   E   Q.    E  E  E E   E
|-------3-------3-----|-------3-------3-----|
|----------3--------3-|----------3--------3-|
|-5-----------5-------|-5-----------5-------|
|---------------------|---------------------|
|---------------------|---------------------|
|---------------------|---------------------|


  Q   E E +E  E S S E   Q   E E +E  E S S E
|-------3-(3)---------|-------3-(3)---------||
|-------------3-------|-------------3-------||
|-----0-------------0-|-----0-------------0-||
|---------------0h2---|---------------0h2---||
|-3-------------------|-3-------------------||
|---------------------|---------------------||
|
| Q   E E  E  E S S E   Q   E E  E  E S S E
|-------3-------------|-------3-------------||
|----------3--1-------|----------3--1-1-----||
|-----0-------------0-|---------------0---0-||
|-----2---------0h2---|-----2---------0h2---||
|-3-------------------|-3-------------------||
|---------------------|---------------------||
|
| Q.    E  E  E E   E   Q.    E  E  E Q
|-------3-------3-----|-------3-------3-----||
|----------3--------3-|----------3----------||
|-5-----------5-------|-5-----------5-------||
|---------------------|---------------------||
|---------------------|---------------------||
|---------------------|---------------------||


 Interlude
  G                 Cadd9 G           Cadd9
  Gtr I
  W                       +W
|-----------------------|------------------------|
|-----------------------|------------------------|
|-----------------------|------------------------|
|-----------------------|------------------------|
|-----------------------|------------------------|
|-3---------------------|-(3)--------------------|
|
| Gtrs II, III
| E. S S S a E +Q   E E    E. S S S a E +Q   E E
|----3---3---3-(3)--3---|-----3---3---3-(3)--3---|
|----3---3---3-(3)--3-0-|-----3---3---3-(3)--3-0-|
|-0--0-0-0---0-(0)--0-0-|--0--0-0-0---0-(0)--0-0-|
|-0--0-0---0h2-(2)--2-0-|--0--0-0---0h2-(2)--2-0-|
|-2----2-----3-(3)--3---|--2----2-----3-(3)--3---|
|-3----3----------------|--3----3----------------|


  G           Cadd9        G           Cadd9
  +W                       +H.                S S S S
|------------------------|-------------------------------||
|------------------------|-------------------------------||
|------------------------|-------------------------------||
|------------------------|------------------------0h2p===||
|------------------------|--------------------0h2--------||
|-(3)--------------------|-(3)---------------------------||
|
|  E. S S S a E +Q   E E    E. S S S a E +Q   E   E
|-----3---3---3-(3)--3---|-----3---3---3-(3)--3----------||
|-----3---3---3-(3)--3-0-|-----3---3---3-(3)--3---0------||
|--0--0-0-0---0-(0)--0-0-|--0--0-0-0---0-(0)--0---0------||
|--0--0-0---0h2-(2)--2-0-|--0--0-0---0h2-(2)--2---0------||
|--2----2-----3-(3)--3---|--2----2-----3-(3)--3----------||
|--3----3----------------|--3----3-----------------------||


 Verse
  D                    Cadd9
  Gtr IV
   W                    W
   |                    |
   /                    /

  Gtr I
   Q  E a E +E  E Q     E  E E E E E S S E
|-------0-2-(2)-0----|---------0-----------|
|-----------------3--|-----------3---------|
|-----2--------------|-------0-----0-----0-|
|--0-----------------|-----2---------0h2---|
|--------------------|--3------------------|
|--------------------|---------------------|
|
| Gtrs II, III
|  W                    H.           S S E
|-^2-----------------|---------------------|
|-^3-----------------|-^3------------------|
|-^2-----------------|-^2----------------0-|
|-^0-----------------|-^0------------0h2---|
|--------------------|-^3------------------|
|--------------------|---------------------|


  G          Cadd9           G           Cadd9
  W                          +W
  |                           |
  /                           /

  W                          +H.                   S S S S
|--------------------------|----------------------------------|
|--------------------------|----------------------------------|
|--------------------------|----------------------------------|
|--------------------------|---------------------------0h2p===|
|--------------------------|-----------------------0h2--------|
|-3------------------------|-(3)------------------------------|
|
| E. S S S a E +S  S E E E    E. S S S a E +S  S E E   E
|-3--3---3---3-(3)-3-3-3-3-|--3--3---3---3-(3)-3-3-3---3------|
|-3--3---3---3-(3)-3-3-3-3-|--3--3---3---3-(3)-3-3-3---3------|
|-0--0---0---0-(0)-0-0-0-0-|--0--0---0---0-(0)-0-0-0---0------|
|-0--0-0-0-0h2-(2)-2-2-2-0-|--0--0-0-0-0h2-(2)-2-2-2---0------|
|-2----2-----3-(3)---3-3---|--2----2-----3-(3)---3-3----------|
|-3----3-------------------|--3----3--------------------------|


  D                    Cadd9
   W                    W
   |                    |
   /                    /

   Q  E a E +E  E Q     E  E E E E E S S E
|-------0-2-(2)-0----|---------0-----------|
|-----------------3--|-----------3---------|
|-----2--------------|-------0-----0-----0-|
|--0-----------------|-----2---------0h2---|
|--------------------|--3------------------|
|--------------------|---------------------|
|
|  W                    H.           S S E
|-^2-----------------|---------------------|
|-^3-----------------|-^3------------------|
|-^2-----------------|-^2----------------0-|
|-^0-----------------|-^0------------0h2---|
|--------------------|-^3------------------|
|--------------------|---------------------|


  G          Cadd9           G           Cadd9
  W                          +W
  |                           |
  /                           /

  W                          +H.                   S S S S
|--------------------------|---------------------------------|
|--------------------------|---------------------------------|
|--------------------------|---------------------------------|
|--------------------------|---------------------------0h2---|
|--------------------------|-----------------------0h2-------|
|-3------------------------|-(3)-----------------------------|
|
| E. S S S a E +S  S E E E    E. S S S a E +S  S E E   E
|-3--3---3---3-(3)-3-3-3-3-|--3--3---3---3-(3)-3-3-3---3-----|
|-3--3---3---3-(3)-3-3-3-3-|--3--3---3---3-(3)-3-3-3---3-----|
|-0--0---0---0-(0)-0-0-0-0-|--0--0---0---0-(0)-0-0-0---0-----|
|-0--0-0-0-0h2-(2)-2-2-2-0-|--0--0-0-0-0h2-(2)-2-2-2---0-----|
|-2----2-----3-(3)---3-3---|--2----2-----3-(3)---3-3---------|
|-3----3-------------------|--3----3-------------------------|


  D                         Cadd9
   W                          W
   |                          |
   /                          /

   H     E.  S   +E    E     +W
|-------------------------|------------------|
|-------<7>---------------|------------------|
|-----------<7>-(<7>)-----|------------------|
|--0------------------<7>-|-(<7>)------------|
|-------------------------|------------------|
|-------------------------|------------------|
|
|  W                          H.       S S E
|-^2----------------------|------------------|
|-^3----------------------|-^-3--------------|
|-^2----------------------|-^-2------------0-|
|-^0----------------------|-^-0--------0h2---|
|-------------------------|-^-3--------------|
|-------------------------|------------------|


  G          Cadd9           G           Cadd9
  W                          +W
  |                           |
  /                           /

  W                          +W
|--------------------------|-----------------------------|
|--------------------------|-----------------------------|
|--------------------------|-----------------------------|
|--------------------------|-----------------------------|
|--------------------------|-----------------------------|
|-3------------------------|-(3)-------------------------|
|
| E. S S S a E +S  S E E E    E. S S S a E +S  S E E E
|-3--3---3---3-(3)-3-3-3-3-|--3--3---3---3-(3)-3-3-3-3---|
|-3--3---3---3-(3)-3-3-3-3-|--3--3---3---3-(3)-3-3-3-3---|
|-0--0---0---0-(0)-0-0-0-0-|--0--0---0---0-(0)-0-0-0-0---|
|-0--0-0-0-0h2-(2)-2-2-2-0-|--0--0-0-0-0h2-(2)-2-2-2-0---|
|-2----2-----3-(3)---3-3---|--2----2-----3-(3)---3-3-----|
|-3----3-------------------|--3----3---------------------|


                                             D.S. al Coda
  D              C
  Gtrs I, II, III, IV
  Q  Q  Q  E E   E E E E E E E E   E E E E S S S S S S S S
|-2--2--2--2-0-|-0-0-0-0-0-0-0-0-|-0-0-0-0-0-0-0-0-0-0-0-0-||
|-3--3--3--3-1-|-1-1-1-1-1-1-1-1-|-1-1-1-1-1-1-1-1-1-1-1-1-||
|-2--2--2--2-0-|-0-0-0-0-0-0-0-0-|-0-0-0-0-0-0-0-0-0-0-0-0-||
|-0--0--0--0-2-|-2-2-2-2-2-2-2-2-|-2-2-2-2-2-2-2-2-2-2-2-2-||
|--------------|-3-3-3-3-3-3-3-3-|-3-3-3-3-3-3-3-3-3-3-3-3-||
|--------------|-----------------|-------------------------||


  &
  Em           D   Cadd9                 G+5/G+5/A
  Gtrs II, III
  E E E  S S E E E E   E E E S S S S E   E   E
  | | |  | |   |   |   | | | | | | | |   |   |
  / / /  / /   /   /   / / / / / / / /   /   /

  Gtr I
  Q   E.   S E E E E   E E E S S S S S S S S S S
|-7---7----7---5---3-|-3-3-3-3-3-3-3-3-3-3-3-3-3-||
|-8---8----8---7---5-|-5-5-5-5-5-5-5-5-5-5-5-5-5-||
|-9---9----9---7---5-|-5-5-5-5-5-5-5-5-5-5-5-5-5-||
|--------------------|---------------------------||
|--------------------|---------------------------||
|--------------------|---------------------------||
|
| Gtr IV
| W                    H         Q       S S E
|--------------------|---------------------------||
|--------------------|---------------------------||
|--------------------|-----------------------0---||
|--------------------|-------------------0h2-----||
|--------------------|---------------------------||
|--------------------|---------------------------||


 Outro
  G                 D   Cadd9
  Gtrs II, III
  Q      E.   S  E  E E E
  |      |    |     | | |
  /      /    /     / x /

  Gtr I
  E.   S E.   S  E  q   E
|-7----7-7----7--x--5---3-|
|-8----8-8----8--x--7---5-|
|-7----7-7----7--x--7---5-|
|-------------------------|
|-------------------------|
|-------------------------|
|
| Gtr IV
| E  E   E  E   +E  E E E
|-------------------------|
|-----------3---(3)-------|
|--------0------------0---|
|----0--------------0---0-|
|-------------------------|
|-3-----------------------|


                   D           G                 D   Cadd9
  +Q    E.   S  E  E E   E     Q      E.   S  E  E E E
   |    |    |     | |   |     |      |    |     | | |
   /    /    /     / /   /     /      /    /     / x /

  +H           +E  E E   S S   E.   S E.   S  E  q   E
|-(3)----------(3)-5-5---x-x-|-7----7-7----7--x--5---3-|
|-(5)----------(5)-7-7---x-x-|-8----8-8----8--x--7---5-|
|-(5)----------(5)-7-7---x-x-|-7----7-7----7--x--7---5-|
|----------------------------|-------------------------|
|----------------------------|-------------------------|
|----------------------------|-------------------------|
|
|  E  E E  E    E  E S S E     E  E   E  E   +E  E E E
|----------------------------|-------------------------|
|----------------------------|-----------3---(3)-------|
|-------0----------------0---|--------0------------0---|
|--0--0----0----0--0-0h2-----|----0--------------0---0-|
|----------------------------|-------------------------|
|----------------------------|-3-----------------------|


                    D             G                 D   Cadd9
   Q     E.   S E   E   E   E     Q      E.   S  E  E E E
   |     |    |     |   |   |     |      |    |     | | |
   /     /    /     /   /   /     /      /    /     / x /

  +Q    +E.   S S S S S S S S S   E.   S E.   S  E  q   E
|-(3)---(3)---x-x-x-2-2-2-2-x-x-|-7----7-7----7--x--5---3-|
|-(5)---(5)---x-x-x-3-3-3-3-x-x-|-8----8-8----8--x--7---5-|
|-(5)---(5)---x-x-x-2-2-2-2-x-x-|-7----7-7----7--x--7---5-|
|-------------------------------|-------------------------|
|-------------------------------|-------------------------|
|-------------------------------|-------------------------|
|
|  E  E  E  E   E   E   S S E     E  E   E  E   +E  E E E
|-------------------------------|-------------------------|
|-------------------------------|-----------3---(3)-------|
|--------0------------------0---|--------0------------0---|
|--0--0-----0---0---0---0h2-----|----0--------------0---0-|
|-------------------------------|-------------------------|
|-------------------------------|-3-----------------------|


        G            D
  +Q    E.     S E   E   E   E
   |    |      |     |   |   |
   /    /      /     /   /   /

  +Q    S  S S S S S S S S S S S
|-(3)---7--7-7-7-x-x-5-5-5-5-x-x-|
|-(5)---8--8-8-8-x-x-7-7-7-5-x-x-|
|-(5)---7--7-7-7-x-x-7-7-7-7-x-x-|
|--------------------------------|
|--------------------------------|
|--------------------------------|
|
|  E  E E    E   E   E   S S E
|--------------------------------|
|--------------------------------|
|-------0--------------------0---|
|--0--0------0---0---0---0h2-----|
|--------------------------------|
|--------------------------------|


  Em            D   Cadd9
  E E E   S S E E E E    W
  | | |   | |   |   |    |
  / / /   / /   /   /    /

  Q   S S S S E E E E   +W
|-7---7-7-7-7-7-5---3-|-(3)----*|
|-8---8-8-8-8-8-7---5-|-(5)----*|
|-9---9-9-9-9-9-7---5-|-(5)----*|
|---------------------|--------*|
|---------------------|--------*|
|---------------------|--------*|
|
| E E E   E   E E E E   +W
|---------------------|--------*|
|---------------------|--------*|
|-----0-----------0---|--------*|
|-0-0-----0---0-0---0-|-(0)----*|
|---------------------|--------*|
|---------------------|--------*|


Duration Legend
---------------
W - whole; H - half; Q - quarter; E - 8th; S - 16th; T - 32nd; X - 64th; a - acciaccatura
+ - note tied to previous; . - note dotted; .. - note double dotted
Uncapitalized letters represent notes that are staccato (1/2 duration)
Irregular groupings are notated above the duration line
Duration letters will always appear directly above the note/fret number it represents the
duration for.  Duration letters with no fret number below them represent rests.  Multi-
bar rests are notated in the form Wxn, where n is the number of bars to rest for.  Low
melody durations appear below the staff

Tablature Legend
----------------
 h   - hammer-on
 p   - pull-off
 b   - bend
 pb  - pre-bend
 r   - bend release (if no number after the r, then release immediately)
 /\  - slide into or out of (from/to "nowhere")
 s   - legato slide
 S   - shift slide
<n>  - natural harmonic
[n]  - artificial harmonic
n(n) - tapped harmonic
 ~   - vibrato
 tr  - trill
 T   - tap
 TP  - trem. picking
 PM  - palm muting
\n/  - tremolo bar dip; n = amount to dip
 \n  - tremolo bar down
 n/  - tremolo bar up
/n\  - tremolo bar inverted dip
 =   - hold bend; also acts as connecting device for hammers/pulls
 <>  - volume swell (louder/softer)
 x   - on rhythm slash represents muted slash
 o   - on rhythm slash represents single note slash

Misc Legend
-----------
 |  - bar
||  - double bar
||o - repeat start
o|| - repeat end
*|  - double bar (ending)
 :  - bar (freetime)
 $  - Segno
 &  - Coda
Tempo markers - <E/E./Q/Q./H/H.> = BPM(8/16=s8/s16), where s8 = swing 8ths, s16 = swing 16ths
comments
print report bad tab
9 comments total. Showing first comments.
0 reply
Jaypeddie wrote on December 3 2005, 09:50 am

not to be a jerk, but i believe there is a capo on the first fret. maybe.

0 reply
0012@theCIA wrote on January 20 2006, 08:40 pm

^ i second that

+2 reply
Dontbeahata wrote on May 10 2006, 02:04 pm

dude way too hard its a four chord song

I want to post or [tab]
guest
You may want to rate the tab now too:
select rating
Please do not post tabs as comments. Select "correction" instead!