Oops, an error
Loading. Please wait.

Big Eyes Tab

ver2
ver2

Whole song

More versions @911Tabs.com
15,788 views 123 this week
no commentswrite comment
1 2 3 4 5
excellent!
x 8
Autoscroll
+/-
esc
set tempo
stop
Contributor
Difficulty
Tuning
intermediate
D A D G B E
Hey! There's an official Ultimate Guitar app which is ideal
for learning songs when you're away from computer. Get the app
WARNING: You are trying to view
                                    content from Ultimate-Guitar.com
                                    in an unauthorized application,
                                    which is prohibited.

                                    Please use an official Ultimate
                                    Guitar Tabs application for iPhone,
                                    iPad or Android to access legitimate
                                    chords, guitar, bass, and drum tabs
                                    from Ultimate-Guitar.com database.

                                    Type "ultimate guitar tabs" in Apple
                                    App Store's or Android Market's
                                    search to find the application.
Matt Corby - Big Eyes
Tab by Anthony Chmiel


DROP D TUNING, PLUS A CAPO ON THE 3RD FRET.
I cross checked this with some of his live footage, he definitely plays in Drop D with a 
capo on the 3rd unlike some of the other versions I've seen up.



Intro:
e------------5------------------5-------------------------------|
b-5/7---5h7-----------7-5-7-------7---7/5p3---3h5---3h5/7-------|
g---------------------------------------------------------------|
d---------------------------------------------------------------|
a----------------------------------------------0----------------|
D-0--------------00----------0----------------------------------|

e---------------------------------------------------|
b-7/5-5-7----5/7-5-3---0-------------------------3--|
g----------------------0----2---0----0-----------2--|
d----------------------0----0---4----2h4-2--0----0--|
a-0-------0-----------------0---5----0-----------0--|
D------------------------------------------------0--|

Verse 1 - ad-libbed every time with strumming
e-------------------------------------------|
b----------2----------------------------3---|
g----------0--------------2-------------2---| x2
d-2/4-2-0--2----------2-4-----(0-0-0-0)-0---|
a----------0-------------------2-4-5-7--0---|
D------------------------------5-5-5-5--0---|

Chorus 1 - each time is ad-libbed a bit differently
e-------------------------------------|
b-------------------------------3-----|
g-----------(0-0-0-0)-----------2-----|
d-(0-0-0-0)--2-4-2-2-(0-0-0-0)--0-----|
a--2-4-5-7---0-0-0-0--2-4-5-7---0-----|
D--5-5-5-5---2-2-2-2--5-5-5-5---0-----|
Chorus 2 you repeat the first time progressions a second time before going to the D chord.

Verse 2
e-------------0-----------------------------|
b----------2--2-------------------------3---|
g-0---0-0--0--------------2-------------2---|
d-2h4-2-0--2----------2-4-----(0-0-0-0)-0---|
a----------0-------------------2-4-5-7--0---|
D------------------------------5-5-5-5--0---|

e-------------0--------------------------------|
b----------2--2----------------------------3---|
g-0---0-0--0------------2------------------2---|
d-2h4-2-0--2--------2h4---3/2-0--(0-0-0-0)-0---|
a----------0----------------------2-4-5-7--0---|
D---------------------------------5-5-5-5--0---|


Middle Section - strummed. The 1st fret on the second chord is added halfway through 
that chord
e--------------------------|
b--3---0-1---(0)--(0)------|
g--2---0-0----0----0-------|
d--0---2-2----0----2-------| x4
a--0---0-0----2----0-------|
D--0----------5----2-------|
Last time play the last chord for twice as long


Outro
e------------5------------------5-------------------------------|
b-5/7---5h7-----------7-5-7-------7---7/5p3---3h5---3h5/7-------|
g---------------------------------------------------------------|
d---------------------------------------------------------------|
a----------------------------------------------0----------------|
D-0----------------0----------0---------------------------------|

e---------------------------------------------------------|
b-7/5-5-7----5/7-5-3---0-------------------------------3--|
g----------------------0----2---0----0-----------------2--|
d----------------------0----0---4----3/2p0-------------0--|
a-0-------0-----------------0---5--0--------0h2-0--0---0--|
D--------------------------------------------------0---0--|
comments
print report bad tab
I want to post or [tab]
guest
You may want to rate the tab now too:
select rating
Please do not post tabs as comments. Select "correction" instead!