Oops, an error
Loading. Please wait.

Brother Acoustic Tab

ver3
ver3

Whole song

More versions @911Tabs.com
441 views 3 this week
no commentswrite comment
1 2 3 4 5
not so good
x 1
add to favorites launch autoscroll
font size
0
reset
Autoscroll
+/-
esc
set tempo
stop
Contributor
Difficulty
intermediate
WARNING: You are trying to view
                                    content from Ultimate-Guitar.com
                                    in an unauthorized application,
                                    which is prohibited.

                                    Please use an official Ultimate
                                    Guitar Tabs application for iPhone,
                                    iPad or Android to access legitimate
                                    chords, guitar, bass, and drum tabs
                                    from Ultimate-Guitar.com database.

                                    Type "ultimate guitar tabs" in Apple
                                    App Store's or Android Market's
                                    search to find the application.
                             Brother- Matt Corby
-------------------------------------------------------------------------------
Tabbed by: Joey Brady
E-mail: bradyjoseph8@gmail.com

Tuning: EADGBe
 Capo II

My first tab, its pretty accurate to the triple j version on youtube
http://www.youtube.com/watch?v=tSL9wPHFSts

Hope you find that this helps (my own cover) http://youtu.be/a0gKTasfCpg

Intro

e|------------------------------------------------------------------------------------|
B|-- 5-----5---5------5---5------5-- 5-----5---5-----5--5------5---5-----5---5-5-5-5--|
G|----0----------0----------0----------0---------0---------0---------0-------------- -|
D|------5----------5----------5----------5---------5---------5---------5------------ -|
A|--3-------------------------------2-------2-3-------3 3--------3-3------3--3-2------|
E|----------0--2-------2-3--------3----------------------------------------------3-2--|

e|--------------------------------------------------------------------------------------|
B|-- 5-----5---5-----5----5----5---5-----5--5----5---5----5---3----3--7----7--7---------|
G|----0---------0----------0---------0--------0-------0---------0-------0-------0-------|
D|------5---------5---------5---------5-------- 5--------5--------4-------7-------7 ----|
A|--3------------------------------2------2-3-----3-3-------3 2----- 2-5-----5-5--------|
E|----------0--2-------2-3------3-------------------------------------------------------|


Verse
e|----------------------------------------------------------------------|
B|--5----5--5---5--5---5--5---5--12-----10---7----7---------------------|
G|----0------0------0------0---------0---------0------------------------|
D|-----5------5------5------5---------12--------7-----------------------|
A|--3-----3-3----3-3----3-3----3-10-------10-5-----5---------X2---------|
E|----------------------------------------------------------------------|

e|--------------------------------------------|
B|--5---5--5---5--5---5--3-5---5--------------|
G|---0------0------0--------0-----------------|
D|----5------5------5--------5----------------|
A|--3----3-3----3-3----3-2-3----3-------------|
E|--------------------------------------------|

e|--------------------------------------------------------------------------------------|
B|-- 5-----5---5------5---5------5-- 5-----5---5-----5--5------5---5-----5---5-5-5-5----|
G|----0----------0----------0----------0---------0---------0---------0-------------- ---|
D|------5----------5----------5----------5---------5---------5---------5------------ ---|
A|--3-------------------------------2-------2-3-------3 3--------3-3------3-3-2---------|
E|----------0--2-------2-3--------3----------------------------------------------3-2----|

e|--------------------------------------------------------------------------------------|
B|-- 5-----5---5-----5----5----5---5-----5--5----5---5----5---3----3--7----7------------|
G|----0---------0----------0---------0--------0-------0---------0-------0---------------|
D|------5---------5---------5---------5-------- 5--------5--------4-------7-------------|
A|--3------------------------------2------2-3-----3-3-------3 2----- 2-5-----5----------|
E|----------0--2-------2-3------3-------------------------------------------------------|




Chorus

e|--0--------------------------------------------------------------------0---------|
B|--5---0---1------------0---1---------------------3---5-----5--5---5---5----------|
G|--0-------2---0------------2--0----0-----4---5---------0-------0------0----------|
D|--5---0-------2--------0------2----2-----5---7----------5-------5-----5----------|
A|--3-------0----------------0---------------------2---3------3-3--------3---------|
E|------3-------0--------3------0----2-----3---5---------------------------- ------|

e|-----------------------------------------------------------------------------|
B|-3--5--7--8--12--3--5-----5--5----5--7---7--7---7--8---8--7---7--12--3-------|
G|-----------------------0-------0-------0------0------0------0----------------|
D|------------------------5-------5-------7------7------9------7---------------|
A|-2--3--5--7--10--2--3------3-3-----3-5----5-5----5-7----7-5----5-10--2-------|
E|-----------------------------------------------------------------------------|

e|-------------------|
B|--5---5------------|
G|---0------X4-------|
D|----5--------------|
A|--3----3-----------|
E|-------------------|

Verse 2
e|----------------------------------------------------------------------|
B|--5----5--5---5--5---5--5---5--12-----10---7----7---------------------|
G|----0------0------0------0---------0---------0------------------------|
D|-----5------5------5------5---------12--------7-----------------------|
A|--3-----3-3----3-3----3-3----3-10-------10-5-----5---------X2---------|
E|----------------------------------------------------------------------|

e|--------------------------------------------|
B|--5---5--5---5--5---5--3-5---5--------------|
G|---0------0------0--------0-----------------|
D|----5------5------5--------5----------------|
A|--3----3-3----3-3----3-2-3----3-------------|
E|--------------------------------------------|

e|--------------------------------------------------------------------------------------|
B|-- 5-----5---5------5---5------5-- 5-----5---5-----5--5------5---5-----5---5-5-5-5----|
G|----0----------0----------0----------0---------0---------0---------0-------------- ---|
D|------5----------5----------5----------5---------5---------5---------5------------ ---|
A|--3-------------------------------2-------2-3-------3 3--------3-3------3-3-2---------|
E|----------0--2-------2-3--------3----------------------------------------------3-2----|


e|---0-0-0-0---0-0-0-0--0-0-0-0--0-0-0-0--0-0-0-0--0-0-0-0--0-0-0-0--0-0-0-0--------|
B|---5-5-5-5---5-5-5-5--5-5-5-5--5-5-5-5--5-5-5-5--5-5-5-5--3-3-3-3--7-7-7-7--------|
G|---0-0-0-0---0-0-0-0--0-0-0-0--0-0-0-0--0-0-0-0--0-0-0-0--0-0-0-0--0-0-0-0--------|
D|---5-5-5-5---5-5-5-5--5-5-5-5--5-5-5-5--5-5-5-5--5-5-5-5--4-4-4-4--7-7-7-7--------|
A|-3-3---------------------------2--------3---------3--------2--------5-------------|
E|------------2---------3-----------------------------------------------------------|

e|--0---------------------------------------------------------------0-0-0-0-0-0-0-0-0--|
B|--5---0--1---0----------0---1--0-0-0---0-0-0-0--------------3-3--5-5-5-5-5-5-5-5-5---|
G|--0------2---0--------------2--0-0-0---2-2-2-2---4-4--5-5---0-0--0-0-0-0-0-0-0-0-0---|
D|--5---0------2----------0---2--2-2-2---0-0-0-0---5-5--7-7---4-4--5-5-5-5-5-5-5-5-5---|
A|--3------0---2--------------0--2-2-2---0-0-0-0---3-3--5-5---2-2--3-3-3-3-3-3-3-3-3---|
E|------3------0----------3------0-0-0---2-2-2-2---3-3--5-5----------------------------|

e|--------------------0-0-0-0-0-0-0-0-0-0-0-0-0-0-0-0-0-0-0-0-0-0-0-0-0-0-0-0-0---------|
B|--3-5--7-8---12-4--5-5-5-5-5-5-5-5-5-5-5-5-5-5-3-5-5-5-5-5-5-5-5-5-5-5-5-5-5----------|
G|--0-0--0-0---0--0--0-0-0-0-0-0-0-0-0-0-0-0-0-0-0-0-0-0-0-0-0-0-0-0-0-0-0-0-0----------|
D|--4-5--7-9---12-4--5-5-5-5-5-5-5-5-5-5-5-5-5-5-4-5-5-5-5-5-5-5-5-5-5-5-5-5-5----------|
A|--2-3--5-7---10-2--3-3-3-3-3-3-3-3-3-3-3-3-3-3-2-3-3-3-3-3-3-3-3-3-3-3-3-3-3----------|
E|--------------------------------------------------------------------------------------|

e|--0-0-0-0-0-0-0-0-----------------------------------------------------------------|
B|--7-8-8-8-8-8-8-8--12-12-12-12--3-3---5-5-5-5-5-5-5-5/-7-7-7-7-7-7-7-7------------|
G|--0-0-0-0-0-0-0-0--0--0--0--0---0-0---0-0-0-0-0-0-0-0/-0-0-0-0-0-0-0-0------------|
D|--7-9-9-9-9-9-9-9--12-12-12-12--4-4---5-5-5-5-5-5-5-5/-7-7-7-7-7-7-7-7------------|
A|--5-7-7-7-7-7-7-7--10-10-10-10--2-2---3-3-3-3-3-3-3-3/-5-5-5-5-5-5-5-5------------|
E|----------------------------------------------------------------------------------|
                                                                     
e|-------------------------------------------------------------------------------|
B|--8---8--7---7----12-3---------------------------------------------------------|
G|---0------0--------------------------------------------------------------------|
D|----9------7-------------------------------------------------------------------|
A|--7----7-5----5--10--2---------------------------------------------------------|
E|-------------------------------------------------------------------------------|

e|-----------------0------------------0---------0------------------------------------|
B|--5---5-------3---3---------3-2-1----1----1----1--------8---8--7---7---12-3--------|
G|---0-----------0---0--------------2---2-----2---2---------0------0-----------------|
D|----5----X8----------X3---------------------------X3-------9------7----------------|
A|--3----3------2-------------2---0---------0-------------7----7-5----5--10-2--------|
E|-----------------------------------------------------------------------------------|

B|-5---5--------------------------------------------------------------------------|
G|--0-----------------------------------------------------------------------------|
D|---5-----X4---------------------------------------------------------------------|
A|-3----3-------------------------------------------------------------------------|
E|--------------------------------------------------------------------------------|


Chorus
e|-----------------------------------------------------------------------------|
B|--5---5--5---5--7---7--7---7--8---8--8---8--12----12---12----12--------------|
G|---0------0------0------0------0------0-------0-----------0------------------|
D|----5------5------7------7------9------9-------12----------12--------X2------|
A|--3----3-3----3-5----5-5----5-7----7-7----7-10------10-10-----10-------------|
E|-----------------------------------------------------------------------------|

e|-----------------------------------------------------------------------------|
B|--5---5--5---5--7---7--7---7--8---8--8---8--12----12---12---3---3------------|
G|---0------0------0------0------0------0-------0---------------0--------------|
D|----5------5------7------7------9------9-------12--------------4-------------|
A|--3----3-3----3-5----5-5----5-7----7-7----7-10------10-10---2----2-----------|
E|-----------------------------------------------------------------------------|

e|--0-------0-------0--------0---------0----------------------|
B|--5-------7-------8--------12--------3----------------------|
G|--0-------0-------0--------0---------0----------------------|
D|--5-------7-------9--------12--------4-------------X5-------|
A|--3--x16--5--x16--7--x16--10---x12--2--x4-------------------|
E|------------------------------------------------------------|


e|-0------0--------0---0---0------------------------------|
B|-5------7--------8---7---12---3---5---------------------|
G|-0------0--------0---0---0------------------------------|
D|-5------7--------9---7---12-----------------------------|
A|-3--x16-5--x16---7---5---10---2---3---------------------|
E|--------------------------------------------------------|
comments
We did not receive enough feedback on this tab! Please rate:
print report bad tab
1 2 3 4 5
I want to post or [tab]
guest
You may want to rate the tab now too:
select rating
Please do not post tabs as comments. Select "correction" instead!