Oops, an error
Loading. Please wait.

Songs We Sing Tab

ver1
ver1

Intro

Album

Whole song

More versions @911Tabs.com
4,920 views 18 this week
1 commentread comment
1 2 3 4 5
excellent!
x 5
Autoscroll
+/-
esc
set tempo
stop
Contributor
WARNING: You are trying to view
                                    content from Ultimate-Guitar.com
                                    in an unauthorized application,
                                    which is prohibited.

                                    Please use an official Ultimate
                                    Guitar Tabs application for iPhone,
                                    iPad or Android to access legitimate
                                    chords, guitar, bass, and drum tabs
                                    from Ultimate-Guitar.com database.

                                    Type "ultimate guitar tabs" in Apple
                                    App Store's or Android Market's
                                    search to find the application.
    This is the entire Songs We Sing album by Matt Costa. I have seen 2
different versions of the Songs We Sing album. The cd's came out in
this order so far:
  1. Matt Costa EP (this one with all the black the white stripes)
 *2. Songs We Sing (2005)
  3. The Elasmosaurus EP
  4. Songs We Sing (The one on iTunes, includes songs from the two EP's)
  5. Unfamiliar faces
I am tabbing out Songs We Sing (the original version).

Songs:
 1.Yellow Taxi
 2.Astair
 3.Oh Dear
 4.Cold December
 5.Desire's Only Fling
 6.Sweet Rose
 7.Songs We Sing
 8.Sunshine
 9.Whisky and Wine
 10.Shimmering Fields
 11.Behind the Moon
 12.Wash Away


***I plan on updating this entire tab soon. I first tabbed this thing in middle school, 
and now, 6 years later, realize that a lot of things can be made clearer/more accurate.***

    I have several Matt Costa tabs that I previously made and copied
them onto this tab (Oh Dear, Cold December, Songs We Sing, and Behind the
Moon). So don't think I'm stealing other people's tabs. But thanks goes to
Chris Caceres, Huggz60, and Chris because I learned thier songs (Astair,
Desires Only Fling, and Wash Away) and thought they were perfect before even deciding to
this album. So it's very hard to make another tab of that song when you have already
the perfect version.
__________________________________________________________________________

                          ~Yellow Taxi~

This is pretty much the easiest song on this whole album. The song is
played in barre chords, but I wrote it in open chords because it's much easier.

e|-2-2-2-2--2--|-2-2-2-2--2--|-2-2-2-2--2--|-2-2-2-2--0--|
B|-3-3-3-3--3--|-3-3-3-3--3--|-3-3-3-3--3--|-3-3-3-3--3--|
G|-2-2-2-2--2--|-2-2-2-2--2--|-2-2-2-2--2--|-2-2-2-2--2--|x4
D|-0-0-0-0--0--|-0-0-0-0--0--|-0-0-0-0--0--|-0-0-0-0--0--|
A|-------------|-------------|-------------|-------------|
E|-------------|-------------|-------------|-------------|

e|-2-2-2-2--2--|-2-2-2-2--2--|-2-2-2-2--2--|-3-3-3-3--2--|-3-3-3-3--2-|
B|-3-3-3-3--3--|-3-3-3-3--3--|-3-3-3-3--3--|-3-3-3-3--3--|-3-3-3-3--3-|
G|-2-2-2-2--2--|-2-2-2-2--2--|-2-2-2-2--2--|-2-2-2-2--2--|-2-2-2-2--2-|x2
D|-0-0-0-0--0--|-0-0-0-0--0--|-0-0-0-0--0--|-0-0-0-0--0--|-0-0-0-0--0-|
A|-------------|-------------|-------------|-------------|------------|
E|-------------|-------------|-------------|-------------|------------|

e|-3-3-3-3-3-3-|-3-3-3-3-3-3-|-3-3-3-3-3-3-|-3-3-3-3-3-3-|
B|-0-0-0-0-0-0-|-0-0-0-0-0-0-|-0-0-0-0-0-0-|-0-0-0-0-0-0-|
G|-0-0-0-0-0-0-|-0-0-0-0-0-0-|-0-0-0-0-0-0-|-0-0-0-0-0-0-|
D|-0-0-0-0-0-0-|-0-0-0-0-0-0-|-0-0-0-0-0-0-|-0-0-0-0-0-0-|
A|-2-2-2-2-2-2-|-2-2-2-2-2-2-|-2-2-2-2-2-2-|-2-2-2-2-2-2-|
E|-3-3-3-3-3-3-|-2-3-3-3-3-3-|-3-3-3-3-3-3-|-2-3-3-3-3-3-|

e|-2-2-2-2--2--|-2-2-2-2--2--|-2-2-2-2--2--|-3-3-3-3--2--|-3-3-3-3--2-|
B|-3-3-3-3--3--|-3-3-3-3--3--|-3-3-3-3--3--|-3-3-3-3--3--|-3-3-3-3--3-|
G|-2-2-2-2--2--|-2-2-2-2--2--|-2-2-2-2--2--|-2-2-2-2--2--|-2-2-2-2--2-|
D|-0-0-0-0--0--|-0-0-0-0--0--|-0-0-0-0--0--|-0-0-0-0--0--|-0-0-0-0--0-|
A|-------------|-------------|-------------|-------------|------------|
E|-------------|-------------|-------------|-------------|------------|

e|-3-3-3-3-3-3-|-3-3-3-3-3-3-|-3-3-3-3-3-3-|-3-3-3-3-3-3-|
B|-0-0-0-0-0-0-|-0-0-0-0-0-0-|-0-0-0-0-0-0-|-0-0-0-0-0-0-|
G|-0-0-0-0-0-0-|-0-0-0-0-0-0-|-0-0-0-0-0-0-|-0-0-0-0-0-0-|
D|-0-0-0-0-0-0-|-0-0-0-0-0-0-|-0-0-0-0-0-0-|-0-0-0-0-0-0-|
A|-2-2-2-2-2-2-|-2-2-2-2-2-2-|-2-2-2-2-2-2-|-2-2-2-2-2-2-|
E|-3-3-3-3-3-3-|-2-3-3-3-3-3-|-3-3-3-3-3-3-|-2-3-3-3-3-3-|

e|-2-2-2-2--2--|-2-2-2-2--2--|-2-2-2-2--2--|-3-3-3-3--2--|-3-3-3-3--2-|
B|-3-3-3-3--3--|-3-3-3-3--3--|-3-3-3-3--3--|-3-3-3-3--3--|-3-3-3-3--3-|
G|-2-2-2-2--2--|-2-2-2-2--2--|-2-2-2-2--2--|-2-2-2-2--2--|-2-2-2-2--2-|
D|-0-0-0-0--0--|-0-0-0-0--0--|-0-0-0-0--0--|-0-0-0-0--0--|-0-0-0-0--0-|
A|-------------|-------------|-------------|-------------|------------|
E|-------------|-------------|-------------|-------------|------------|

e|-0-0-0-0--0---0-0-0-0--0---|-3-------------------------|
B|-0-0-0-0--0---0-0-0-0--0---|-0-------------------------|
G|-1-1-1-1--1---1-1-1-1--1---|-0-------------------------|
D|-2-2-2-2--2---2-2-2-2--2---|-0-------------------------|
A|-2-2-2-2--2---2-2-2-2--2---|-2-------------------------|
E|-0-0-0-0--0---0-0-0-0--0---|-3-------------------------|

e|-2-2-2-2--2--|-2-2-2-2--2--|-2-2-2-2--2--|-3-3-3-3--2--|-3-3-3-3--2-|
B|-3-3-3-3--3--|-3-3-3-3--3--|-3-3-3-3--3--|-3-3-3-3--3--|-3-3-3-3--3-|
G|-2-2-2-2--2--|-2-2-2-2--2--|-2-2-2-2--2--|-2-2-2-2--2--|-2-2-2-2--2-|x2
D|-0-0-0-0--0--|-0-0-0-0--0--|-0-0-0-0--0--|-0-0-0-0--0--|-0-0-0-0--0-|
A|-------------|-------------|-------------|-------------|------------|
E|-------------|-------------|-------------|-------------|------------|

e|-3-3-3-3-3-3-|-3-3-3-3-3-3-|-3-3-3-3-3-3-|-3-3-3-3-3-3-|
B|-0-0-0-0-0-0-|-0-0-0-0-0-0-|-0-0-0-0-0-0-|-0-0-0-0-0-0-|
G|-0-0-0-0-0-0-|-0-0-0-0-0-0-|-0-0-0-0-0-0-|-0-0-0-0-0-0-|
D|-0-0-0-0-0-0-|-0-0-0-0-0-0-|-0-0-0-0-0-0-|-0-0-0-0-0-0-|
A|-2-2-2-2-2-2-|-2-2-2-2-2-2-|-2-2-2-2-2-2-|-2-2-2-2-2-2-|
E|-3-3-3-3-3-3-|-2-3-3-3-3-3-|-3-3-3-3-3-3-|-2-3-3-3-3-3-|

e|-2-2-2-2--2--|-2-2-2-2--2--|-2-2-2-2--2--|-3-3-3-3--2--|-3-3-3-3--2-|
B|-3-3-3-3--3--|-3-3-3-3--3--|-3-3-3-3--3--|-3-3-3-3--3--|-3-3-3-3--3-|
G|-2-2-2-2--2--|-2-2-2-2--2--|-2-2-2-2--2--|-2-2-2-2--2--|-2-2-2-2--2-|
D|-0-0-0-0--0--|-0-0-0-0--0--|-0-0-0-0--0--|-0-0-0-0--0--|-0-0-0-0--0-|
A|-------------|-------------|-------------|-------------|------------|
E|-------------|-------------|-------------|-------------|------------|

e|-3-3-3-3-3-3-|-3-3-3-3-3-3-|-3-3-3-3-3-3-|-3-3-3-3-3-3-|
B|-0-0-0-0-0-0-|-0-0-0-0-0-0-|-0-0-0-0-0-0-|-0-0-0-0-0-0-|
G|-0-0-0-0-0-0-|-0-0-0-0-0-0-|-0-0-0-0-0-0-|-0-0-0-0-0-0-|
D|-0-0-0-0-0-0-|-0-0-0-0-0-0-|-0-0-0-0-0-0-|-0-0-0-0-0-0-|
A|-2-2-2-2-2-2-|-2-2-2-2-2-2-|-2-2-2-2-2-2-|-2-2-2-2-2-2-|
E|-3-3-3-3-3-3-|-2-3-3-3-3-3-|-3-3-3-3-3-3-|-2-3-3-3-3-3-|

e|-2-2-2-2--2--|-2-2-2-2--2--|-2-2-2-2--2--|-3-3-3-3--2--|-3-3-3-3--2-|
B|-3-3-3-3--3--|-3-3-3-3--3--|-3-3-3-3--3--|-3-3-3-3--3--|-3-3-3-3--3-|
G|-2-2-2-2--2--|-2-2-2-2--2--|-2-2-2-2--2--|-2-2-2-2--2--|-2-2-2-2--2-|
D|-0-0-0-0--0--|-0-0-0-0--0--|-0-0-0-0--0--|-0-0-0-0--0--|-0-0-0-0--0-|
A|-------------|-------------|-------------|-------------|------------|
E|-------------|-------------|-------------|-------------|------------|

e|-0-0-0-0--0---0-0-0-0--0---|-3-------------------------|
B|-0-0-0-0--0---0-0-0-0--0---|-0-------------------------|
G|-1-1-1-1--1---1-1-1-1--1---|-0-------------------------|
D|-2-2-2-2--2---2-2-2-2--2---|-0-------------------------|
A|-2-2-2-2--2---2-2-2-2--2---|-2-------------------------|
E|-0-0-0-0--0---0-0-0-0--0---|-3-------------------------|


Piano part:

e|---------------------------------17---17-17-17-17-15-14-15-14----|
B|---------------------------15---------------------------------15-|
G|-14---14-14-14-12-11-12-14---------------------------------------|
D|-----------------------------------------------------------------|
A|-----------------------------------------------------------------|
E|-----------------------------------------------------------------|

e|-17-17-17-17--15--17-17-17-17--15-|
B|----------------------------------|
G|----------------------------------|
D|----------------------------------|
A|----------------------------------|
E|----------------------------------|

e|-3-3-3-3-3-3-|-3-3-3-3-3-3-|-3-3-3-3-3-3-|-3-3-3-3-3-3-|
B|-0-0-0-0-0-0-|-0-0-0-0-0-0-|-0-0-0-0-0-0-|-0-0-0-0-0-0-|
G|-0-0-0-0-0-0-|-0-0-0-0-0-0-|-0-0-0-0-0-0-|-0-0-0-0-0-0-|
D|-0-0-0-0-0-0-|-0-0-0-0-0-0-|-0-0-0-0-0-0-|-0-0-0-0-0-0-|
A|-2-2-2-2-2-2-|-2-2-2-2-2-2-|-2-2-2-2-2-2-|-2-2-2-2-2-2-|
E|-3-3-3-3-3-3-|-2-3-3-3-3-3-|-3-3-3-3-3-3-|-2-3-3-3-3-3-|

e|-2-2-2-2--2--|-2-2-2-2--2--|-2-2-2-2--2--|-3-3-3-3--2--|-3-3-3-3--2-|
B|-3-3-3-3--3--|-3-3-3-3--3--|-3-3-3-3--3--|-3-3-3-3--3--|-3-3-3-3--3-|
G|-2-2-2-2--2--|-2-2-2-2--2--|-2-2-2-2--2--|-2-2-2-2--2--|-2-2-2-2--2-|
D|-0-0-0-0--0--|-0-0-0-0--0--|-0-0-0-0--0--|-0-0-0-0--0--|-0-0-0-0--0-|
A|-------------|-------------|-------------|-------------|------------|
E|-------------|-------------|-------------|-------------|------------|

e|-3-3-3-3-3-3-|-3-3-3-3-3-3-|-3-3-3-3-3-3-|-3-3-3-3-3-3-|
B|-0-0-0-0-0-0-|-0-0-0-0-0-0-|-0-0-0-0-0-0-|-0-0-0-0-0-0-|
G|-0-0-0-0-0-0-|-0-0-0-0-0-0-|-0-0-0-0-0-0-|-0-0-0-0-0-0-|
D|-0-0-0-0-0-0-|-0-0-0-0-0-0-|-0-0-0-0-0-0-|-0-0-0-0-0-0-|
A|-2-2-2-2-2-2-|-2-2-2-2-2-2-|-2-2-2-2-2-2-|-2-2-2-2-2-2-|
E|-3-3-3-3-3-3-|-2-3-3-3-3-3-|-3-3-3-3-3-3-|-2-3-3-3-3-3-|

e|-2-2-2-2--2--|-2-2-2-2--2--|-2-2-2-2--2--|-3-3-3-3--2--|-3-3-3-3--2-|
B|-3-3-3-3--3--|-3-3-3-3--3--|-3-3-3-3--3--|-3-3-3-3--3--|-3-3-3-3--3-|
G|-2-2-2-2--2--|-2-2-2-2--2--|-2-2-2-2--2--|-2-2-2-2--2--|-2-2-2-2--2-|
D|-0-0-0-0--0--|-0-0-0-0--0--|-0-0-0-0--0--|-0-0-0-0--0--|-0-0-0-0--0-|
A|-------------|-------------|-------------|-------------|------------|
E|-------------|-------------|-------------|-------------|------------|

e|-0-0-0-0--0---0-0-0-0--0---|-3-------------------------|
B|-0-0-0-0--0---0-0-0-0--0---|-0-------------------------|
G|-1-1-1-1--1---1-1-1-1--1---|-0-------------------------|
D|-2-2-2-2--2---2-2-2-2--2---|-0-------------------------|
A|-2-2-2-2--2---2-2-2-2--2---|-2-------------------------|
E|-0-0-0-0--0---0-0-0-0--0---|-3-------------------------|

e|-2-2-2-2--2--|-2-2-2-2--2--|-2-2-2-2--2--|-3-3-3-3--2--|-3-3-3-3--2-|
B|-3-3-3-3--3--|-3-3-3-3--3--|-3-3-3-3--3--|-3-3-3-3--3--|-3-3-3-3--3-|
G|-2-2-2-2--2--|-2-2-2-2--2--|-2-2-2-2--2--|-2-2-2-2--2--|-2-2-2-2--2-|x2
D|-0-0-0-0--0--|-0-0-0-0--0--|-0-0-0-0--0--|-0-0-0-0--0--|-0-0-0-0--0-|
A|-------------|-------------|-------------|-------------|------------|
E|-------------|-------------|-------------|-------------|------------|

e|-3-3-3-3-3-3-|-3-3-3-3-3-3-|-3-3-3-3-3-3-|-3-3-3-3-3-3-|
B|-0-0-0-0-0-0-|-0-0-0-0-0-0-|-0-0-0-0-0-0-|-0-0-0-0-0-0-|
G|-0-0-0-0-0-0-|-0-0-0-0-0-0-|-0-0-0-0-0-0-|-0-0-0-0-0-0-|
D|-0-0-0-0-0-0-|-0-0-0-0-0-0-|-0-0-0-0-0-0-|-0-0-0-0-0-0-|
A|-2-2-2-2-2-2-|-2-2-2-2-2-2-|-2-2-2-2-2-2-|-2-2-2-2-2-2-|
E|-3-3-3-3-3-3-|-2-3-3-3-3-3-|-3-3-3-3-3-3-|-2-3-3-3-3-3-|

e|-2-2-2-2--2--|-2-2-2-2--2--|-2-2-2-2--2--|-3-3-3-3--2--|-3-3-3-3--2-|
B|-3-3-3-3--3--|-3-3-3-3--3--|-3-3-3-3--3--|-3-3-3-3--3--|-3-3-3-3--3-|
G|-2-2-2-2--2--|-2-2-2-2--2--|-2-2-2-2--2--|-2-2-2-2--2--|-2-2-2-2--2-|
D|-0-0-0-0--0--|-0-0-0-0--0--|-0-0-0-0--0--|-0-0-0-0--0--|-0-0-0-0--0-|
A|-------------|-------------|-------------|-------------|------------|
E|-------------|-------------|-------------|-------------|------------|

e|-3-3-3-3-3-3-|-3-3-3-3-3-3-|-3-3-3-3-3-3-|-3-3-3-3-3-3-|
B|-0-0-0-0-0-0-|-0-0-0-0-0-0-|-0-0-0-0-0-0-|-0-0-0-0-0-0-|
G|-0-0-0-0-0-0-|-0-0-0-0-0-0-|-0-0-0-0-0-0-|-0-0-0-0-0-0-|
D|-0-0-0-0-0-0-|-0-0-0-0-0-0-|-0-0-0-0-0-0-|-0-0-0-0-0-0-|
A|-2-2-2-2-2-2-|-2-2-2-2-2-2-|-2-2-2-2-2-2-|-2-2-2-2-2-2-|
E|-3-3-3-3-3-3-|-2-3-3-3-3-3-|-3-3-3-3-3-3-|-2-3-3-3-3-3-|

e|-2-2-2-2--2--|-2-2-2-2--2--|-2-2-2-2--2--|-3-3-3-3--2--|-3-3-3-3--2-|
B|-3-3-3-3--3--|-3-3-3-3--3--|-3-3-3-3--3--|-3-3-3-3--3--|-3-3-3-3--3-|
G|-2-2-2-2--2--|-2-2-2-2--2--|-2-2-2-2--2--|-2-2-2-2--2--|-2-2-2-2--2-|
D|-0-0-0-0--0--|-0-0-0-0--0--|-0-0-0-0--0--|-0-0-0-0--0--|-0-0-0-0--0-|
A|-------------|-------------|-------------|-------------|------------|
E|-------------|-------------|-------------|-------------|------------|

e|-0-0-0-0--0---0-0-0-0--0---|-3-------------------------|
B|-0-0-0-0--0---0-0-0-0--0---|-0-------------------------|
G|-1-1-1-1--1---1-1-1-1--1---|-0-------------------------|
D|-2-2-2-2--2---2-2-2-2--2---|-0-------------------------|
A|-2-2-2-2--2---2-2-2-2--2---|-2-------------------------|
E|-0-0-0-0--0---0-0-0-0--0---|-3-------------------------|

e|-2-2-2-2--2--|-2-2-2-2--2--|-2-2-2-2--2--|-3-3-3-3--2--|-3-3-3-3--2-|
B|-3-3-3-3--3--|-3-3-3-3--3--|-3-3-3-3--3--|-3-3-3-3--3--|-3-3-3-3--3-|
G|-2-2-2-2--2--|-2-2-2-2--2--|-2-2-2-2--2--|-2-2-2-2--2--|-2-2-2-2--2-|x3
D|-0-0-0-0--0--|-0-0-0-0--0--|-0-0-0-0--0--|-0-0-0-0--0--|-0-0-0-0--0-|
A|-------------|-------------|-------------|-------------|------------|
E|-------------|-------------|-------------|-------------|------------|

e|-2-2-2-2--2--|-2-2-2-2--2--|-2-2-2-2--2--|-3--2--2--2-2-|
B|-3-3-3-3--3--|-3-3-3-3--3--|-3-3-3-3--3--|-3--3--3--3-3-|
G|-2-2-2-2--2--|-2-2-2-2--2--|-2-2-2-2--2--|-2--2--2--2-2-|
D|-0-0-0-0--0--|-0-0-0-0--0--|-0-0-0-0--0--|-0--0--0--0-0-|
A|-------------|-------------|-------------|--------------|
E|-------------|-------------|-------------|--------------|

__________________________________________________________________________

                          ~Astair~

 All credit for "Astair" goes to Chris Caceres (Unregistered).

the 2 *'s mean you repeat whats in between them, and then number-x is the
amount of repeats including the original, so 3x mean looped 3 times but
played 4 total.

h = hammer on
V = Down Strum

(Capo 4)


E||----------------------|----------------------|----------------------|
B||----------------------|----------------------|----------------------|
G||----------------------|----------------------|----------------------|
D||-------2---------2----|-------2---------2----|-------2---------2----|
A||--3---------3---------|--3---------3---------|--2---------2---------|
E||----------------------|----------------------|----------------------|

----------------------|----------------------|----------------------|
----------------------|----------------------|----------------------|
----------------------|----------------------|----------------------|
-------2---------2----|-------2---------2----|-------2---------2----|
--2---------2---------|--0---------0---------|--0---------0---------|
----------------------|----------------------|----------------------|

----------------------|----------------------|----------------------|
----------------------|----------------------|----------------------|
----------------------|----------------------|----------------------|
-------2---------2----|-------2---------2----|-------3---------3----|
----------------------|----------------------|----------------------|
--3---------3---------|--3---------3---------|--1---------1---------|

----------------------|----------------------|----------------------|
----------------------|----------------------|----------------------|
----------------------|----------------------|----------------------|
-------3---------3----|-------0---------0----|-------0---------0----|
----------------------|------------0---------|--2-------------------|
--1---------1---------|--3-------------------|------------3---------|

|-------------------------|------------------------|-----------------------|
|---1-------------1-------|--3-------------3-------|--1-------------1------|
|*----------0-------------|----------0-------------|----------0------------|
|*-------2-----------2----|-------0-----------0----|-------2-----------2---|
|---3----------3----------|--2----------2----------|--0----------0---------|
|-------------------------|------------------------|-----------------------|

------------------------|------------------------|------------------------|
--1-------------0-------|--1-------------1-------|--1-------------1-------|
----------0-------------|----------2-------------|----------2-------------|
-------2-----------0----|-------3-----------3----|-------3-----------3----|
------------------------|------------------------|------------------------|
--3----------3----------|--1----------1----------|--1----------1----------|


                                                     3x
-------------------------|---------------------------||--------------------|
--0-------------0--------|-----0-----------0---------||--1-------------1---|
----------0-----------0--|-----------0-----------0--*||----------0---------|
-------0-----------0-----|--------0-----------0-----*||-------2-----------2|
-------------0-----------|--2------------------------||--0----------0------|
--3----------------------|--------------3------------||--------------------|

------------------------|------------------------|------------------------|
--1-------------0-------|--1-------------1-------|--1-------------1-------|
----------0-------------|----------2-------------|----------2-------------|
-------2-----------0----|-------3-----------3----|-------3-----------3----|
------------------------|------------------------|------------------------|
--3----------3----------|--1----------1----------|--1----------1----------|

-------------------------|--------------------------|----------------0-----|
--0-------------0--------|-----0-----------0--------|--1-------------------|
----------0-----------0--|-----------0-----------0--|----------0-----------|
-------0-----------0-----|--------0-----------0-----|-------2-----------2--|
-------------0-----------|--2-----------------------|--3----------3--------|
--3----------------------|--------------3-----------|----------------------|

----------------0-------|----------------0-------|----------------0-------|
--3---------------------|--1---------------------|--1---------------------|
----------0-------------|----------0-------------|----------0-------------|
-------0-----------0----|-------2-----------2----|-------2-----------0----|
--2----------2----------|--0----------0----------|------------------------|
------------------------|------------------------|--3----------3----------|

----------------1-------|----------------1-------|-------------------------|
--1---------------------|--1---------------------|--0-------------0--------|
----------2-------------|----------2-------------|----------0-----------0--|
-------3-----------3----|-------3-----------3----|-------0-----------0-----|
------------------------|------------------------|-------------0-----------|
--1----------1----------|--1----------1----------|--3----------------------|

--------------------------||-------------------------|---------------------|
-----0-----------0--------||---1-------------1-------|--3-------------3----|
-----------0-----------0--||*----------0-------------|----------0----------|
--------0-----------0-----||*-------2-----------2----|-------0-----------0-|
--2-----------------------||---3----------3----------|--2----------2-------|
--------------3-----------||-------------------------|---------------------|

------------------------|------------------------|------------------------|
--1-------------1-------|--1-------------0-------|--1-------------1-------|
----------0-------------|----------0-------------|----------2-------------|
-------2-----------2----|-------2-----------0----|-------3-----------3----|
--0----------0----------|------------------------|------------------------|
------------------------|--3----------3----------|--1----------1----------|


------------------------|-------------------------|-----------------------|
--1-------------1-------|--0-------------0--------|-----0-----------0-----|
----------2-------------|----------0-----------0--|-----------0----------0|
-------3-----------3----|-------0-----------0-----|--------0-----------0--|
------------------------|-------------0-----------|--2--------------------|
--1----------1----------|--3----------------------|--------------3--------|

-------------------------|------------------------|------------------------|
---1-------------1-------|--1-------------0-------|--1-------------1-------|
*----------0-------------|----------0-------------|----------2-------------|
*-------2-----------2----|-------2-----------0----|-------3-----------3----|
---0----------0----------|------------------------|------------------------|
-------------------------|--3----------3----------|--1----------1----------|

------------------------|-------------------------|------------------------|
--1-------------1-------|--0-------------0--------|-----0-----------0------|
----------2-------------|----------0-----------0--|-----------0-----------0|
-------3-----------3----|-------0-----------0-----|--------0-----------0---|
------------------------|-------------0-----------|--2---------------------|
--1----------1----------|--3----------------------|--------------3---------|

----------------0-------|----------------0-------|----------------0-------|
--1---------------------|--3---------------------|--1---------------------|
----------0-------------|----------0-------------|----------0-------------|
-------2-----------2----|-------0-----------0----|-------2-----------2----|
--3----------3----------|--2----------2----------|--0----------0----------|
------------------------|------------------------|------------------------|

----------------0-------|------------------------|------------------------|
--1---------------------|--1-------------1-------|--1-------------1-------|
----------0-------------|----------2-------------|----------2-------------|
-------2-----------0----|-------3-----------3----|-------3-----------3----|
------------------------|------------------------|------------------------|
--3----------3----------|--1----------1----------|--1----------1----------|

-------------------------|--------------------------|----------------------|
--0-------------0--------|-----0-----------0--------|--1-------------1-----|
----------0-----------0--|-----------0-----------0--|----------0-----------|
-------0-----------0-----|--------0-----------0-----|-------2-----------2--|
-------------0-----------|--2-----------------------|--0----------0--------|
--3----------------------|--------------3-----------|----------------------|

------------------------|------------------------|------------------------|
--1-------------0-------|--1-------------1-------|--1-------------1-------|
----------0-------------|----------2-------------|----------2-------------|
-------2-----------0----|-------3-----------3----|-------3-----------3----|
------------------------|------------------------|------------------------|
--3----------3----------|--1----------1----------|--1----------1----------|

-------------------------|------------------------|------------------------|
--0h-1-----------1-------|--1-------------0-------|--1-------------1-------|
-----------0-------------|----------0-------------|----------2-------------|
--------2-----------2----|-------2-----------0----|-------3-----------3----|
--0-----------0----------|------------------------|------------------------|
-------------------------|--3----------3----------|--1----------1----------|

------------------------|-------------------------|------------------------|
--1-------------1-------|--0-------------0--------|-----0-----------0------|
----------2-------------|----------0-----------0--|-----------0-----------0|
-------3-----------3----|-------0-----------0-----|--------0-----------0---|
------------------------|-------------0-----------|--2---------------------|
--1----------1----------|--3----------------------|--------------3---------|

|-----------------0-------|----------------0-------|----------------0------|
|---1---------------------|--3---------------------|--1--------------------|
|*----------0-------------|----------0-------------|----------0------------|
|*-------2-----------2----|-------0-----------0----|-------2-----------2---|
|---3----------3----------|--2----------2----------|--0----------0---------|
|-------------------------|------------------------|-----------------------|

----------------0-------|------------------------|------------------------|
--1---------------------|--1-------------1-------|--1-------------1-------|
----------0-------------|----------2-------------|----------2-------------|
-------2-----------0----|-------3-----------3----|-------3-----------3----|
------------------------|------------------------|------------------------|
--3----------3----------|--1----------1----------|--1----------1----------|

-------------------------|-------------------------|-----------------------|
--0-------------0--------|-----0-----------0-------|-1-------------1-------|
----------0-----------0--|-----------0-----------0-|---------0-------------|
-------0-----------0-----|--------0-----------0----|------2-----------2----|
-------------0-----------|--2----------------------|-0----------0----------|
--3----------------------|--------------3----------|-----------------------|

------------------------|------------------------|------------------------|
--1-------------0-------|--1-------------1-------|--1-------------1-------|
----------0-------------|----------2-------------|----------2-------------|
-------2-----------0----|-------3-----------3----|-------3-----------3----|
------------------------|------------------------|------------------------|
--3----------3----------|--1----------1----------|--1----------1----------|

-------------------------|--------------------------|----------------0-----|
--0-------------0--------|-----0-----------0--------|--1-------------------|
----------0-----------0--|-----------0-----------0--|----------0-----------|
-------0-----------0-----|--------0-----------0-----|-------2-----------2--|
-------------0-----------|--2-----------------------|--3----------3--------|
--3----------------------|--------------3-----------|----------------------|

----------------0-------|----------------0-------|----------------0-------|
--3---------------------|--1---------------------|--1---------------------|
----------0-------------|----------0-------------|----------0-------------|
-------0-----------0----|-------2-----------2----|-------2-----------0----|
--2----------2----------|--0----------0----------|------------------------|
------------------------|------------------------|--3----------3----------|

----------------1-------|----------------1-------|-------------------------|
--1---------------------|--1---------------------|--0-------------0--------|
----------2-------------|----------2-------------|----------0-----------0--|
-------3-----------3----|-------3-----------3----|-------0-----------0-----|
------------------------|------------------------|-------------0-----------|
--1----------1----------|--1----------1----------|--3----------------------|


                             V
--------------------------|-------------------||
-----0-----------0--------|--1----------------||
-----------0-----------0--|--0----------------||
--------0-----------0-----|--2----------------||
--2-----------------------|--3----------------||
--------------3-----------|-------------------||

__________________________________________________________________________


                          ~Oh Dear~

Intro:

e|-12-12-12-12-12-12-|
B|-11----------------|
G|-12----------------|
D|-------------------|
A|-------------------|
E|-------------------|

e|-3--3--3--3-|
B|-3--3--3--3-|
G|-4--4--4--4-|
D|-5--5--5--5-|
A|-5--5--5--5-|
E|-3--3--3--3-|

Verse:

e|-3--3--3--3-|-7--7--7--7-|-5--5--5--5-|-3--3--3--3-|
B|-3--3--3--3-|-7--7--7--7-|-5--5--5--5-|-5--5--5--5-|
G|-4--4--4--4-|-8--8--8--8-|-6--6--6--6-|-5--5--5--5-|
D|-5--5--5--5-|-9--9--9--9-|-7--7--7--7-|-5--5--5--5-|
A|-5--5--5--5-|-9--9--9--9-|-7--7--7--7-|-3--3--3--3-|x2
E|-3--3--3--3-|-7--7--7--7-|-5--5--5--5-|------------|

Chorus:

e|-3--3--3--3-|-7--7--7--7-7-|-5--5--5--5-|-3--3--3--3-3-|
B|-3--3--3--3-|-7--7--7--7-7-|-5--5--5--5-|-5--5--5--5-5-|
G|-4--4--4--4-|-8--8--8--8-8-|-6--6--6--6-|-5--5--5--5-5-|
D|-5--5--5--5-|-9--9--9--9-9-|-7--7--7--7-|-5--5--5--5-5-|
A|-5--5--5--5-|-9--9--9--9-9-|-7--7--7--7-|-3--3--3--3-3-|x2
E|-3--3--3--3-|-7--7--7--7-7-|-5--5--5--5-|--------------|

Verse:

e|-3--3--3--3-|-7--7--7--7-|-5--5--5--5-|-3--3--3--3-|
B|-3--3--3--3-|-7--7--7--7-|-5--5--5--5-|-5--5--5--5-|
G|-4--4--4--4-|-8--8--8--8-|-6--6--6--6-|-5--5--5--5-|
D|-5--5--5--5-|-9--9--9--9-|-7--7--7--7-|-5--5--5--5-|
A|-5--5--5--5-|-9--9--9--9-|-7--7--7--7-|-3--3--3--3-|
E|-3--3--3--3-|-7--7--7--7-|-5--5--5--5-|------------|

e|-3--3--3--3-|-7--7--7--7-|-5---3---|
B|-3--3--3--3-|-7--7--7--7-|-5---5---|
G|-4--4--4--4-|-8--8--8--8-|-6---5---|
D|-5--5--5--5-|-9--9--9--9-|-7---5---|
A|-5--5--5--5-|-9--9--9--9-|-7---3---|
E|-3--3--3--3-|-7--7--7--7-|-5-------|


Chorus x1

Piano Solo

e|-3--3--3--3-|-7--7--7--7-7-|-5--5--5--5-|-3--3--3--3-3-|
B|-3--3--3--3-|-7--7--7--7-7-|-5--5--5--5-|-5--5--5--5-5-|
G|-4--4--4--4-|-8--8--8--8-8-|-6--6--6--6-|-5--5--5--5-5-|
D|-5--5--5--5-|-9--9--9--9-9-|-7--7--7--7-|-5--5--5--5-5-|
A|-5--5--5--5-|-9--9--9--9-9-|-7--7--7--7-|-3--3--3--3-3-|
E|-3--3--3--3-|-7--7--7--7-7-|-5--5--5--5-|--------------|

e|-3--3--3--3--3--3--3--3-3-|  |-5-5-5-5-|-3----|
B|-3--3--3--3--5--5--5--5-5-|  |-5-5-5-5-|-5----|
G|-4--4--4--4--5--5--5--5-5-|  |-6-6-6-6-|-5----|
D|-5--5--5--5--5--5--5--5-5-|  |-7-7-7-7-|-5----|
A|-5--5--5--5--3--3--3--3-3-|x3|-7-7-7-7-|-3----|
E|-3--3--3--3---------------|  |-5-5-5-5-|------|

Chorus x1

e|-3----|-7----|-8---|-6---|-3---|-7---|-8----|-5--3--3---|
B|-3----|-7----|-8---|-6---|-3---|-7---|-8----|-5--5--3---|
G|-6----|-8----|-9---|-7---|-4---|-8---|-9----|-6--5--4---|
D|-5----|-9----|-10--|-8---|-5---|-9---|-10---|-7--5--5---|
A|-5----|-9----|-10--|-8---|-5---|-9---|-10---|-7--3--5---|
E|-3----|-7----|-8---|-6---|-3---|-7---|-8----|-5-----3---|

__________________________________________________________________________

                        ~Cold December~

   v ^ v ^       v ^ v ^      v ^ v ^
e|---------|   |---------|  |---------|
B|---------|   |---------|  |---------|
G|---------|   |-8-8-8-8-|  |---------|
D|-8-8-8-8-|   |-8-8-8-8-|  |-8-8-8-8-|
A|-8-8-8-8-|x24|-6-6-6-6-|x4|-8-8-8-8-|x16
E|-6-6-6-6-|   |---------|  |-6-6-6-6-|

e|---------|  |---------|   |---------|
B|---------|  |---------|   |---------|
G|-8-8-8-8-|  |---------|   |-8-8-8-8-|
D|-8-8-8-8-|  |-8-8-8-8-|   |-8-8-8-8-|
A|-6-6-6-6-|x4|-8-8-8-8-|x12|-6-6-6-6-|x4
E|---------|  |-6-6-6-6-|   |---------|

e|---------|   |---------|  |-------------|
B|---------|   |---------|  |-------------|
G|---------|   |-8-8-8-8-|  |-10-10-10-10-|
D|-8-8-8-8-|   |-8-8-8-8-|  |-10-10-10-10-|
A|-8-8-8-8-|x12|-6-6-6-6-|x8|-8--8--8--8--|x4
E|-6-6-6-6-|   |---------|  |-------------|

e|---------|  |---------|  |---------|
B|---------|  |---------|  |---------|
G|---------|  |-8-8-8-8-|  |---------|
D|-8-8-8-8-|  |-8-8-8-8-|  |-8-8-8-8-|
A|-8-8-8-8-|x8|-6-6-6-6-|x4|-8-8-8-8-|x16
E|-6-6-6-6-|  |---------|  |-6-6-6-6-|

e|---------|  |---------|
B|---------|  |---------|
G|-8-8-8-8-|  |---------|
D|-8-8-8-8-|  |-8-8-8-8-|
A|-6-6-6-6-|x4|-8-8-8-8-|x4
E|---------|  |-6-6-6-6-|

e|---------|  |---------|  |---------|
B|---------|  |---------|  |---------|
G|---------|  |-8-8-8-8-|  |---------|
D|-8-8-8-8-|  |-8-8-8-8-|  |-8-8-8-8-|
A|-8-8-8-8-|x8|-6-6-6-6-|x4|-8-8-8-8-|x12
E|-6-6-6-6-|  |---------|  |-6-6-6-6-|

e|---------|  |-------------|  |---------|
B|---------|  |-------------|  |---------|
G|-8-8-8-8-|  |-10-10-10-10-|  |-8-8-8-8-|
D|-8-8-8-8-|  |-10-10-10-10-|  |-8-8-8-8-|
A|-6-6-6-6-|x8|-8--8--8--8--|x4|-6-6-6-6-|x4
E|---------|  |-------------|  |---------|

e|-------------|
B|-------------|
G|-10-10-10-10-|
D|-10-10-10-10-|
A|-8--8--8--8--|x14
E|-------------|

e|---------------------------------|
B|---------------------------------|
G|---------------------------------|
D|-8-8-8-8-8-8-8-8-8-8-8-8-8-8-8-8-|
A|-8-8-8-8-8-8-8-8-8-8-8-8-8-8-8-8-|
E|-6-6-6-6-6-6-6-6-6-6-6-6-6-6-6-6-|

e|---------------------------------------------|
B|---------------------------------------------|
G|-8-8-8-8-----------------8-8-8-8-10-10-10-10-|
D|-8-8-8-8-5-5-5-5-5-5-5-5-8-8-8-8-10-10-10-10-|
A|-6-6-6-6-5-5-5-5-5-5-5-5-6-6-6-6-8--8--8--8--|
E|---------3-3-3-3-3-3-3-3---------------------|

e|-------------------------------------|
B|-------------------------------------|
G|-----------------8-8-8-8-10-10-10-10-|
D|-5-5-5-5-5-5-5-5-8-8-8-8-10-10-10-10-|
A|-5-5-5-5-5-5-5-5-6-6-6-6-8--8--8--8--|
E|-3-3-3-3-3-3-3-3---------------------|

e|-------------------------------------|
B|-------------------------------------|
G|-----------------8-8-8-8-10-10-10-10-|
D|-5-5-5-5-5-5-5-5-8-8-8-8-10-10-10-10-|
A|-5-5-5-5-5-5-5-5-6-6-6-6-8--8--8--8--|
E|-3-3-3-3-3-3-3-3---------------------|

e|-------------------------| |-------------|
B|-------------------------| |-------------|
G|-----------------8-8-8-8-| |-10-10-10-10-|
D|-5-5-5-5-5-5-5-5-8-8-8-8-| |-10-10-10-10-|
A|-5-5-5-5-5-5-5-5-6-6-6-6-| |-8--8--8--8--|x4
E|-3-3-3-3-3-3-3-3---------| |-------------|

e|-6~~-|-----------------6-|
B|-8~~-|-------------------|
G|-8~~-|-11p10-------------|
D|-8~~-|-------8---8---8---|
A|-6~~-|---------6---6-----|
E|-----|-------------------|
 Whoaoao

e|---------|  |---------|  |---------|
B|---------|  |---------|  |---------|
G|---------|  |-8-8-8-8-|  |---------|
D|-8-8-8-8-|  |-8-8-8-8-|  |-8-8-8-8-|
A|-8-8-8-8-|x8|-6-6-6-6-|x4|-8-8-8-8-|x16
E|-6-6-6-6-|  |---------|  |-6-6-6-6-|

e|---------|  |---------|  |-----------|
B|---------|  |---------|  |-----------|
G|-8-8-8-8-|  |---------|  |-----------|
D|-8-8-8-8-|  |-8-8-8-8-|  |-8----8----|
A|-6-6-6-6-|x4|-8-8-8-8-|x4|-8----8----|
E|---------|  |-6-6-6-6-|  |-6----6----|

e|---------|  |---------|   |---------|
B|---------|  |---------|   |---------|
G|-8-8-8-8-|  |---------|   |-8-8-8-8-|
D|-8-8-8-8-|  |-8-8-8-8-|   |-8-8-8-8-|
A|-6-6-6-6-|x4|-8-8-8-8-|x12|-6-6-6-6-|x8
E|---------|  |-6-6-6-6-|   |---------|

e|-------------|  |---------|  |---------|
B|-------------|  |---------|  |---------|
G|-10-10-10-10-|  |---------|  |-8-8-8-8-|
D|-10-10-10-10-|  |-8-8-8-8-|  |-8-8-8-8-|
A|-8--8--8--8--|x4|-8-8-8-8-|x8|-6-6-6-6-|x4
E|-------------|  |-6-6-6-6-|  |---------|

e|---------|   |---------|  |---------|
B|---------|   |---------|  |---------|
G|---------|   |-8-8-8-8-|  |---------|
D|-8-8-8-8-|   |-8-8-8-8-|  |-8-8-8-8-|
A|-8-8-8-8-|x16|-6-6-6-6-|x4|-8-8-8-8-|x12
E|-6-6-6-6-|   |---------|  |-6-6-6-6-|

e|---------|  |---------|   |---------|
B|---------|  |---------|   |---------|
G|-8-8-8-8-|  |---------|   |-8-8-8-8-|
D|-8-8-8-8-|  |-8-8-8-8-|   |-8-8-8-8-|
A|-6-6-6-6-|x4|-8-8-8-8-|x12|-6-6-6-6-|x8
E|---------|  |-6-6-6-6-|   |---------|

e|-------------|  |---------|  |------------|
B|-------------|  |---------|  |------------|
G|-10-10-10-10-|  |-8-8-8-8-|  |10-10-10-10-|
D|-10-10-10-10-|  |-8-8-8-8-|  |10-10-10-10-|
A|-8--8--8--8--|x4|-6-6-6-6-|x4|8--8--8--8--|x14
E|-------------|  |---------|  |------------|

e|---------------------------------|
B|---------------------------------|
G|---------------------------------|
D|-8-8-8-8-8-8-8-8-8-8-8-8-8-8-8-8-|
A|-8-8-8-8-8-8-8-8-8-8-8-8-8-8-8-8-|
E|-6-6-6-6-6-6-6-6-6-6-6-6-6-6-6-6-|

e|---------------------------------------------|
B|---------------------------------------------|
G|-8-8-8-8-----------------8-8-8-8-10-10-10-10-|
D|-8-8-8-8-5-5-5-5-5-5-5-5-8-8-8-8-10-10-10-10-|
A|-6-6-6-6-5-5-5-5-5-5-5-5-6-6-6-6-8--8--8--8--|
E|---------3-3-3-3-3-3-3-3---------------------|

e|-------------------------------------|
B|-------------------------------------|
G|-----------------8-8-8-8-10-10-10-10-|
D|-5-5-5-5-5-5-5-5-8-8-8-8-10-10-10-10-|
A|-5-5-5-5-5-5-5-5-6-6-6-6-8--8--8--8--|
E|-3-3-3-3-3-3-3-3---------------------|

e|-------------------------------------|
B|-------------------------------------|
G|-----------------8-8-8-8-10-10-10-10-|
D|-5-5-5-5-5-5-5-5-8-8-8-8-10-10-10-10-|
A|-5-5-5-5-5-5-5-5-6-6-6-6-8--8--8--8--|
E|-3-3-3-3-3-3-3-3---------------------|

e|-------------------------| |-------------|
B|-------------------------| |-------------|
G|-----------------8-8-8-8-| |-10-10-10-10-|
D|-5-5-5-5-5-5-5-5-8-8-8-8-| |-10-10-10-10-|
A|-5-5-5-5-5-5-5-5-6-6-6-6-| |-8--8--8--8--|x4
E|-3-3-3-3-3-3-3-3---------| |-------------|

e|-6~~6~~6~~6~~-|-------------6-----|
B|-8~~8~~8~~8~~-|-------------6-----|
G|-8~~8~~8~~8~~-|-11p10-------7-----|
D|-8~~8~~8~~8~~-|-------8---8-8-----|
A|-6~~6~~6~~6~~-|---------6---8-----|
E|--------------|-------------6-----|

__________________________________________________________________________

                        ~Desire's Only Fling~

All credit for "Desires only Fling" goes to Huggz60.

This song is played on a twelve string guitar. BUt, it sounds fine on a
regular 6 string.

Intro:
e|------------------------|
B|----5/0--1--0-----------|
G|---------------2--------|
D|------------------5--4--|
A|----7/2--3--2--0--------|
E|------------------3--2--|

Verse:
e|-----0--------3-------5---------0--------2-------0----------2----------|
B|-----------------------------------------------------------------------|
G|---0-------4--------6---------0--------4-------0----------4------------|
D|------------------------------------------------------------------5--4-|
A|----------------------------3------3-2-----2-3-----3-0h2------2--------|
E|-0-----0-3------3-5------5----------------------------------------3--2-|

Chorus:
e|----------0------------0------------2------------2------------3------|
B|---------------------------------------------------------------------|
G|-------0-----0------0-----0------2-----2------2-----0------0-----0---|
D|------------------------------0------------0-------------------------|
A|----2------------2---------------------------------------------------|
E|--------------------------------------------------------3------------|

e|---------3------------2------------2------------0------------2-------|
B|---------------------------------------------------------------------|
G|------0-----0------4-----4------4-----4------0-----0------4-----4----|
D|---------------------------------------------------------------------|
A|----------------2------------2------------3------------2-------------|
E|---3-----------------------------------------------------------------|

Bridge (Chords)
Strumming Pattern:  v  v  v  v^

      Em  D/F#  G    A

e|    0    0    0    0
B|    0    3    3    3
G|    0    2    0    3
D|    2    0    0    3
A|    2    0    x    0
E|    0    2    3    0

__________________________________________________________________________

                        ~Sweet Rose~

**Capo on 1st**

Chords:

   A   E   D
e| 0   0       |
B| 2   0   3   |
G| 2   1   2   |
D| 2   2   0   |
A| 0   2       |
E|     0       |


e|---------------|
B|---------------|
G|-------2-------|
D|-0-1-2---------|
A|-0-------------|
E|---------0-2-4-|

Intro: A E A D A E A

***This lick is NOT relative to capo!***
e|-----------------------------------------|
B|-----------------------------------------|
G|-10~~-10-9-7-5---3-5-7-8---3-5-5-7-7-5-3-|
D|-----------------------------------------|
A|-----------------------------------------|
E|-----------------------------------------|

e|---------------------------------------|
B|---------------------------------------|
G|-8-7-5-7---5---8-7-5-3-----------2-2-3-|
D|-------------------------3-3-3-5-------|
A|---------------------------------------|
E|---------------------------------------|

  A
  My sweet rose
                   E
  As the two of us grow
                          A
  I want you to know that nothing's quite as bad
        D
  As it seems when you're so sad
                 A    E            A
  So remember my rose, remember my rose

  A
  My sweet rose
              E
  I'd like to say
                  A
  I'd like to say no one always gets their way
      D
  And no one always thinks the same
     A    E            A
  My rose, remember my rose

                   E
  When the seasons change
                    D
  And the sky turns grey
                       E
  When the leaves turn brown
          D
  I'll be around

           A
  My sweet rose
                   E
  As the two of us change
                A
  I want you to know that nothing stays the same
      D
  But you and I, we will remain
     A    E            A
  My rose, remember my rose

e|-----------------------------------------------------|
B|-----------------------------------------------------|
G|-3-5-5-7-7-5-3-8-7-5-7---5---8-7-5-3-----------2-2-3-|
D|---------------------------------------3-3-3-5-------|
A|-----------------------------------------------------|
E|-----------------------------------------------------|

                   E
  When the seasons change
                    D
  And the sky turns grey
                       E
  When the leaves turn brown
          D
  I'll be around

  D             A
  I want you to know that nothing stays the same
      D
  But you and I, we will remain
     A    E            A
  My rose, remember my rose

           A
  My sweet rose, I want to be
            A
  I want to be the one to hold you tight
       D
  Have faith in me, I'll be your light
     A     E           A
  My rose, remember my rose

e|--------------------------------------|
B|--------------------------------------|
G|-3-5-5-7-7-5-3-8-7-5-7---5---8-7-5-3--|
D|--------------------------------------|
A|--------------------------------------|
E|--------------------------------------|

                   E
  When the seasons change
                    D
  And the sky turns grey
                       E
  When the leaves turn brown
          D
  I'll be around

  D             A
  I want you to know that nothing stays the same
      D
  But you and I, we will remain
     A    E            A
  My rose, remember my rose


  A             A
  I want you to know that nothing stays the same
      D
  But you and I, we will remain
     A    E            A
  My rose, remember my rose
__________________________________________________________________________

                        ~Songs We Sing~

  INTRO:
    E|-----------------------------------|
    B|-----------------------------------|
    G|-----------------------------------|
    D|-2--2-0----------------------------|
    A|--------3-2--0-2-3-2---0-2-3-2-----|
    E|---------------------3---------3-3-|

  VERSE:                 D C   G G       D C G
    E|-------------------2-0---3-3-------2-0-3-|
    B|---------------2---3-1---0-0-------3-1-0-|
    G|-------0---------2-2-0---0-0---0---2-0-0-|
    D|---4-----2---------0-2---0-0-----2-0-2-0-|
    A|-2---------2-0-------3---2-2---------3-2-|
    E|-----0-----------------3-3-3-0---------3-|

   CHORUS:
      |-----Em----| |----A-----|  |----Em--------------|  A
    E|-0-0-0-0-0-0--0-0-0-0-0-0---0-0-0-0-0-0--0-------|
    B|-0-0-0-0-0-0--2-2-2-2-2-2---0-0-0-0-0-0--2-------|
    G|-0-0-0-0-0-0--2-2-2-2-2-2---0-0-0-0-0-0--2-------|
    D|-2-2-2-2-2-2--2-2-2-2-2-2---2-2-2-2-2-2--2-------|
    A|-2-2-2-2-2-2--0-0-0-0-0-0---2-2-2-2-2-2--0-------|
    E|-0-0-0-0-0-0--------------0-0-0-0-0-0-0----------|

  VERSE 2:               D C   G G       D C G
    E|-------------------2-0---3-3-------2-0-3-|
    B|---------------2---3-1---0-0-------3-1-0-|
    G|-------0---------2-2-0---0-0---0---2-0-0-|
    D|---4-----2---------0-2---0-0-----2-0-2-0-|
    A|-2---------2-0-------3---2-2---------3-2-|
    E|-----0-----------------3-3-3-0---------3-|

  CHORUS:
      |-----Em----| |----A-----|  |-----Em-------------|  A
    E|-0-0-0-0-0-0--0-0-0-0-0-0---0-0-0-0-0-0--0-------|
    B|-0-0-0-0-0-0--2-2-2-2-2-2---0-0-0-0-0-0--2-------|
    G|-0-0-0-0-0-0--2-2-2-2-2-2---0-0-0-0-0-0--2-------|
    D|-2-2-2-2-2-2--2-2-2-2-2-2---2-2-2-2-2-2--2-------|
    A|-2-2-2-2-2-2--0-0-0-0-0-0---2-2-2-2-2-2--0-------|
    E|-0-0-0-0-0-0--------------0-0-0-0-0-0-0----------|
__________________________________________________________________________

                        ~Sunshine~
***Capo 1st***

Chords:(Not relative to capo)

    D  A  G  F#

e|  2  0  3  3  |
B|  3  2  0  3  |
G|  2  2  0  4  |
D|  0  2  0  5  |
A|     0  2  5  |
E|        3  3  |


Intro:(Relative to capo)

e|---------------|---2-2-|
B|---------------|---3-3-|
G|-4p2---2-------|---2-2-|
D|-0~~-4---0---0-|-0-0-0-|x6
A|-----------0---|-0-----|
E|---------------|-------|

  D     A
  Suuuunshine
      G              A
  I'd really like to tell you
        D     A
  Oh my suuuunshine
       F#          G         D
  Even though your skies are blue
                A
  You're drying up my bed
  F#            G
  How can I get any rest now?
  D         A              D
  Sha la la la la la la la la

  D      A
  Soooomeday
  G                A
  You will get the best of me
     D       A
  Oh sooooomeday
           F#       G       D
  Probably when I'm old and grey
            A
  I'm lying in my bed
      F#             G
  And I will soon be put to rest now
  D         A           D
  Sha la la la la la la la

Lead:(Relative to capo)

e|---------|-5----5--5----5--|---5-5/7-5---5-----|
B|---------|-5h7-(7)-5h7-(7)-|---5-------7---5---|
G|---------|-----------------|-----------------7-|
D|-0-------|-----------------|x2-----------------|
A|---0-2-4-|-----------------|-------------------|
E|---------|-----------------|-------------------|

e|-5----5--5----5--|---5-5/7-10-7---------|-9/10-10-9--|
B|-5h7-(7)-5h7-(7)-|---5----------10-7-8~~|-9/10-10-10-|
G|-----------------|----------------------|-8/9--9--9--|
D|-----------------|x2--------------------|------------|
A|-----------------|----------------------|------------|
E|-----------------|----------------------|------------|

e|-5/7-5-----------|------------------------------|
B|-------5h7p5-----|------10----/10---10---10-----|
G|-------------4-7-|-7/11----11-----9----9------7-|
D|-----------------|--------------------------9---|
A|-----------------|------------------------------|
E|-----------------|------------------------------|

e|---------10-|
B|------10-10-|
G|-9/11----11-|
D|------------|
A|------------|
E|------------|

  D      A
  Suuuuunshine
      G              A
  I'd really like to tell you
        D     A
  Oh my suuuunshine
       F#          G         D
  Even though your skies are blue
                A
  You're drying up my bed
  F#            G
  How can I get any rest now?
  D         A           D
  Sha la la la la la la la

  D      A
  Soooomeday
  G                A
  You will get the best of me
     D      A
  Oh soooomeday
           F#       G       D
  Probably when I'm old and grey
            A
  I'm lying in my bed
      F#             G                 D   A
  And I will soon be put to rest now

  D         A
  I'm lying in my bed
      F#             G                D   A
  And I will soon be put to rest now (Ooh ooh) [x2]
  D         A           D
  Sha la la la la la la la

__________________________________________________________________________

                        ~Whiskey and Wine~

e|-------------------------7-----------------|
B|---------------------7---7-----------------|
G|-11---11---11---11---8---8---8---8---10-11-|
D|-11---11---11---11---9---9---9---9---11-11-|
A|-9----9----9----9----9---9---9---9---11-9--|
E|-x----x----x----x----7---7---7---7---9--x--|

e|-------------------------7--------------9--|
B|---------------------7---7--------------10-|
G|-11---11---11---11---8---8---8---8---10-11-|
D|-11---11---11---11---9---9---9---9---11-11-|x2
A|-9----9----9----9----9---9---9---9---11-9--|
E|-x----x----x----x----7---7---7---7---9--x--|

e|-------------------x--x--------9--|
B|-------------------x--x--9--9--9--|
G|-11--11--10-10-10--8--8--10-10-10-|
D|-11--11--11-11-11--9--9--11-11-11-|
A|-9---9---11-11-11--9--9--11-11-11-|
E|-x---x---9--9--9---7--7--9--9--9--|

e|---------7--7--7--7--x--9--|
B|---------7--7--7--7--x--10-|
G|-11--11--8--8--8--8--10-11-|
D|-11--11--9--9--9--9--11-11-|
A|-9---9---9--9--9--9--11-9--|
E|-x---x---7--7--7--7--9--x--|

e|---------7--7--7--7--x--9--|
B|---------7--7--7--7--x--10-|
G|-11--11--8--8--8--8--10-11-|
D|-11--11--9--9--9--9--11-11-|
A|-9---9---9--9--9--9--11-9--|
E|-x---x---7--7--7--7--9--x--|

e|-------------------------7--------------9--|
B|---------------------7---7--------------10-|
G|-11---11---11---11---8---8---8---8---10-11-|
D|-11---11---11---11---9---9---9---9---11-11-|x2
A|-9----9----9----9----9---9---9---9---11-9--|
E|-x----x----x----x----7---7---7---7---9--x--|

e|-------------------x--x--------9--|
B|-------------------x--x--9--9--9--|
G|-11--11--10-10-10--8--8--10-10-10-|
D|-11--11--11-11-11--9--9--11-11-11-|
A|-9---9---11-11-11--9--9--11-11-11-|
E|-x---x---9--9--9---7--7--9--9--9--|

e|---------7--7--7--7--x--9--|
B|---------7--7--7--7--x--10-|
G|-11--11--8--8--8--8--10-11-|
D|-11--11--9--9--9--9--11-11-|x3
A|-9---9---9--9--9--9--11-9--|
E|-x---x---7--7--7--7--9--x--|

e|-------------------------7-----------------|
B|---------------------7---7-----------------|
G|-11---11---11---11---8---8---8---8---10-11-|
D|-11---11---11---11---9---9---9---9---11-11-|
A|-9----9----9----9----9---9---9---9---11-9--|
E|-x----x----x----x----7---7---7---7---9--x--|

e|-------------------------7--------------9--|
B|---------------------7---7--------------10-|
G|-11---11---11---11---8---8---8---8---10-11-|
D|-11---11---11---11---9---9---9---9---11-11-|x2
A|-9----9----9----9----9---9---9---9---11-9--|
E|-x----x----x----x----7---7---7---7---9--x--|

e|-------------------x--x--------9--|
B|-------------------x--x--9--9--9--|
G|-11--11--10-10-10--8--8--10-10-10-|
D|-11--11--11-11-11--9--9--11-11-11-|
A|-9---9---11-11-11--9--9--11-11-11-|
E|-x---x---9--9--9---7--7--9--9--9--|

e|---------7--7--7--7--x--9--|
B|---------7--7--7--7--x--10-|
G|-11--11--8--8--8--8--10-11-|
D|-11--11--9--9--9--9--11-11-|x2
A|-9---9---9--9--9--9--11-9--|
E|-x---x---7--7--7--7--9--x--|

e|---------7--7--7--7--9--9--9--|
B|---------7--7--7--7--9--9--9--|
G|-11--11--8--8--8--8--10-10-10-|
D|-11--11--9--9--9--9--11-11-11-|
A|-9---9---9--9--9--9--11-11-11-|
E|-x---x---7--7--7--7--9--9--9--|

e|---------7--7--7--7--x--9--|
B|---------7--7--7--7--x--10-|
G|-11--11--8--8--8--8--10-11-|
D|-11--11--9--9--9--9--11-11-|
A|-9---9---9--9--9--9--11-9--|
E|-x---x---7--7--7--7--9--x--|
__________________________________________________________________________

                        ~Shimmering Fields~

I haven't included the strum pattern because it's easy to get the hang of
it.

e|---1-1-1-1-1---1-1-1-1-1-|
B|---3-3-3-3-3---3-3-3-3-3-|
G|---2-2-2-2-2---2-2-2-2-2-|
D|-0-----------0-----------|
A|-------------------------|
E|-------------------------|

Chords:

    Dm  Gm  Am  Bbm

e|  5   10  5   6   |
B|  6   11  5   6   |
G|  7   12  5   6   |
D|  7   12  7   8   |
A|  5   10  7   8   |
E|          5   6   |

  Dm                Gm          Dm
  Flowers are nice, flowers are pretty
     Gm       Dm   Am            Dm
  So I took a ride away from the city
  Dm                   Gm          Dm
  Stories I'd heard of mystery and magic
  Gm        Dm       Am      Dm
  Traveling caravans left me enchanted

  Gm                           Dm
  With rivers of sun glow just beyond the plateau
  Gm                          Dm
  I followed them down to the well
  Gm                     Dm
  There are your wishes, there are your dreams
  Am                      Dm
  In shimmering fields of gold


  Dm  Gm  Dm  Gm  Dm  Am  Dm


  Dm                         Gm        Dm
  A mystical mistress in the forest of night
  Gm        Dm            Am   Dm
  Knew that I'd come from city lights
  Gm                       Dm
  Shimmering fields but of course my dear
  Gm                   Dm
  Shimmering fields of gold

  Gm                     Dm
  Many have followed the footsteps you're on
  Am                    Dm
  Good to know I'm not alone


  Dm  Gm  Dm  Gm  Dm  Am Dm


  Bbm            Am
  la da da da da da
  Bbm            Am
  la da da da da da

  Gm                   Dm
  Shimmering straight ahead I see
 Gm                    Dm
  Shimmering fields of gold
  Gm                         Dm
  All you could wish for and all you could dream
  Am                   Dm
  Shimmering fields of gold

  Dm  Gm Dm Gm  Dm  Am  Dm

__________________________________________________________________________


                        ~Behind the Moon~


 (theres two guitars) You can get away by just playing Guitar 1
                                                      (the top one)

  Guitar 1|----  <----
          |
          |
  Guitar 2|----

Intro:
e||--------------------||
B||--------------------||
G||--------------------||
D||---2--2-2-2---------||
A||---2--2-2-2-2-2-2-2-||
E||-0-0--------3-0-3-0-||
 |  . .  . . . . . . .  |  x4
 |                      |
e||--------------------||
B||--------------------||
G||--------------------||
D||---2--2-2-2---2---2-||
A||-2-2--2-2-2---2---2-||
E||-0-0--0-0-0-3-0-3-0-||


Verse 1:
e|-----------------------------------------------------------------------|
B|------------------------------------0------------------0---------------|
G|------------------------------------0------------------0---------------|
D|------------2-----------------------2--2-2-2-----------2--2-2-2--------|
A|--------0-2---2-0---------2-0-------2--2-2-2---2---2---2--2-2-2---2---2|
E|--0-2-3-----------3-0-3-0-----3-2-0-0--------3-0-3-0---0--------3-0-3-0|
 |                                                                       |
 |                                                                       |x2
e|------------------------------------0------------------0---------------|
B|------------------------------------0------------------0---------------|
G|------------------------------------0------------------0---------------|
D|------------2-----------------------2----------2---2---2----------2---2|
A|--------0-2---2-0---------2-0-------2--------2-2-2-2-2-2--------2-2-2-2|
E|--0-2-3-----------3-0-3-0-----3-2-0-0--------3-0-3-0-0-0--------3-0-3-0|

Chorus:

 C          G       D                Em
 Now here I come to dance around the sun
 C         G           D                Em
 I've been oh so blue, stuck behind the moon
 C          G   D              Em
 Now let me in, back where we begin
 C          G                 D
 And let me hold you like the way,

      e||--------------------||
      B||--------------------||
      G||--------------------||
      D||---2--2-2-2---------||
      A||---2--2-2-2-2-2-2-2-||
      E||-0-0--------3-0-3-0-||
       |  . .  . . . . . . .  |  x4
       |                      |
      e||--------------------||
      B||--------------------||
      G||--------------------||
      D||---2--2-2-2---2---2-||
      A||-2-2--2-2-2---2---2-||
      E||-0-0--0-0-0-3-0-3-0-||
I used to do.        Oo  Oo

Verse 2:
e||------------------------------------------------------------------------|
B||------------------------------------0------------------0----------------|
G||------------------------------------0------------------0----------------|
D||------------2-----------------------2--2-2-2-----------2--2-2-2---------|
A||--------0-2---2-0---------2-0-------2--2-2-2---2---2---2--2-2-2---2---2-|
E||--0-2-3-----------3-0-3-0-----3-2-0-0--------3-0-3-0---0--------3-0-3-0-|
 |
 |
e||------------------------------------0------------------0----------------|
B||------------------------------------0------------------0----------------|
G||------------9-----------------------0------------------0----------------|
D||--------7-9---9-7---------9-7-------2------------------2----------2---2-|
A||--7-9-10---------10-7-10-7---10-9\--2------------------2--------2-2-2-2-|
E||------------------------------------0------------------0--------3-0-3-0-|

-----------------------------------------------------------------------||
------------------------------------0------------------0---------------||
------------------------------------0------------------0---------------||
------------2-----------------------2--2-2-2-----------2--2-2-2--------||
--------0-2---2-0---------2-0-------2--2-2-2---2---2---2--2-2-2---2---2||
--0-2-3-----------3-0-3-0-----3-2-0-0--------3-0-3-0---0--------3-0-3-0||
                                                                       ||
                                                                       ||
------------12----------------------0------------------0---------------||
--------1012--1210--------1210------0------------------0---------------||
--9-1112----------129-129-----1211\-0------------------0---------------||
------------------------------------2----------2---2---2----------2---2||
------------------------------------2--------2-2-2-2-2-2--------2-2-2-2||
------------------------------------0--------3-0-3-0-0-0--------3-0-3-0||


Chorus:
 C          G       D                Em
 Now here I come to dance around the sun
 C         G           D                Em
 I've been oh so blue, stuck behind the moon
 C          G   D              Em
 Now let me in, back where we begin
 C          G                 D
 And let me hold you like the way,

      e||--------------------||
      B||--------------------||
      G||--------------------||
      D||---2--2-2-2---------||
      A||---2--2-2-2-2-2-2-2-||
      E||-0-0--------3-0-3-0-||
       |  . .  . . . . . . .  |  x2
       |                      |
      e||--------------------||
      B||--------------------||
      G||--------------------||
      D||---2--2-2-2---2---2-||
      A||-2-2--2-2-2---2---2-||
      E||-0-0--0-0-0-3-0-3-0-||
I used to do.        Oo  Oo


      C          D         Em
 e|---0--0-0-0---2--2-2-2--0----------------|
 B|---1--1-1-1---3--3-3-3--0----------------|
 G|---0--0-0-0---2--2-2-2--0----------------| (Guitars 1 & 2)
 D|---2--2-2-2-0-0--0-0-0--2--2-2-2---------|
 A|-3-3--3-3-3-------------2--2-2-2-2-2-2-2-|
 E|------------------------0--0-0-0-3-0-3-0-|
  |                                 . . . . |
  |                                         | x2
 e|---0----------2---------0----------------|
 B|---1----------3---------0----------------|
 G|---0----------2---------0----------------|
 D|---2----------0---------2----------------| (Guitar 3: Distorted and
 A|---3--------------------2----------------|            fades in on each
 E|------------------------0----------------|            chord)


e|--------------------|
B|--------------------|
G|--------------------|
D|---2--2-2-2---------|
A|---2--2-2-2-2-2-2-2-|
E|-0-0--------3-0-3-0-|
 | . .  . . . . . . . |
 |                    |
e|--------------------|
B|--------------------|
G|--------------------|
D|---2--2-2-2---2---2-|
A|-2-2--2-2-2---2---2-|
E|-0-0--0-0-0-3-0-3-0-|


  (1:41) A third guitar(electric w/ dist.) will come in. So all in octaves you will hear
acoustics, 1 electric, and a piano (which isnt tabbed).

  Acoustic (Guitar 1)
e|----------------------------------------------------------------------||
B|-----------------------------------0------------------0---------------||
G|-----------------------------------0------------------0---------------||
D|-----------2-----------------------2--2-2-2-----------2--2-2-2--------||
A|-------0-2---2-0---------2-0-------2--2-2-2---2---2---2--2-2-2---2---2||
E|-0-2-3-----------3-0-3-0-----3-2-0-0--------3-0-3-0---0--------3-0-3-0||
 |                                                                      ||
 |Acoustic (Guitar 2)                                                   ||
e|-----------12----------------------0------------------0---------------||
B|-------1012--1210--------1210------0------------------0---------------||
G|-9-1112----------129-129-----1211\-0------------------0---------------||
D|-----------------------------------2------------------2---------------||
A|-----------------------------------2------------------2---------------||
E|-----------------------------------0------------------0---------------||
 |                                                                      ||
 |Electric                                                              ||
e|-----------------------------------0------------------0---------------||
B|-----------------------------------0------------------0---------------||
G|-----------------------------------0------------------0---------------||
D|-----------2-----------------------2------------------2---------------||
A|-------0-2---2-0---------2-0-------2------------------2---------------||
E|-0-2-3-----------3-0-3-0-----3-2-0-0------------------0---------------||

  Acoustic (Guitar 1)
e|----------------------------------------------------------------------||
B|-----------------------------------0------------------0---------------||
G|-----------------------------------0------------------0---------------||
D|-----------2-----------------------2--2-2-2-----------2--2-2-2--------||
A|-------0-2---2-0---------2-0-------2--2-2-2---2---2---2--2-2-2---2---2||
E|-0-2-3-----------3-0-3-0-----3-2-0-0--------3-0-3-0---0--------3-0-3-0||
 |                                                                      ||
 |Acoustic (Guitar 2)                                                   ||
e|-----------12----------------------0------------------0---------------||
B|-------1012--1210--------1210------0------------------0---------------||
G|-9-1112----------129-129-----1211\-0------------------0---------------||
D|-----------------------------------2------------------2---------------||
A|-----------------------------------2------------------2---------------||
E|-----------------------------------0------------------0---------------||
 |                                                                      ||
 |Electric                                                              ||
e|-----------------------------------0------------------0---------------||
B|-----------------------------------0------------------0---------------||
G|-----------9-----------------------0------------------0---------------||
D|-------7-9---9-7---------9-7-\5\-0-2------------------2---------------||
A|-7-9-10----------107-107-----------2------------------2---------------||
E|-----------------------------------0------------------0---------------||

Lead/Melody:

  Acoustic (Guitar 1 & rhythm track)
e|---x---x---3---3---2---2-----0---0---x---x----3---3---2---2-----0---0-|
B|---1---1---3---3---3---3-----0---0---1---1----3---3---3---3-----0---0-|
G|---0---0---0---0---2---2-----0---0---0---0----0---0---2---2-----0---0-|
D|---2---2---0---0-0-0-0-0-----2---2---2---2----0---0-0-0-0-0-----2---2-|
A|-3-3-3-3---x---x-------------2---2-3-3-3-3----x---x-------------2---2-|
E|---------3-3-3-3-----------0-0-0-0----------3-3-3-3-----------0-0-0-0-|
 |
 |Acoustic (Guitar 2)
e|-8-8-7-5---------------------------8-8-7-7/10-8-7---5-5-5h7p5---------|
B|---------8-------3-3-3h5p3-5----------------------------------8-------|
G|----------------------------------------------------------------------|
D|----------------------------------------------------------------------|
A|----------------------------------------------------------------------|
E|----------------------------------------------------------------------|
 |
 |Electric
e|----------------------------------------------------------------3-2-0-|
B|----------------------------------------------------------------------|
G|-5-5-4-2-0-------------------------5-5-4-4/7--5-4---2-2-2h4p2-0-------|
D|-----------------0-0-0h2p0-2------------------------------------------|
A|----------------------------------------------------------------------|
E|----------------------------------------------------------------------|


  Acoustic
e|---x---x---3---3---2---2-----0---0---x---x-----3---3---2-|
B|---1---1---3---3---3---3-----0---0---1---1-----3---3---3-|
G|---0---0---0---0---2---2-----0---0---0---0-----0---0---2-|
D|---2---2---0---0-0-0-0-0-----2---2---2---2-----0---0-0-0-|
A|-3-3-3-3---x---x-------------2---2-3-3-3-3-----x---x-----|
E|---------3-3-3-3-----------0-0-0-0-----------3-3-3-3-----|
 |
 |Acoustic
e|---8-8-7-----------------------------8-8-7-/10-8-7---5---|
B|---------8-------3-3-3h5p3-5-----------------------------|
G|---------------------------------------------------------|
D|---------------------------------------------------------|
A|---------------------------------------------------------|
E|---------------------------------------------------------|
 |
 |Electric
e|---------------------------------------------------------|
B|---------------------------------------------------------|
G|---5-5-4-----------------------------5-5-4-4/7-5-4---2---|
D|---------5-------0-0-0h2p0-2-----------------------------|
A|---------------------------------------------------------|
E|---------------------------------------------------------|

  Acoustic
e|--2--2--2-----2---2-2-2--------------------|
B|--3--3--3-----3---3-3-3--------------------|
G|--2--2--2-----2---2-2-2--------------------|
D|--0--0--0--0--0---0-0-0---2--2-2-2---2---2-|
A|--------------------------2--2-2-2---2---2-|
E|------------------------0-0--0-0-0-3-0-3-0-|
 |
 |Acoustic
e|-------------------------------------------|
B|-------------------------------------------|
G|-----------------12-14-12------------------|
D|--------------------------14---------------|
A|-------------------------------------------|
E|-------------------------------------------|
 |
 |Electric
e|-------------------------------------------|
B|-------------------------------------------|
G|--------------------2----------------------|
D|-----------------5-----5--2----------------|
A|-------------------------------------------|
E|-------------------------------------------|


e||--------------------||
B||--------------------||
G||--------------------||
D||---2--2-2-2---------||
A||---2--2-2-2-2-2-2-2-||
E||-0-0--------3-0-3-0-||
 |  . .  . . . . . . . || x3
 |                     ||
e||--------------------||
B||--------------------||
G||--------------------||
D||---2--2-2-2---2---2-||
A||-2-2--2-2-2---2---2-||
E||-0-0--0-0-0-3-0-3-0-||


Verse 3:
e||------------------------------------------------------------------------|
B||------------------------------------0------------------0----------------|
G||------------------------------------0------------------0----------------|
D||------------2-----------------------2--2-2-2-----------2--2-2-2---------|
A||--------0-2---2-0---------2-0-------2--2-2-2---2---2---2--2-2-2---2---2-|
E||--0-2-3-----------3-0-3-0-----3-2-0-0--------3-0-3-0---0--------3-0-3-0-|
 |
 |
e||------------------------------------0------------------0----------------|
B||------------------------------------0------------------0----------------|
G||------------------------------------0------------------0----------------|
D||------------------------------------2------------------2----------2---2-|
A||------------------------------------2------------------2--------2-2-2-2-|
E||------------------------------------0------------------0--------3-0-3-0-|

-----------------------------------------------------------------------||
------------------------------------0------------------0---------------||
------------------------------------0------------------0---------------||
------------2-----------------------2--2-2-2-----------2--2-2-2--------||
--------0-2---2-0---------2-0-------2--2-2-2---2---2---2--2-2-2---2---2||
--0-2-3-----------3-0-3-0-----3-2-0-0--------3-0-3-0---0--------3-0-3-0||
                                                                       ||
                                                                       ||
------------------------------------0------------------0---------------||
------------5-----------------------0------------------0---------------||
--------2-4---4-2---------4-2-------0------------------0---------------||
--2-4-5-----------5-2-5-2-----5-4---2----------2---2---2----------2---2||
------------------------------------2--------2-2-2-2-2-2--------2-2-2-2||
----------------------------------0-0--------3-0-3-0-0-0--------3-0-3-0||


 Chorus:
  C        G        D               Em
  So here I come to dance around the sun
  C         G           D                Em
  I've been oh so blue, stuck behind the moon
  C          G   D              Em
  Now let me in, back where we begin
  C          G                 D
  And let me hold you like the way
  C          G                 D
  And let me hold you like the way
  C          G                 D
  And let me hold you like the way

      e||-----------------------2--222----2--222-||
      B||-----------------------3--333----3--333-||
      G||-----------------------2--222----2--222-||
      D||---2--2-2-2----------0-0--000--0-0--000-||
      A||---2--2-2-2-2-2-2-2---------------------||
      E||-0-0--------3-0-3-0---------------------||
       |  . .  . . . . . . .                      |  x3
       |                                          |
      e||-----------------------2--222----2--222-||
      B||-----------------------3--333----3--333-||
      G||-----------------------2--222----2--222-||
      D||---2--2-2-2---2---2--0-0--000--0-0--000-||
      A||-2-2--2-2-2---2---2---------------------||
      E||-0-0--0-0-0-3-0-3-0---------------------||
I used to do         Oo  Oo


      e||--------------------||
      B||--------------------||
      G||--------------------||
      D||---2--2-2-2---2---2-||
      A||-2-2--2-2-2---2---2-||
      E||-0-0--0-0-0-3-0-3-0-||
I used to do
__________________________________________________________________________

                        ~Wash Away~

All credit goes to Chris (Unregistered) for the tab.

Part A
|-------------------------------|--------------------------------|
|-------------------------------|--------------------------------|
|-------------------------------|--------------------------------|
|-------11-----11------9-----9--|-------11-----11-----11-----11--|
|---9h12---9h12----7h11—-7h11——-|---9h12---9h12---9h12---9h12----|
|-------------------------------|--------------------------------|
     Float     down    stream
     Hea - vens       high
|-------------------------------|--------------------------------|
|-------------------------------|--------------------------------|
|-------------------------------|--------------------------------|
|-------------------------------|-------11-----11-----11-----11--|
|------9-----9-----11-----11----|---9h12---9h12---9h12---9h12----|
|--7h11—-7h11—-9h12---9h12------|--------------------------------|
     Rivers  of   trees
     So        you     fly
|-------------------------------|----------------------------|
|-------------------------------|----------------------------|
|-------------------------------|----------------------------|
|-------11-----11------9-----9--|----------------------------|
|---9h12---9h12----7h11—-7h11——-|------9-----9-----9-----9---|
|-------------------------------|--7h11—-7h11—-7h11--7h11----|
     Flow   down   stream
     Catch   your   dreams
|-------------------------------|--------------------------------|
|-------------------------------|--------------------------------|
|-------------------------------|--------------------------------|
|-------------------------------|-------11-----11-----11-----11--|
|-------11-----11------9-----9--|---9h12---9h12---9h12---9h12----|
|---9h12---9h12----7h11—-7h11---|--------------------------------|
   Catch    your    wings
   In       the        sky
|--------------------------------|
|--------------------------------|
|--------------------------------|
|-------11-----11-----11-----11--|
|---9h12---9h12---9h12---9h12----|
|--------------------------------|

Part B
Let ring…
|--------------------|-------------------------|
|--------------------|-------------------------|
|--------------------|-------------------------|
|----7---7----7---7--|----11----11---11----11--|
|--5---9----5---9----|--9----12----9----12-----|
|--------------------|-------------------------|
           But   the   glaciers      have frozen your feet

|--------------------|-------------------------|
|--------------------|-------------------------|
|--------------------|-------------------------|
|----7---7----7---7--|----11----11---11----11--|
|--5---9----5---9----|--9----12----9----12-----|
|--------------------|-------------------------|
           I    can't    wait             for    eternity

|-----------------------|----------------------|
|-----------------------|----------------------|
|-----------------------|----------------------|
|----9----9-----9----9--|---7---7-----7---7----|
|------11---------11----|-----9---------9------|
|---7----------7--------|--5---------5---------|
          And   so   you   watched  me wash    away

|-----------------------|----------------------|
|-----------------------|----------------------|
|-----------------------|----------------------|
|----9----9-----9----9--|---7---7-----7---7----|
|------11---------11----|-----9---------9------|
|---7----------7--------|--5---------5---------|
          But   maybe   we'll    catch   up    someday

|----------------------2-------------------------------|
|----------------------2-------------------------------|
|----------------------3-------------------------------|
|---9----9----9----9---4-------------------------------|
|-7---11----7---11-----4-------------------------------|
|----------------------2-------------------------------|
    Maybe we'll catch up someday

Part C
Let it ring..
|---5---4---2--------7---4---2------|
|-----------------------------------|
|-----------------------------------|
|-----------------------------------|
|-----------------------------------|
|---5---4---2--------7---4---2------|
__________________________________________________________________________

I noticed there were no Matt Costa CD tabs so, I decided to be the first
to post one. Matt Costa came to my house with Tom Dumont (the guitarist
of No Doubt) to jam with me (no joke). I played Sunshine for him and he
said I played it great. The problem was he didn't even know exactly how
he plays the solo! Sadly, I didn't know many of his songs when he came.

Whatever,            hope you enjoy the tab!
1 comment total.
0 reply
DirtyHannes wrote on September 10 2009, 12:43 pm

in shimmering fields:
Am and Bbm should bei A and Bb

I want to post or [tab]
guest
You may want to rate the tab now too:
select rating
Please do not post tabs as comments. Select "correction" instead!