Oops, an error
Loading. Please wait.

Champagnes For Celebrating Tab

502 views 3 this week
no commentswrite comment
1 2 3 4 5
please rate
add to favorites launch autoscroll
font size
0
reset
Autoscroll
+/-
esc
set tempo
stop
Contributor
Difficulty
intermediate
WARNING: You are trying to view
                                    content from Ultimate-Guitar.com
                                    in an unauthorized application,
                                    which is prohibited.

                                    Please use an official Ultimate
                                    Guitar Tabs application for iPhone,
                                    iPad or Android to access legitimate
                                    chords, guitar, bass, and drum tabs
                                    from Ultimate-Guitar.com database.

                                    Type "ultimate guitar tabs" in Apple
                                    App Store's or Android Market's
                                    search to find the application.
--------------------------------------------------------------------------
Champagnes For Celebrating – Mayday Parade
---------------------------------------------------------------------------
Tabbed by: Greentea
E-mail: Green_tea--@hotmail.com

Tuning: E Standard

Note – The Choruses of Guitar 3 are not actually in the song, however I still included them.

Please rate and give feedback (:

Guitar 1

Intro

e|----------------------------------------------------------------------|
B|----------------------------------------------------------------------|
G|----------44444444----------------------------------------------------|
D|-22222222-44444444-4444444444444444-----------------------------------|x2
A|-22222222-22222222-4444444444444444-----------------------------------|
E|-00000000----------2222222222222222-----------------------------------|

Verse 1

e|----------------------------------------------------------------------|
B|-----12------12------12------12------12------12------11------11h12----|
G|---11--11--11--11--11--11--11--11--11--11--11--11--11--11--11---------|
D|-14------14------13------13------11------11------11------11-----------|x4
A|----------------------------------------------------------------------|
E|----------------------------------------------------------------------|

Pre-Chorus 1

e|----------------------------------------------------------------------|
B|----------------------------------------------------------------------|
G|---------4~------------------------------4~---------------------------|
D|-2~------4~------4~--------------2~------4~------4~-------------------|
A|-2~------2~------4~--------------2~------2~------4~-------------------|
E|-0~--------------2~--------------0~--------------2~-------------------|

Chorus 1

e|----------------------------------------------------------------------|
B|----------------------------------------------------------------------|
G|-----------------------------------x444444444444444-------------------|
D|-6666666666666666-2222222222222222-x444444444444444-4444444444444444--|
A|-6666666666666666-2222222222222222-x222222222222222-4444444444444444--|
E|-4444444444444444-0000000000000000------------------2222222222222222--|

e|----------------------------------------------------------------------|
B|----------------------------------------------------------------------|
G|----------------------------------------------------------------------|
D|-6666666666666666-2222222222222222-66666666-44444444-2222222222222222-|
A|-6666666666666666-2222222222222222-66666666-44444444-2222222222222222-|
E|-4444444444444444-0000000000000000-44444444-22222222-0000000000000000-|

Verse 2

e|----------------------------------------------------------------------|
B|-----12------12------12------12------12------12------11------11h12----|
G|---11--11--11--11--11--11--11--11--11--11--11--11--11--11--11---------|
D|-14------14------13------13------11------11------11------11-----------|x2
A|----------------------------------------------------------------------|
E|----------------------------------------------------------------------|

Pre-Chorus 2

e|----------------------------------------------------------------------|
B|----------------------------------------------------------------------|
G|---------4~------------------------------4~---------------------------|
D|-2~------4~------4~--------------2~------4~------4~-------------------|
A|-2~------2~------4~--------------2~------2~------4~-------------------|
E|-0~--------------2~--------------0~--------------2~-------------------|

Chorus 2

e|----------------------------------------------------------------------|
B|----------------------------------------------------------------------|
G|-----------------------------------x444444444444444-------------------|
D|-6666666666666666-2222222222222222-x444444444444444-4444444444444444--|
A|-6666666666666666-2222222222222222-x222222222222222-4444444444444444--|
E|-4444444444444444-0000000000000000------------------2222222222222222--|

e|----------------------------------------------------------------------|
B|----------------------------------------------------------------------|
G|----------------------------------------------------------------------|
D|-6666666666666666-2222222222222222-66666666-44444444-2222222222222222-|
A|-6666666666666666-2222222222222222-66666666-44444444-2222222222222222-|
E|-4444444444444444-0000000000000000-44444444-22222222-0000000000000000-|

Bridge Part 1

e|------------------------------------------------------------------------|
B|------------------------------------------------------------------------|
G|-4444444444444444------------------4444444444444444---------------------|
D|-4444444444444444-2222222222222222-4444444444444444-44444444-6x-6x-6\4x4| 
A|-2222222222222222-2222222222222222-2222222222222222-44444444-6x-6x-6\4x4|
E|------------------0000000000000000------------------22222222-4x-4x-4\2x2|

e|------------------------------------------------------------------------|
B|------------------------------------------------------------------------|
G|-4444444444444444------------------4444444444444444---------------------|
D|-4444444444444444-2222222222222222-4444444444444444-44444444-6x-6x-6\4x4| 
A|-2222222222222222-2222222222222222-2222222222222222-44444444-6x-6x-6\4x4|
E|------------------0000000000000000------------------22222222-4x-4x-4\2x2|

Bridge Part 2

e|------------------------------------------------------------------------|
B|------------------------------------------------------------------------|
G|------------------------------------------------------------------------|
D|-2-2-2-2-2-2-2-2-4-4-4-4-4-4-4-4-6-6-6-6-6-6-6-6-6-6-6-6-6-6-6-6--------|
A|-2-2-2-2-2-2-2-2-4-4-4-4-4-4-4-4-6-6-6-6-6-6-6-6-6-6-6-6-6-6-6-6--------|
E|-0-0-0-0-0-0-0-0-2-2-2-2-2-2-2-2-4-4-4-4-4-4-4-4-4-4-4-4-4-4-4-4--------|
PM . . . . . . . . . . . . . . . . . . . . . . . . . . . . . . . .


e|------------------------------------------------------------------------|
B|------------------------------------------------------------------------|
G|-------------------------------------------------4-4-4-4-4-4-4-4--------|
D|-2-2-2-2-2-2-2-2-4-4-4-4-4-4-4-4-6-6-6-6-6-6-6-6-4-4-4-4-4-4-4-4--------|
A|-2-2-2-2-2-2-2-2-4-4-4-4-4-4-4-4-6-6-6-6-6-6-6-6-2-2-2-2-2-2-2-2--------|
E|-0-0-0-0-0-0-0-0-2-2-2-2-2-2-2-2-4-4-4-4-4-4-4-4------------------------|
PM . . . . . . . . . . . . . . . . . . . . . . . . . . . . . . . .

e|------------------------------------------------------------------------|
B|------------------------------------------------------------------------|
G|------------------------------------------------------------------------|
D|-2-2-2-2-2-2-2-2-4-4-4-4-4-4-4-4-6-6-6-6-6-6-6-6-6-6-6-6-6-6-6-6--------|
A|-2-2-2-2-2-2-2-2-4-4-4-4-4-4-4-4-6-6-6-6-6-6-6-6-6-6-6-6-6-6-6-6--------|
E|-0-0-0-0-0-0-0-0-2-2-2-2-2-2-2-2-4-4-4-4-4-4-4-4-4-4-4-4-4-4-4-4--------|
PM . . . . . . . . . . . . . . . . . . . . . . . . . . . . . . . .

e|------------------------------------------------------------------------|
B|------------------------------------------------------------------------|
G|------------------------------------------------------------------------|
D|-2-2-2-2-2-2-2-2-2-2-2-2-2-2-2-2---4-4x---4-4x---4x-4~------------------|
A|-2-2-2-2-2-2-2-2-2-2-2-2-2-2-2-2---4-4x---4-4x---4x-4~------------------|
E|-0-0-0-0-0-0-0-0-0-0-0-0-0-0-0-0---2-2x---2-2x---2x-2~------------------|
PM . . . . . . . . . . . . . . . . 

Chorus 3

e|----------------------------------------------------------------------|
B|----------------------------------------------------------------------|
G|-4444444444444444-----------------------------------------------------|
D|-4444444444444444-2222222222222222-6666666666666666-44444444444444444-|
A|-2222222222222222-2222222222222222-6666666666666666-44444444444444444-|
E|------------------0000000000000000-4444444444444444-22222222222222222-|

e|----------------------------------------------------------------------|
B|----------------------------------------------------------------------|
G|-4444444444444444-----------------------------------------------------|
D|-4444444444444444-2222222222222222-66666666-44444444-2222222222222222-|
A|-2222222222222222-2222222222222222-66666666-44444444-2222222222222222-|
E|------------------0000000000000000-44444444-22222222-0000000000000000-|

Final Chorus

e|----------------------------------------------------------------------|
B|----------------------------------------------------------------------|
G|-4444444444444444-----------------------------------------------------|
D|-4444444444444444-2222222222222222-6666666666666666-44444444444444444-|
A|-2222222222222222-2222222222222222-6666666666666666-44444444444444444-|
E|------------------0000000000000000-4444444444444444-22222222222222222-|

e|----------------------------------------------------------------------|
B|----------------------------------------------------------------------|
G|-4444444444444444-----------------------------------------------------|
D|-4444444444444444-2222222222222222-66666666-44444444-2222222222222222-|
A|-2222222222222222-2222222222222222-66666666-44444444-2222222222222222-|
E|------------------0000000000000000-44444444-22222222-0000000000000000-|

e|----------------------------------------------------------------------|
B|----------------------------------------------------------------------|
G|----------------------------------------------------------------------|
D|-66666666-44444444-2222222222222222-66666666-44444444-----------------|
A|-66666666-44444444-2222222222222222-66666666-44444444-----------------|
E|-44444444-22222222-0000000000000000-44444444-22222222-----------------|

End of Guitar 1

Guitar 2

Intro

e|------------------------------------------------------------------------|
B|------------------------------------------------------------------------|
G|-99999999-88888888-6666666666666666-99999999-88888888-6666666666666666/4|
D|-xxxxxxxx-xxxxxxxx-xxxxxxxxxxxxxxxx-xxxxxxxx-xxxxxxxx-xxxxxxxxxxxxxxxx-x|
A|-77777777-66666666-4444444444444444-77777777-66666666-4444444444444444/2|
E|------------------------------------------------------------------------|

No guitar 2 in Verse 1

Pre-Chorus 1

e|----------------------------------------------------------------------|
B|----------------------------------------------------------------------|
G|-------8-----6-----8-----6---8----------------------------------------|
D|-9-9-9---9-9---9-9---9-9---9------------------------------------------|x2
A|----------------------------------------------------------------------|
E|----------------------------------------------------------------------|
PM . . . . . . . . . . . . . . .

Chorus 1

e|----------------------------------------------------------------------|
B|-------------7------7h9p7-----7h9p7----------------------------------7|
G|---8-6h8p6----------------------------8-6h8p6-8---6h8p6-----6h8p6---6-|
D|-9---------9--9--9-------9--9-------9-----------9-------9-9-------9---|
A|----------------------------------------------------------------------|
E|----------------------------------------------------------------------|

e|----------------------------------------------------------------------|
B|---7---7---7----------------------------------------------------------|
G|---------------8---8---9p8-9h11---------------------------------------|
D|-9---9---9---9---9---9------------------------------------------------|
A|----------------------------------------------------------------------|
E|----------------------------------------------------------------------|
PM . . . . . . . . . . .        

e|----------------------------------------------------------------------|
B|-------------7------7h9p7-----7h9p7----------------------------------7|
G|---8-6h8p6----------------------------8-6h8p6-8---6h8p6-----6h8p6---6-|
D|-9---------9--9--9-------9--9-------9-----------9-------9-9-------9---|
A|----------------------------------------------------------------------|
E|----------------------------------------------------------------------|

e|----------------------------------------------------------------------|
B|---7---7---7----------------------------------------------------------|
G|---------------8---8---9p8-9h11---------------------------------------|
D|-9---9---9---9---9---9------------------------------------------------|
A|----------------------------------------------------------------------|
E|----------------------------------------------------------------------|
PM . . . . . . . . . . .        

Verse 2

e|----------------------------------------------------------------------|
B|----------------------------------------------------------------------|
G|-9-9-9-9-9-9-9-9-8-8-8-8-8-8-8-8-6-6-6-6-6-6-6-6-6-6-6-6-6-6-6p4------|
D|----------------------------------------------------------------------|x2
A|----------------------------------------------------------------------|
E|----------------------------------------------------------------------|
PM . . . . . . . . . . . . . . . . . . . . . . . . . . . . . . .

Pre-Chorus 2

e|----------------------------------------------------------------------|
B|----------------------------------------------------------------------|
G|-------8-----6-----8-----6---8----------------------------------------|
D|-9-9-9---9-9---9-9---9-9---9------------------------------------------|x2
A|----------------------------------------------------------------------|
E|----------------------------------------------------------------------|
PM . . . . . . . . . . . . . . .

Chorus 2

e|----------------------------------------------------------------------|
B|-------------7------7h9p7-----7h9p7----------------------------------7|
G|---8-6h8p6----------------------------8-6h8p6-8---6h8p6-----6h8p6---6-|
D|-9---------9--9--9-------9--9-------9-----------9-------9-9-------9---|
A|----------------------------------------------------------------------|
E|----------------------------------------------------------------------|

e|----------------------------------------------------------------------|
B|---7---7---7----------------------------------------------------------|
G|---------------8---8---9p8-9h11---------------------------------------|
D|-9---9---9---9---9---9------------------------------------------------|
A|----------------------------------------------------------------------|
E|----------------------------------------------------------------------|
PM . . . . . . . . . . .        

e|----------------------------------------------------------------------|
B|-------------7------7h9p7-----7h9p7----------------------------------7|
G|---8-6h8p6----------------------------8-6h8p6-8---6h8p6-----6h8p6---6-|
D|-9---------9--9--9-------9--9-------9-----------9-------9-9-------9---|
A|----------------------------------------------------------------------|
E|----------------------------------------------------------------------|

e|----------------------------------------------------------------------|
B|---7---7---7----------------------------------------------------------|
G|---------------8---8---9p8-9h11---------------------------------------|
D|-9---9---9---9---9---9------------------------------------------------|
A|----------------------------------------------------------------------|
E|----------------------------------------------------------------------|
PM . . . . . . . . . . .        


Bridge Part 1

e|----------------------------------------------------------------------|
B|----------------------------------------------------------------------|
G|-44444444-66666666-88888888-44444444-66666666-8888x888888888888888----|
D|-xxxxxxxx-xxxxxxxx-xxxxxxxx-xxxxxxxx-xxxxxxxx-xxxxxxxxxxxxxxxxxxxx----|
A|-22222222-44444444-66666666-22222222-44444444-6666x666666666666666----|
E|----------------------------------------------------------------------|

e|----------------------------------------------------------------------|
B|----------------------------------------------------------------------|
G|-66666666-4x-4x-4\3-3\88888888-6666-11111111-88888888-99999999--------|
D|-xxxxxxxx-xx-xx-x-x-x-xxxxxxxx-xxxx-x-x-x-x--xxxxxxxx-xxxxxxxx--------|
A|-44444444-2x-2x-2\1-1\66666666-4444-9-9-9-9--66666666-77777777--------|
E|----------------------------------------------------------------------|

e|----------------------------------------------------------------------|
B|----------------------------------------------------------------------|
G|-11111111111111111111111111111111-66666666-8x-8x-8\6-6x---------------|
D|-x-x-x-x-x-x-x-x-x-x-x-x-x-x-x-x--xxxxxxxx-xx-xx-x-x-xx---------------|
A|-9-9-9-9-9-9-9-9-9-9-9-9-9-9-9-9--44444444-6x-6x-6\4-4x---------------|
E|----------------------------------------------------------------------|

Bridge Part 2

e|----------------------------------------------------------------------|
B|-12--------12--------12--------12-----------12--------12--------------|
G|----11--------11--------11--------11-----------11--------11-----------|
D|----------------------------------------------------------------------|
A|-------14--------14--------14---------------------14--------14~-------|
E|----------------------------------------------------------------------|

Chorus 3

e|----------------------------------------------------------------------|
B|-------------7------7h9p7-----7h9p7----------------------------------7|
G|---8-6h8p6----------------------------8-6h8p6-8---6h8p6-----6h8p6---6-|
D|-9---------9--9--9-------9--9-------9-----------9-------9-9-------9---|
A|----------------------------------------------------------------------|
E|----------------------------------------------------------------------|

e|----------------------------------------------------------------------|
B|---7---7---7----------------------------------------------------------|
G|---------------8---8---9p8-9h11---------------------------------------|
D|-9---9---9---9---9---9------------------------------------------------|
A|----------------------------------------------------------------------|
E|----------------------------------------------------------------------|
PM . . . . . . . . . . .        

Final Chorus

e|----------------------------------------------------------------------|
B|----------------------------------------------------------------------|
G|-4444444444444444-----------------------------------------------------|
D|-4444444444444444-2222222222222222-6666666666666666-44444444444444444-|
A|-2222222222222222-2222222222222222-6666666666666666-44444444444444444-|
E|------------------0000000000000000-4444444444444444-22222222222222222-|

e|----------------------------------------------------------------------|
B|----------------------------------------------------------------------|
G|-8888888888888888-1313131313131313-99999999-1111111111111111----------|
D|-xxxxxxxxxxxxxxxx-x-x-x-x-x-x-x-x--xxxxxxxx-x-x-x-x-x-x-x-x-----------|
A|-6666666666666666-1111111111111111-77777777-9-9-9-9-9-9-9-9-----------|
E|----------------------------------------------------------------------|

e|----------------------------------------------------------------------|
B|----------------------------------------------------------------------|
G|-88888888-66666666-4444444444444444-----------------------------------|
D|-xxxxxxxx-xxxxxxxx-xxxxxxxxxxxxxxxx-----------------------------------|x2
A|-66666666-44444444-2222222222222222-----------------------------------|
E|----------------------------------------------------------------------|

e|----------------------------------------------------------------------|
B|----------------------------------------------------------------------|
G|-88888888-66666666----------------------------------------------------|
D|-xxxxxxxx-xxxxxxxx----------------------------------------------------|
A|-66666666-44444444----------------------------------------------------|
E|----------------------------------------------------------------------|

End of Guitar 2

Guitar 3

Intro

e|----------------------------------------------------------------------|
B|-1212121212121212-1212121212121212-12121212121212121212121212121212---|
G|-1111111111111111-1111111111111111-11111111111111111111111111111111---|
D|-1414141414141414-1313131313131313-11111111111111111111111111111111---|
A|----------------------------------------------------------------------|
E|----------------------------------------------------------------------|

e|----------------------------------------------------------------------|
B|-1212121212121212-1212121212121212-121212121212121212121212121212p11--|
G|-1111111111111111-1111111111111111-111111111111111111111111111111-11--|
D|-1414141414141414-1313131313131313-111111111111111111111111111111-11--|
A|----------------------------------------------------------------------|
E|----------------------------------------------------------------------|

No Guitar 3 in Verse 1 and Pre-Chorus 1

Chorus 1

e|----------------------------------------------------------------------|
B|----------------------------------------------------------------------|
G|-8888888888888888-4444444444444444-11111111111111111111111111111111---|
D|-xxxxxxxxxxxxxxxx-xxxxxxxxxxxxxxxx-x-x-x-x-x-x-x-x-x-x-x-x-x-x-x-x----|
A|-6666666666666666-222222222222222--9-9-9-9-9-9-9-9-9-9-9-9-9-9-9-9----|
E|----------------------------------------------------------------------|

e|----------------------------------------------------------------------|
B|----------------------------------------------------------------------|
G|-6666666666666666-----------------------------------------------------|
D|-xxxxxxxxxxxxxxxx-----------------------------------------------------|
A|-4444444444444444-----------------------------------------------------|
E|----------------------------------------------------------------------|

e|----------------------------------------------------------------------|
B|----------------------------------------------------------------------|
G|-8888888888888888-4444444444444444-88888888-66666666-4444444444444444-|
D|-xxxxxxxxxxxxxxxx-xxxxxxxxxxxxxxxx-xxxxxxxx-xxxxxxxx-xxxxxxxxxxxxxxxx-|
A|-6666666666666666-2222222222222222-66666666-44444444-2222222222222222-|
E|----------------------------------------------------------------------|

Verse 2

e|----------------------------------------------------------------------|
B|-----------12x----12x----12x----12x----11x----11h12-------------------|
G|-----------11x----11x----11x----11x----11x----11----------------------|
D|-----------13x----13x----11x----11x----11x----11----------------------|
A|----------------------------------------------------------------------|
E|----------------------------------------------------------------------|

e|----------------------------------------------------------------------|
B|-12x----12x----12x---12x----12x----12x----11x---11h12-----------------|
G|-11x----11x----11x---11x----11x----11x----11x---11--------------------|
D|-14x----14x----13x---13x----11x----11x----11x---11--------------------|
A|----------------------------------------------------------------------|
E|----------------------------------------------------------------------|

No Guitar 3 in Pre-Chorus 2

Chorus 2

e|----------------------------------------------------------------------|
B|----------------------------------------------------------------------|
G|-8888888888888888-4444444444444444-11111111111111111111111111111111---|
D|-xxxxxxxxxxxxxxxx-xxxxxxxxxxxxxxxx-x-x-x-x-x-x-x-x-x-x-x-x-x-x-x-x----|
A|-6666666666666666-222222222222222--9-9-9-9-9-9-9-9-9-9-9-9-9-9-9-9----|
E|----------------------------------------------------------------------|

e|----------------------------------------------------------------------|
B|----------------------------------------------------------------------|
G|-6666666666666666-----------------------------------------------------|
D|-xxxxxxxxxxxxxxxx-----------------------------------------------------|
A|-4444444444444444-----------------------------------------------------|
E|----------------------------------------------------------------------|

e|----------------------------------------------------------------------|
B|----------------------------------------------------------------------|
G|-8888888888888888-4444444444444444-88888888-66666666-4444444444444444-|
D|-xxxxxxxxxxxxxxxx-xxxxxxxxxxxxxxxx-xxxxxxxx-xxxxxxxx-xxxxxxxxxxxxxxxx-|
A|-6666666666666666-2222222222222222-66666666-44444444-2222222222222222-|
E|----------------------------------------------------------------------|

No Guitar 3 in Bridge Part 1

Bridge Part 2

e|----------------------------------------------------------------------|
B|----------------------------------------------------------------------|
G|-xx4-xx4-xx6-xx6-xx8-xx8-xx8-xx8-xx4-xx4-xx6-xx6-88x-88x-88~----------|
D|-xxx-xxx-xxx-xxx-xxx-xxx-xxx-xxx-xxx-xxx-xxx-xxx-xxx-xxx-xx~----------|
A|-xx2-xx2-xx4-xx4-xx6-xx6-xx6-xx6-xx2-xx2-xx4-xx4-66x-66x-66~----------|
E|----------------------------------------------------------------------|



Chorus

e|----------------------------------------------------------------------|
B|----------------------------------------------------------------------|
G|-8888888888888888-4444444444444444-11111111111111111111111111111111---|
D|-xxxxxxxxxxxxxxxx-xxxxxxxxxxxxxxxx-x-x-x-x-x-x-x-x-x-x-x-x-x-x-x-x----|
A|-6666666666666666-222222222222222--9-9-9-9-9-9-9-9-9-9-9-9-9-9-9-9----|
E|----------------------------------------------------------------------|

e|----------------------------------------------------------------------|
B|----------------------------------------------------------------------|
G|-6666666666666666-----------------------------------------------------|
D|-xxxxxxxxxxxxxxxx-----------------------------------------------------|
A|-4444444444444444-----------------------------------------------------|
E|----------------------------------------------------------------------|

e|----------------------------------------------------------------------|
B|----------------------------------------------------------------------|
G|-8888888888888888-4444444444444444-88888888-66666666-4444444444444444-|
D|-xxxxxxxxxxxxxxxx-xxxxxxxxxxxxxxxx-xxxxxxxx-xxxxxxxx-xxxxxxxxxxxxxxxx-|
A|-6666666666666666-2222222222222222-66666666-44444444-2222222222222222-|
E|----------------------------------------------------------------------|

Final Chorus

e|----------------------------------------------------------------------|
B|----------------------------------------------------------------------|
G|-8888888888888888-4444444444444444-11111111111111111111111111111111---|
D|-xxxxxxxxxxxxxxxx-xxxxxxxxxxxxxxxx-x-x-x-x-x-x-x-x-x-x-x-x-x-x-x-x----|
A|-6666666666666666-222222222222222--9-9-9-9-9-9-9-9-9-9-9-9-9-9-9-9----|
E|----------------------------------------------------------------------|

e|----------------------------------------------------------------------|
B|----------------------------------------------------------------------|
G|-6666666666666666-----------------------------------------------------|
D|-xxxxxxxxxxxxxxxx-----------------------------------------------------|
A|-4444444444444444-----------------------------------------------------|
E|----------------------------------------------------------------------|

e|----------------------------------------------------------------------|
B|----------------------------------------------------------------------|
G|-8888888888888888-4444444444444444-88888888-66666666-4444444444444444-|
D|-xxxxxxxxxxxxxxxx-xxxxxxxxxxxxxxxx-xxxxxxxx-xxxxxxxx-xxxxxxxxxxxxxxxx-|
A|-6666666666666666-2222222222222222-66666666-44444444-2222222222222222-|
E|----------------------------------------------------------------------|

e|----------------------------------------------------------------------|
B|----------------------------------------------------------------------|
G|-88888888-66666666-4444444444444444-----------------------------------|
D|-xxxxxxxx-xxxxxxxx-xxxxxxxxxxxxxxxx-----------------------------------|x2
A|-66666666-44444444-2222222222222222-----------------------------------|
E|----------------------------------------------------------------------|

************************************

| /   slide up
| \   slide down
| h   hammer-on
| p   pull-off
| ~   vibrato
| +   harmonic
| x   Mute note
| b   Bend
| pb  Pre-bend
| br  Bend release
| pbr Pre-bend release
| brb Bend release bend

************************************
comments
We did not receive enough feedback on this tab! Please rate:
print report bad tab
1 2 3 4 5
I want to post or [tab]
guest
You may want to rate the tab now too:
select rating
Please do not post tabs as comments. Select "correction" instead!