Oops, an error
Loading. Please wait.

The Silence Tab

ver2
ver2

Intro

Whole song

Interactive

More versions @911Tabs.com
16,307 views 24 this week
4 commentsread comments
1 2 3 4 5
excellent!
x 9
Autoscroll
+/-
esc
set tempo
stop
Contributor
Hey! There's an official Ultimate Guitar app which is ideal
for learning songs when you're away from computer. Get the app
WARNING: You are trying to view
                                    content from Ultimate-Guitar.com
                                    in an unauthorized application,
                                    which is prohibited.

                                    Please use an official Ultimate
                                    Guitar Tabs application for iPhone,
                                    iPad or Android to access legitimate
                                    chords, guitar, bass, and drum tabs
                                    from Ultimate-Guitar.com database.

                                    Type "ultimate guitar tabs" in Apple
                                    App Store's or Android Market's
                                    search to find the application.
Sick of guitar? Just have some Tylernol and you'll be loving it again in no time!:D

To everyone who sees this, this is my first tab, but i can't take full credit, i did use
others tabs already made before this one a little bit, and i did watch some videos, but what
bothered me is that i couldnt find anything that had the higher guitar riffs, so i did all
of that plus some other parts by ear :D. Those parts may not be exactly right, but
when your playing with another person on guitar and a drummer, it sounds just fine.

IMPORTANT THINGS TO REMEMBER:

1. I only showed which chords are played, not how many times there played, so please
dont sit there playing each of them once and thinking the guy who tabbed this is an idiot (i did
however show the amount each chord is played during the bridge).

2. Anytime I tell you the timing, it is not the actual timing in the song, its just
to help you proportion the amount of time each chord/note is played.

Ok well thats it, if theres anything wrong witht he tab dont be afraid to tell me, and
theres anything i can do to make it more understandable, like adding in part of the
lyrics to help the timing (i dont really think that is all that necessary, just listen the song, 
you can figure it out :D) then message me or leave a comment, and most 
importantly, dont forget to rate :D!

Intro:
|---------------------------|
|-------3-2-3-2-------3-2---|
|-4-4-4---------2-2-2-----2-|
|---------------------------| X4 (Both or one guitar can do this)
|---------------------------|
|---------------------------|

Verse:
| (Palm muted) |                              |  (Palm muted)   |
|--------------|------------------------------|-----------------|
|--------------|-------3-2-3-2-------3-2------|-----------------|
|--4-----------|-4-4-4---------2-2-2-----2----|--4--------------|
|--4--5--2--5--|----------------------------X2|--4---5---2---5--|
|--2--5--2--5--|------------------------------|--2---5---2---5--|
|-----5--2--5--|------------------------------|------5---2---5--|
|              |                              |                 |
|              |                              |(Tremolo Picking)|
|--------------|------------------------------|-----------------|(Instead of 7
|--------------|------------------------------|--5---2---7---3--| you can do 2 on
|---(Either do nothing, or the same as the ---|-----------------| the high e
|------------ other guitar above)-------------|-----------------| string, also
|--------------|------------------------------|-----------------| can do 0 on e,
|--------------|------------------------------|-----------------| instead of 5)

Pre-Chorus:
|-----------------|                -----              -----
|-----------------|                -----              -----
|--4--------------|                -----              -----
|--4--5--2--5---x-| (Or instead of --x-- you can play --0-- palm muted)
|--2--5--2--5---x-|                --x--              --0--
|-----5--2--5---x-|                --x--              --0--
|                 |
|(Tremolo Picking)|
|-----------------|
|--5--2--7--3-----|
|-----------------|(Here you can also do 2 on the high e string, instead of 7 on
|-----------------| the b string, also can 0 on e instead of 5)
|-----------------|
|-----------------|
|-----------------|

Chorus:
|  1  1  2     1  1  2     1  1  1  1     1  1  1  1
|-----------|-----------|--------------|--------------|(These chords obviously
|-----------|-----------|--------------|--------------| go through more
|-----------|-----------|--------------|--------------| measures in the song than
|--5--7--9--|--5--2--9--|--2--0--5--2--|--9--7--5--7--| shown, but pretend each
|--5--7--9--|--5--2--9--|--2--0--5--2--|--9--7--5--7--| measure is 4 beats and the
|--5--7--9--|--5--2--9--|--2--0--5--2--|--9--7--5--7--| beats for each chord is
|           |           |              |              | above)
| ( T  R  E  M  O  L  O      P  I  C  K  I  N  G )    |
|-----------|--------------|-----------|--------------| (Number beats for each note
|-----0--2--|--2-----------|-------0---|--0--3--------| is the same as the chord it
|--2--------|--------------|--0--2-----|--------------| is lined up with, in the
|-----------|--------------|-----------|--------- ----| measures where there isn’t as
|-----------|--------------|-----------|--------------| many notes as chords,
|-----------|--------------|-----------|--------------| continue the last/only note
                                                        to the end of the measure)
Verse:
|------------------------------|-----------------|------------------------------|
|-------3-2-3-2-------3-2------|-----------------|-------3-2-3-2-------3-2------|
|-4-4-4---------2-2-2-----2--X2|--4--------------|-4-4-4---------2-2-2-----2--X2|
|------------------------------|--4---5---2---5--|------------------------------|
|------------------------------|--2---5---2---5--|------------------------------|
|------------------------------|------5---2---5--|------------------------------|
|                              |                 |                              |
|                              |(Tremolo Picking)|                              |
|------------------------------|-----------------|------------------------------|
|--(Do nothing or do the same--|--5---2---7---3--|--(Do nothing or do the same--|
|--as the other guitar)--------|-----------------|--as the other guitar)--------|
|------------------------------|-----------------|------------------------------|
|------------------------------|-----------------|------------------------------|
|------------------------------|-----------------|------------------------------|

Pre-Chorus:
|-----------------|                -----              -----
|-----------------|                -----              -----
|--4--------------|                -----              -----
|--4--5--2--5---x-| (Or instead of --x-- you can play --0-- palm muted)
|--2--5--2--5---x-|                --x--              --0--
|-----5--2--5---x-|                --x--              --0--
|                 |
|(Tremolo Picking)|
|-----------------|
|--5--2--7--3-----|
|-----------------|(Here you can also do 2 on the high e string, instead of 7 on
|-----------------| the b string)
|-----------------|
|-----------------|
|-----------------|

Chorus:
|  1  1  2     1  1  2     1  1  1  1     1  1  1  1
|-----------|-----------|--------------|--------------|(These chords obviously
|-----------|-----------|--------------|--------------| go through more
|-----------|-----------|--------------|--------------| measures in the song than
|--5--7--9--|--5--2--9--|--2--0--5--2--|--9--7--5--7--| shown, but pretend each
|--5--7--9--|--5--2--9--|--2--0--5--2--|--9--7--5--7--| measure is 4 beats and the
|--5--7--9--|--5--2--9--|--2--0--5--2--|--9--7--5--7--| beats for each chord is
|           |           |              |              | above)
| ( T  R  E  M  O  L  O      P  I  C  K  I  N  G )    |
|-----------|--------------|-----------|--------------| (Number beats for each note
|-----0--2--|--2-----------|-------0---|--0--3--------| is the same as the chord it
|--2--------|--------------|--0--2-----|--------------| is lined up with, in the
|-----------|--------------|-----------|--------- ----| measures where there isn’t as
|-----------|--------------|-----------|--------------| many notes as chords,
|-----------|--------------|-----------|--------------| continue the last/only note
                                                        to the end of the measure)


Bridge:

|-----------------------------------------------|
|-----------------------------------------------|
|-----------------------------------------------|
|--9999--12121212--7--5~------------------------|
|--9999--12121212--7--5~------------------------|
|--9999--12121212--7--5~------------------------|
|                                               |
|                                               |
|-----------------------------------------------|
|---------------------------3-2-3-2-------3-2---|
|---------------------4-4-4---------2-2-2-----2-|
|-----------------------------------------------|
|-----------------------------------------------|
|-----------------------------------------------|

|------------------|------------------------|
|------------------|-----(Do nothing or-----|
|------------------|-----do what the--------|
|--9999--12121212--|-----other guitar is----|
|--9999--12121212--|-----doing)-------------| 
|--9999--12121212--|------------------------|
|                  |(The H is a harmonic on |
|                  |  H  the chord below it)|
|------------------|--7----------5---5------| (Play all the 7’s in between the
|--(do nothing or--|--7-7-7-7-X3-7-7-5------| chords softly so they sound like an
|--do what the-----|------------------------| echo, and try to make each chord ring
|--other guitar is-|------------------------| to help cover the 7’s, or just don’t
|--doing)----------|------------------------| play any of the 7’s because you can
|------------------|------------------------| hardly hear them anyway :P)

|-----------------------|
|---(Do nothing or do---|
|---what the other------|
|---guitar is doing)----|
|-----------------------|
|-----------------------|
|                       |
|   (Tremolo picking)   |
|-----------------------|(Again, the 7 can be played on 2 on the high e string)
|---7---5---3---2-------|
|-------------------2---|(The last 2 notes should be played for half the time
|-----------------------| as the first 3, like if the first 3 notes were each 1
|-----------------------| beat, the last 2 notes would only ½ a beat)
|-----------------------|

Pre-Chorus:
|-----------------|                -----              -----
|-----------------|                -----              -----
|--4--------------|                -----              -----
|--4--5--2--5---x-| (Or instead of --x-- you can play --0-- palm muted)
|--2--5--2--5---x-|                --x--              --0--
|-----5--2--5---x-|                --x--              --0--
|                 |
|(Tremolo Picking)|
|--------9---7----|
|----7------------|
|-----------------| (The last note should be played twice as long as the first 2
|-----------------| notes, like if this was in a measure that was 4 beats, the
|-----------------| first 2 notes would each be 1 beat and the 3rd note would be 2
|-----------------| beats)
|-----------------|

Chorus:
|   1  1  2       1  1  2        1  1  1  1        1  1  1  1
|-----------|-----------------|-----------------|---------------|
|-----------|-----------------|-----------------|---------------|
|-----------|-----------------|-----------------|---------------|
|--5--7--9--|--5--2--9--------|--2--0--5--2-----|--9--7--5--7---|
|--5--7--9--|--5--2--9--------|--2--0--5--2-----|--9--7--5--7---|
|--5--7--9--|--5--2--9--------|--2--0--5--2-----|--9--7--5--7---|
|           |                 |                 |               | (As you can see
|     (  T  R  E  M  O  L  O      P  I  C  K  I  N  G  )        | here, the timing is
|--5--------|--7-5--10-9-7-5--|--5-----10-------|--5-----9--10--| different from the
|-----------|-----------------|-(Look for *****-|---------------| other chorus, but
|-----------|-----------------|--at the bottom--|---------------| just look how the
|-----------|-----------------|---for better ---|---------------| notes line up with
|-----------|-----------------|--sounding way --|---------------| the chords above,
|-----------|-----------------|--Than just 10)--|---------------| and some of them
                                                                  start inbetween)
Outro:
|------------------------------|---------------------------|
|-------3-2-3-2-------3-2------|---------------------------|
|-4-4-4---------2-2-2-----2--X4|---------------------------| (Both or one guitar
|------------------------------|--9999--12121212--12--9~~~-| can do this)
|------------------------------|--9999--12121212--12--9~~~-|
|------------------------------|--9999--12121212--12--9~~~-|

*****Instead of just tremolo picking 10, try tremolo picking 10, 5, 10.
But do it only playing the 5 once. To time it right play the 5 when the
other guitar is playing the -2- chord
                            -2-
                            -2-
Here is it in tab form if you don't understand
|-5--2----| 
|-5--2----| So you tremolo pick the 10, and when it switches chords you
|-5--2----| continue tremolo picking, but you quickly pick the 5 once and
|           then back to 10
|-10-5-10-|


Sorry about the parts that were wrong, the only improvement i made was the
little note with the guitar doing the tremolo picking above on third
chorus, and you can thank * joseluis92 * for commenting and giving me
corrections for the guitar playing the chords on the chorus, and the last
two chords on the outro
comments
print report bad tab
4 comments total. Showing first comments.
0 reply
joseluis92 wrote on July 26 2010, 11:22 pm

i think the chorus should be like this

| 1 1 2 1 1 2 1 1 1 1 1 1 1 1
|-------|-------|---------|---------|
|-------|-------|---------|---------|
|-------|-------|---------|---------|
|-5-7-9-|-5-2-9-|-2-0-5-2-|-9-7-5-7-|
|-5-7-9-|-5-2-9-|-2-0-5-2-|-9-7-5-7-|
|-5-7-9-|-5-2-9-|-2-0-5-2-|-9-7-5-7-|

and the ending should be

|---------------------------|
|---------------------------|
|---------------------------|
|-9999--12121212--12--9~~~--|
|-9999--12121212--12--9~~~--|
|-9999--12121212--12--9~~~--|

0 reply
Tylernol wrote on August 6 2010, 10:29 pm

Thanks, i listened to the song and tried your version it sounds alot better, to tell you the truth i thought the chrous sounded a little odd anyway, but i never noticed anything wrong with the ending, so thanks again, i'll try to have the correction up soon

0 reply
Captain Poo wrote on November 8 2010, 09:47 am

Well done "Tylernol." You should maybe note that this is the album version, not like the live recording or acoustics done on radios and such.

There's a slight difference, and I believe it's down tuned 1/2 step. Also slower....but either way awesome song, and great tab. (Good job being humble and accepting the correction from the other guy).

I'll be doing a cover of this song with my buddy soon....LOVE THIS SONG. check it out on youtube.com/Dlogreen

peace brotha!

I want to post or [tab]
guest
You may want to rate the tab now too:
select rating
Please do not post tabs as comments. Select "correction" instead!