Oops, an error
Loading. Please wait.

Your Song Tab

ver2
ver2

Whole song

More versions @911Tabs.com
3,863 views 6 this week
4 commentsread comments
1 2 3 4 5
accurate
x 5
Autoscroll
+/-
esc
set tempo
stop
Contributor
Difficulty
intermediate
Hey! There's an official Ultimate Guitar app which is ideal
for learning songs when you're away from computer. Get the app
WARNING: You are trying to view
                                    content from Ultimate-Guitar.com
                                    in an unauthorized application,
                                    which is prohibited.

                                    Please use an official Ultimate
                                    Guitar Tabs application for iPhone,
                                    iPad or Android to access legitimate
                                    chords, guitar, bass, and drum tabs
                                    from Ultimate-Guitar.com database.

                                    Type "ultimate guitar tabs" in Apple
                                    App Store's or Android Market's
                                    search to find the application.
-------------------------------------------------------------------------------
                             Your Song - Mayday Parade
-------------------------------------------------------------------------------
Tabbed by:swosusfinest-Heath
Email:epleyh@student.swosu.edu

Tuning:Drop D

Alright Im gonna attempt to write out every note...I could just say repeat
this or that but instead im gonna write them all out so you can follow easier
I dunno and so both guitars will match up and Im writing this for two guitars
even though there are three, its not much of a difference

Intro-Guitar 1
e|---------------------------------------------------------------------------|
B|---------------------------------------------------------------------------|
G|----7-7-7-7-7-7-7-7-7-7-7-7-7-7-7-7-7-7-7-7-7-7-7-7-7-7-7-7-7-7-7-7--------|
D|----x-x-x-x-x-x-x-x-x-x-x-x-x-x-x-x-x-x-x-x-x-x-x-x-x-x-x-x-x-x-x-x--------|
A|----5-5-5-5-5-5-5-5-5-5-5-5-5-5-5-5-5-5-5-5-5-5-5-5-5-5-5-5-5-5-5-5--------|
D|---------------------------------------------------------------------------|

Verse 1-Guitar 1
e|---------------------------------------------------------------------------|
B|---------------------------------------------------------------------------|
G|----7-7-7-7-7-7-7-7-7-7-7-7-7-7-7-7-7-7-7-7-7-7-7-7-7-7-7-7-7-7-7-7--------|
D|----x-x-x-x-x-x-x-x-x-x-x-x-x-x-x-x-x-x-x-x-x-x-x-x-x-x-x-x-x-x-x-x--------|
A|----5-5-5-5-5-5-5-5-5-5-5-5-5-5-5-5-5-5-5-5-5-5-5-5-5-5-5-5-5-5-5-5--------|
D|---------------------------------------------------------------------------|

Verse 1-Guitar 2
e|---------------------------------------------------------------------------|
B|---------------------------------------------------------------------------|
G|---------------------------------------------------------------------------|
D|----0~---------------------------------------------------------------------|
A|----0~---------------------------------------------------------------------|
D|----0~---------------------------------------------------------------------|

Verse 1 Cont-Guitar 1
e|---------------------------------------------------------------------------|
B|---------------------------------------------------------------------------|
G|----7-7-7-7-7-7-7-7-7-7-7-7-7-7-7-7-7-7-7-7-7-7-7-7-7-7-7-7-7-7-7-7--------|
D|----x-x-x-x-x-x-x-x-x-x-x-x-x-x-x-x-x-x-x-x-x-x-x-x-x-x-x-x-x-x-x-x--------|
A|----5-5-5-5-5-5-5-5-5-5-5-5-5-5-5-5-5-5-5-5-5-5-5-5-5-5-5-5-5-5-5-5--------|
D|---------------------------------------------------------------------------|

Verse 1 Cont-Guitar 2
e|---------------------------------------------------------------------------|
B|---------------------------------------------------------------------------|
G|---------------------------------------------------------------------------|
D|----5~---------------------------------------------------------------------|
A|----5~---------------------------------------------------------------------|
D|----5~---------------------------------------------------------------------|

Verse 1 Cont-Guitar 1
e|---------------------------------------------------------------------------|
B|---------------------------------------------------------------------------|
G|----7-7-7-7-7-7-7-7-7-7-7-7-7-7-7-7-7-7-7-7-7-7-7-7-7-7-7-7-7-7-7-7--------|
D|----x-x-x-x-x-x-x-x-x-x-x-x-x-x-x-x-x-x-x-x-x-x-x-x-x-x-x-x-x-x-x-x--------|
A|----5-5-5-5-5-5-5-5-5-5-5-5-5-5-5-5-5-5-5-5-5-5-5-5-5-5-5-5-5-5-5-5--------|
D|---------------------------------------------------------------------------|

Verse 1 Cont-Guitar 2
e|---------------------------------------------------------------------------|
B|---------------------------------------------------------------------------|
G|---------------------------------------------------------------------------|
D|----7/9\7--7/9\7----------------------7/9\7--7/9\7-------------------------|
A|-----------------9---------------------------------9-----------------------|
D|---------------------------------------------------------------------------|

Verse 1 Cont-Guitar 1
e|---------------------------------------------------------------------------|
B|---------------------------------------------------------------------------|
G|----7-7-7-7-7-7-7-7-7-7-7-7-7-7-7-7-7-7-7-7-7-7-7-7-7-7-7-7-7-7-7-7--------|
D|----x-x-x-x-x-x-x-x-x-x-x-x-x-x-x-x-x-x-x-x-x-x-x-x-x-x-x-x-x-x-x-x--------|
A|----5-5-5-5-5-5-5-5-5-5-5-5-5-5-5-5-5-5-5-5-5-5-5-5-5-5-5-5-5-5-5-5--------|
D|---------------------------------------------------------------------------|

Verse 1 Cont-Guitar 2
e|---------------------------------------------------------------------------|
B|---------------------------------------------------------------------------|
G|---------------------------------------------------------------------------|
D|----7/9\7--7/9\7-------------------------7/9\7--7/9\7----------------------|
A|-----------------9------------------------------------9--------------------|
D|---------------------------------------------------------------------------|

Verse 1 Cont-Guitar 1
e|---------------------------------------------------------------------------|
B|---------------------------------------------------------------------------|
G|----7-7-7-7-7-7-7-7-7-7-7-7-7-7-7-7-7-7-7-7-7-7-7-7-7-7-7-7-7-7-7-7--------|
D|----x-x-x-x-x-x-x-x-x-x-x-x-x-x-x-x-x-x-x-x-x-x-x-x-x-x-x-x-x-x-x-x--------|
A|----5-5-5-5-5-5-5-5-5-5-5-5-5-5-5-5-5-5-5-5-5-5-5-5-5-5-5-5-5-5-5-5--------|
D|---------------------------------------------------------------------------|

Verse 1 Cont-Guitar 2
e|---------------------------------------------------------------------------|
B|---------------------------------------------------------------------------|
G|---------------------------------------------------------------------------|
D|----4-4/5\4--4-4/5-7-------------------4-4/5\4--4-4/5-7--------------------|
A|---------------------------------------------------------------------------|
D|---------------------------------------------------------------------------|
      .        .                         .        .

Verse 1 Cont-Guitar 1
e|---------------------------------------------------------------------------|
B|---------------------------------------------------------------------------|
G|----7-7-7-7-7-7-7-7-7-7-7-7-7-7-7-7-7-7-7-7-7-7-7-7-7-7-7-7-7-7-7-7--------|
D|----x-x-x-x-x-x-x-x-x-x-x-x-x-x-x-x-x-x-x-x-x-x-x-x-x-x-x-x-x-x-x-x--------|
A|----5-5-5-5-5-5-5-5-5-5-5-5-5-5-5-5-5-5-5-5-5-5-5-5-5-5-5-5-5-5-5-5--------|
D|---------------------------------------------------------------------------|

Verse 1 Cont-Guitar 2
e|---------------------------------------------------------------------------|
B|---------------------------------------------------------------------------|
G|---------------------------------------------------------------------------|
D|----4-4/5\4--4-4/5-7-------------------4-4/5\4--4-4/5-7--------------------|
A|---------------------------------------------------------------------------|
D|---------------------------------------------------------------------------|
      .        .                         .      .

Fill-Guitar 1
e|---------------------------------------------------------------------------|
B|---------------------------------------------------------------------------|
G|----7-7-7-7-7-7-7-7-7-7-7-7-7-7-7-7-7-7-7-7-7-7-7-7-7-7-7-7-7-7-7-7--------|
D|----x-x-x-x-x-x-x-x-x-x-x-x-x-x-x-x-x-x-x-x-x-x-x-x-x-x-x-x-x-x-x-x--------|
A|----5-5-5-5-5-5-5-5-5-5-5-5-5-5-5-5-5-5-5-5-5-5-5-5-5-5-5-5-5-5-5-5--------|
D|---------------------------------------------------------------------------|

Fill-Guitar 2                        ||       those are 11s        ||
e|---------------------------------------------------------------------------|
B|---------------------------------------------------------------------------|
G|-----------------------------------11111111111111111111111111111111--------|
D|------------------------------------x-x-x-x-x-x-x-x-x-x-x-x-x-x-x-x--------|
A|------------------------------------9-9-9-9-9-9-9-9-9-9-9-9-9-9-9-9--------|
D|---------------------------------------------------------------------------|

Prechorus 1-Guitar 1
e|---------------------------------------------------------------------------|
B|---------------------------------------------------------------------------|
G|---------------------------------------------------------------------------|
D|----5-5-5-5-5-5-5--5-5-5-5-5-5-5--5-5-5-5-5-5-5--5-5-5-5-5-5-5-------------|
A|----5-5-5-5-5-5-5--5-5-5-5-5-5-5--5-5-5-5-5-5-5--5-5-5-5-5-5-5-------------|
D|----5-5-5-5-5-5-5--5-5-5-5-5-5-5--5-5-5-5-5-5-5--5-5-5-5-5-5-5-------------|

Prechorus 1-Guitar 2
e|---------------------------------------------------------------------------|
B|---------------------------------------------------------------------------|
G|----7-7-7-7---6-6--7-7-7-7---6-6--7-7-7-7---6-6----------------------------|
D|----x-x-x-x---x-x--x-x-x-x---x-x--x-x-x-x---x-x----9-11/12-11-7/9\7--------|
A|----5-5-5-5---4-4--5-5-5-5---4-4--5-5-5-5---4-4----------------------------|
D|---------------------------------------------------------------------------|

Prechorus 1 Cont-Guitar 1
e|---------------------------------------------------------------------------|
B|---------------------------------------------------------------------------|
G|---------------------------------------------------------------------------|
D|----0-0-0-0-0-0-0--0-0-0-0-0-0-0--0-0-0-0-0-0-0--0-0-0-0-0-0-0-------------|
A|----0-0-0-0-0-0-0--0-0-0-0-0-0-0--0-0-0-0-0-0-0--0-0-0-0-0-0-0-------------|
D|----0-0-0-0-0-0-0--0-0-0-0-0-0-0--0-0-0-0-0-0-0--0-0-0-0-0-0-0-------------|

Prechorus 1 Cont-Guitar 2  Once again, these are 11s
e|---------------------------------------------------------------------------|
B|---------------------------------------------------------------------------|
G|---11111111--1111--1111111--1111-11111111--1111----------------------------|
D|----x-x-x-x---x-x--x-x-x-x---x-x--x-x-x-x---x-x----9-11/12-11--7/9-7-------|
A|----9-9-9-9---9-9--9-9-9-9---9-9--9-9-9-9---9-9----------------------------|
D|---------------------------------------------------------------------------|

Prechorus 1 Cont-Guitar 1
e|---------------------------------------------------------------------------|
B|---------------------------------------------------------------------------|
G|---------------------------------------------------------------------------|
D|----9-9-9-9-9-9-9-9--7-7-7-7-7-7-7-7--5-5-5-5-5-5-5-5--7-7-7-7-7-7-7-7-----|
A|----9-9-9-9-9-9-9-9--7-7-7-7-7-7-7-7--5-5-5-5-5-5-5-5--7-7-7-7-7-7-7-7-----|
D|----9-9-9-9-9-9-9-9--7-7-7-7-7-7-7-7--5-5-5-5-5-5-5-5--7-7-7-7-7-7-7-7-----|

Prechorus 1 Cont-Guitar 2-once again, 11s
e|---------------------------------------------------------------------------|
B|---------------------------------------------------------------------------|
G|---111111111111-9/7-111111111111-9/7-111111111111-9/7-11111111-9-9-9-9--9--|
D|----x-x-x-x-x-x-x-x--x-x-x-x-x-x-x-x--x-x-x-x-x-x-x-x--x-x-x-x-x-x-x-x--x--|
A|----9-9-9-9-9-9-7/5--9-9-9-9-9-9-7/5--9-9-9-9-9-9-7/5--9-9-9-9-7-7-7-7--7--|
D|---------------------------------------------------------------------------|

Verse 2-Guitar 1
e|---------------------------------------------------------------------------|
B|---------------------------------------------------------------------------|
G|----7-7-7-7-7-7-7-7-7-7-7-7-7-7-7-7-7-7-7-7-7-7-7-7-7-7-7-7-7-7-7-7--------|
D|----x-x-x-x-x-x-x-x-x-x-x-x-x-x-x-x-x-x-x-x-x-x-x-x-x-x-x-x-x-x-x-x--------|
A|----5-5-5-5-5-5-5-5-5-5-5-5-5-5-5-5-5-5-5-5-5-5-5-5-5-5-5-5-5-5-5-5--------|
D|---------------------------------------------------------------------------|

Verse 2-Guitar 2
e|---------------------------------------------------------------------------|
B|---------------------------------------------------------------------------|
G|---------------------------------------------------------------------------|
D|---------------------------------------------------------------------------|
A|----5-5-5-5-5-5-5-5-5-5-5-5-5-5-5-5-5-5-5-5-5-5-5-5-5-5-5-5-5-5-5-5--------|
D|---------------------------------------------------------------------------|
      . . . . . . . . . . . . . . . . . . . . . . . . . . . . . . . .

Verse 2 Cont-Guitar 1-You know the drill, all 11s
e|---------------------------------------------------------------------------|
B|---------------------------------------------------------------------------|
G|---1111111111111111111111111111111111111111111111111111111111111111--------|
D|----x-x-x-x-x-x-x-x-x-x-x-x-x-x-x-x-x-x-x-x-x-x-x-x-x-x-x-x-x-x-x-x--------|
A|----9-9-9-9-9-9-9-9-9-9-9-9-9-9-9-9-9-9-9-9-9-9-9-9-9-9-9-9-9-9-9-9--------|
D|---------------------------------------------------------------------------|

Verse 2 Cont-Guitar 2
e|---------------------------------------------------------------------------|
B|---------------------------------------------------------------------------|
G|---------------------------------------------------------------------------|
D|---------------------------------------------------------------------------|
A|----9-9-9-9-9-9-7-7-7-7-7-7--7-7--9-9-9-9-9-9-7-7-7-7-7-7--7--7/5----------|
D|---------------------------------------------------------------------------|
      . . . . . . . . . . . .       . . . . . . . . . . . .

Verse 2 Cont-Guitar 1
e|---------------------------------------------------------------------------|
B|---------------------------------------------------------------------------|
G|----7-7-7-7-7-7-7-7-7-7-7-7-7-7-7-7-7-7-7-7-7-7-7-7-7-7-7-7-7-7------------|
D|----x-x-x-x-x-x-x-x-x-x-x-x-x-x-x-x-x-x-x-x-x-x-x-x-x-x-x-x-x-x------------|
A|----5-5-5-5-5-5-5-5-5-5-5-5-5-5-5-5-5-5-5-5-5-5-5-5-5-5-5-5-5-5------------|
D|---------------------------------------------------------------------------|

Verse 2 Cont-Guitar 2
e|---------------------------------------------------------------------------|
B|---------------------------------------------------------------------------|
G|---------------------------------------------------------------------------|
D|----7-7-7-7-7-7-7-7-7-7-7-7-7-7-7------7-7-7-7-7-7-7-7-7-7-7-7-7-----------|
A|---------------------------------------------------------------------------|
D|---------------------------------------------------------------------------|
      . . .   . .   . .   . .   .        . . .   . .   . .   . .

Verse 2 Cont-Guitar 1
e|---------------------------------------------------------------------------|
B|---------------------------------------------------------------------------|
G|--------------------------------7-7-7-7-7-7-7-7-7-7-7-7-7-7-7-7------------|
D|----0-0~------------------------x-x-x-x-x-x-x-x-x-x-x-x-x-x-x-x------------|
A|----0-0~------------------------5-5-5-5-5-5-5-5-5-5-5-5-5-5-5-5------------|
D|----0-0~-------------------------------------------------------------------|

Verse 2 Cont-Guitar 2
e|---------------------------------------------------------------------------|
B|---------------------------------------------------------------------------|
G|---------------------------------------------------------------------------|
D|----0-0~-------------------------------------------------------------------|
A|----0-0~------------------------9-9-9-9-9-9-9-9-9-9-9-9-9-9-9-9------------|
D|----0-0~-------------------------------------------------------------------|
                                  . . . . . . . . . . . . . . . .
Verse 2 Cont-Guitar 1
e|---------------------------------------------------------------------------|
B|---------------------------------------------------------------------------|
G|----7-7-7-7-7-7-7-7-7-7-7-7-7-7-7-7-7-7-7-7-7-7-7-7-7-7-7-7-7-7-7-7--------|
D|----x-x-x-x-x-x-x-x-x-x-x-x-x-x-x-x-x-x-x-x-x-x-x-x-x-x-x-x-x-x-x-x--------|
A|----5-5-5-5-5-5-5-5-5-5-5-5-5-5-5-5-5-5-5-5-5-5-5-5-5-5-5-5-5-5-5-5--------|
D|---------------------------------------------------------------------------|

Verse 2 Cont-Guitar 2-Those are 12s by the way the ones on the A string
e|---------------------------------------------------------------------------|
B|---------------------------------------------------------------------------|
G|---------------------------------------------------------------------------|
D|----------12----11----9----7/9\7----------12----11----9----7/9\7-----------|
A|----121212--1212--1212-1212---------121212--1212--1212-1212----------------|
D|---------------------------------------------------------------------------|
      . . .   . .   . .  . .          . . .   . .   . .  . .

Verse 2 Cont-Guitar 1
e|---------------------------------------------------------------------------|
B|---------------------------------------------------------------------------|
G|----7-7-7-7-7-7-7-7-7-7-7-7-7-7-7-7-7-7-7-7-7-7-7-7-7-7-7-7-7-7-7-7--------|
D|----x-x-x-x-x-x-x-x-x-x-x-x-x-x-x-x-x-x-x-x-x-x-x-x-x-x-x-x-x-x-x-x--------|
A|----5-5-5-5-5-5-5-5-5-5-5-5-5-5-5-5-5-5-5-5-5-5-5-5-5-5-5-5-5-5-5-5--------|
D|---------------------------------------------------------------------------|

Verse 2 Cont-Guitar 2-Once again, 12s
e|---------------------------------------------------------------------------|
B|---------------------------------------------------------------------------|
G|---------------------------------------------------------------------------|
D|----------12----11----9----7/9\7--------4-4/5\4--------4-4/5\4-------------|
A|----121212--1212--1212-1212---------5-5------------5-5---------------------|
D|---------------------------------------------------------------------------|
      . . .   . .   . .  . .          . . .          . . .

Prechorus 2-Guitar 1
e|---------------------------------------------------------------------------|
B|---------------------------------------------------------------------------|
G|---------------------------------------------------------------------------|
D|----5-5-5-5-5-5-5--5-5-5-5-5-5-5--5-5-5-5-5-5-5--5-5-5-5-5-5-5-------------|
A|----5-5-5-5-5-5-5--5-5-5-5-5-5-5--5-5-5-5-5-5-5--5-5-5-5-5-5-5-------------|
D|----5-5-5-5-5-5-5--5-5-5-5-5-5-5--5-5-5-5-5-5-5--5-5-5-5-5-5-5-------------|

Prechorus 2-Guitar 1
e|---------------------------------------------------------------------------|
B|---------------------------------------------------------------------------|
G|----7-7-7-7---6-6--7-7-7-7---6-6--7-7-7-7---6-6----------------------------|
D|----x-x-x-x---x-x--x-x-x-x---x-x--x-x-x-x---x-x----9-11/12-11-7/9\7--------|
A|----5-5-5-5---4-4--5-5-5-5---4-4--5-5-5-5---4-4----------------------------|
D|---------------------------------------------------------------------------|

Prechorus 2 Cont-Guitar 1
e|---------------------------------------------------------------------------|
B|---------------------------------------------------------------------------|
G|---------------------------------------------------------------------------|
D|----0-0-0-0-0-0-0--0-0-0-0-0-0-0--0-0-0-0-0-0-0--0-0-0-0-0-0-0-------------|
A|----0-0-0-0-0-0-0--0-0-0-0-0-0-0--0-0-0-0-0-0-0--0-0-0-0-0-0-0-------------|
D|----0-0-0-0-0-0-0--0-0-0-0-0-0-0--0-0-0-0-0-0-0--0-0-0-0-0-0-0-------------|

Prechorus 2 Cont-Guitar 2  Once again, those are 11s
e|---------------------------------------------------------------------------|
B|---------------------------------------------------------------------------|
G|---11111111--1111--1111111--1111-11111111--1111----------------------------|
D|----x-x-x-x---x-x--x-x-x-x---x-x--x-x-x-x---x-x----9-11/12-11--7/9-7-------|
A|----9-9-9-9---9-9--9-9-9-9---9-9--9-9-9-9---9-9----------------------------|
D|---------------------------------------------------------------------------|

Prechorus 2 Cont-Guitar 1
e|---------------------------------------------------------------------------|
B|---------------------------------------------------------------------------|
G|---------------------------------------------------------------------------|
D|----9-9-9-9-9-9-9-9--7-7-7-7-7-7-7-7--5-5-5-5-5-5-5-5--7-7-7-7-7-7-7-7-----|
A|----9-9-9-9-9-9-9-9--7-7-7-7-7-7-7-7--5-5-5-5-5-5-5-5--7-7-7-7-7-7-7-7-----|
D|----9-9-9-9-9-9-9-9--7-7-7-7-7-7-7-7--5-5-5-5-5-5-5-5--7-7-7-7-7-7-7-7-----|

Prechorus 2 Cont-Guitar 2-they're 11s
e|---------------------------------------------------------------------------|
B|---------------------------------------------------------------------------|
G|---111111111111-9/7-111111111111-9/7-111111111111-9/7-11111111-9-9-9-9--9--|
D|----x-x-x-x-x-x-x-x--x-x-x-x-x-x-x-x--x-x-x-x-x-x-x-x--x-x-x-x-x-x-x-x--x--|
A|----9-9-9-9-9-9-7/5--9-9-9-9-9-9-7/5--9-9-9-9-9-9-7/5--9-9-9-9-7-7-7-7--7--|
D|---------------------------------------------------------------------------|

Chorus 1-Guitar 1-7s are staccato just listen to the song
e|---------------------------------------------------------------------------|
B|---------------------------------------------------------------------------|
G|---------------------------------------------------------------------------|
D|----0-0-0-0-0-0-0-0--5-5-5-5-5-5-5-5--9-9-9-9-9-9-9-9--7-7-7-7-7-7-7-7-----|
A|----0-0-0-0-0-0-0-0--5-5-5-5-5-5-5-5--9-9-9-9-9-9-9-9--7-7-7-7-7-7-7-7-----|
D|----0-0-0-0-0-0-0-0--5-5-5-5-5-5-5-5--9-9-9-9-9-9-9-9--7-7-7-7-7-7-7-7-----|

Chorus 2-Guitar 2-11s again, staccato at the end again
e|---------------------------------------------------------------------------|
B|---------------------------------------------------------------------------|
G|----6/7-7-7-6/7-7-7-6/7-6/7-7-7-6/7-7-6/71111111111111111-9-9-9-9-9-9-9----|
D|----x-x-x-x-x-x-x-x-x-x-x-x-x-x-x-x-x-x-x-x-x-x-x-x-x-x-x-x-x-x-x-x-x-x----|
A|----4/5-5-5-4/5-5-5-4/5-4/5-5-5-4/5-5-5/6-9-9-9-9-9-9-9-9-7-7-7-7-7-7-7----|
D|---------------------------------------------------------------------------|

Chorus 1 Cont-Guitar 1
e|---------------------------------------------------------------------------|
B|---------------------------------------------------------------------------|
G|---------------------------------------------------------------------------|
D|----0-0-0-0-0-0-0-0--5-5-5-5-5-5-5-5--9-9-9-9-9-9-9-9--7-7-7-7-7-7-7-7-----|
A|----0-0-0-0-0-0-0-0--5-5-5-5-5-5-5-5--9-9-9-9-9-9-9-9--7-7-7-7-7-7-7-7-----|
D|----0-0-0-0-0-0-0-0--5-5-5-5-5-5-5-5--9-9-9-9-9-9-9-9--7-7-7-7-7-7-7-7-----|

Chorus 1 Cont-Guitar 2
e|---------------------------------------------------------------------------|
B|---------------------------------------------------------------------------|
G|----6/7-7-7-6/7-7-7-6/7-6/7-7-7-6/7-7-6/71111111111111111-9-9-9-9-9-9-9----|
D|----x-x-x-x-x-x-x-x-x-x-x-x-x-x-x-x-x-x-x-x-x-x-x-x-x-x-x-x-x-x-x-x-x-x----|
A|----4/5-5-5-4/5-5-5-4/5-4/5-5-5-4/5-5-5/6-9-9-9-9-9-9-9-9-7-7-7-7-7-7-7----|
D|---------------------------------------------------------------------------|

Bridge-Both Guitars
e|---------------------------------------------------------------------------|
B|---------------------------------------------------------------------------|
G|---------------------------------------------------------------------------|
D|----just-singing-and-then------------------------------7--7-7----xxxx------|
A|-------------------------------------------------------7--7-7----xxxx------|
D|-------------------------------------------------------7--7-7----xxxx------|

Bridge-Guitar 1
e|---------------------------------------------------------------------------|
B|---------------------------------------------------------------------------|
G|---------------------------------------------------------------------------|
D|----xxxxxx-5-x-5--xxxxxx-5-x-5--xxxxxx-5-x-5--xxxxxx-5-x-5-----------------|
A|----xxxxxx-5-x-5--xxxxxx-5-x-5--xxxxxx-5-x-5--xxxxxx-5-x-5-----------------|
D|----xxxxxx-5-x-5--xxxxxx-5-x-5--xxxxxx-5-x-5--xxxxxx-5-x-5-----------------|

Bridge-Guitar 2
e|----10----10----10----10----10------10----10----10----10----10-------------|
B|------10----10----10----10----10--10--10----10----10----10----10--10-------|
G|--------11----11----11----11----11------11----11----11----11----11---------|
D|---------------------------------------------------------------------------|
A|---------------------------------------------------------------------------|
D|---------------------------------------------------------------------------|

Bridge Cont-Guitar 1
e|---------------------------------------------------------------------------|
B|---------------------------------------------------------------------------|
G|----xxxxxx-7-x-7--xxxxxx-7-x-7--xxxxxx-7-x-7--xxxxxx-7-x-7-----------------|
D|----xxxxxx-7-x-7--xxxxxx-7-x-7--xxxxxx-7-x-7--xxxxxx-7-x-7-----------------|
A|----xxxxxx-5-x-5--xxxxxx-5-x-5--xxxxxx-5-x-5--xxxxxx-5-x-5-----------------|
D|---------------------------------------------------------------------------|

Bridge Cont-Guitar 2
e|----10----10----10----10----10------10----10-------------------------------|
B|------10----10----10----10----10--10--10-----------------------------------|
G|--------11----11----11----11----11------11---------------------------------|
D|-----------------------------------------------------pick-slide------------|
A|--------------------------------------------------\\\\\\\\\\\\\\\\\--------|
D|---------------------------------------------------------------------------|

Prechorus 3-Guitar 1
e|---------------------------------------------------------------------------|
B|---------------------------------------------------------------------------|
G|---------------------------------------------------------------------------|
D|----9-9-9-9-9-9-9-9--7-7-7-7-7-7-7-7--5-5-5-5-5-5-5-5--7-7-7-7-7-7-7-7-----|
A|----9-9-9-9-9-9-9-9--7-7-7-7-7-7-7-7--5-5-5-5-5-5-5-5--7-7-7-7-7-7-7-7-----|
D|----9-9-9-9-9-9-9-9--7-7-7-7-7-7-7-7--5-5-5-5-5-5-5-5--7-7-7-7-7-7-7-7-----|

Prechorus 3-Guitar 2
e|---------------------------------------------------------------------------|
B|---------------------------------------------------------------------------|
G|---111111111111-9/7-111111111111-9/7-111111111111-9/7-11111111-9-9-9-9--9--|
D|----x-x-x-x-x-x-x-x--x-x-x-x-x-x-x-x--x-x-x-x-x-x-x-x--x-x-x-x-x-x-x-x--x--|
A|----9-9-9-9-9-9-7/5--9-9-9-9-9-9-7/5--9-9-9-9-9-9-7/5--9-9-9-9-7-7-7-7--7--|
D|---------------------------------------------------------------------------|

Prechorus 3 Cont-Guitar 1
e|---------------------------------------------------------------------------|
B|---------------------------------------------------------------------------|
G|---------------------------------------------------------------------------|
D|----9-9-9-9-9-9-9-9--7-7-7-7-7-7-7-7---------------------------------------|
A|----9-9-9-9-9-9-9-9--7-7-7-7-7-7-7-7---------------------------------------|
D|----9-9-9-9-9-9-9-9--7-7-7-7-7-7-7-7---------------------------------------|

Prechorus 3 Cont-Guitar 2
e|---------------------------------------------------------------------------|
B|---------------------------------------------------------------------------|
G|---------------------------------------------------------------------------|
D|---1111111111-9-9-9-9-11111111-6-6-6-6-------------------------------------|
A|----x-x-x-x-x-x-x-x-x--x-x-x-x-x-x-x-x-------------------------------------|
D|----9-9-9-9-9/7-7-7-7--9-9-9-9-4-4-4-4-------------------------------------|

Chorus 2-Guitar 1-Staccato on 7s again
e|---------------------------------------------------------------------------|
B|---------------------------------------------------------------------------|
G|---------------------------------------------------------------------------|
D|----0-0-0-0-0-0-0-0--5-5-5-5-5-5-5-5--9-9-9-9-9-9-9-9--7-7-7-7-7-7-7-7-----|
A|----0-0-0-0-0-0-0-0--5-5-5-5-5-5-5-5--9-9-9-9-9-9-9-9--7-7-7-7-7-7-7-7-----|
D|----0-0-0-0-0-0-0-0--5-5-5-5-5-5-5-5--9-9-9-9-9-9-9-9--7-7-7-7-7-7-7-7-----|

Chorus 2-Guitar 2-And staccato the 7 octaves
e|---------------------------------------------------------------------------|
B|---------------------------------------------------------------------------|
G|----6/7-7-7-6/7-7-7-6/7-6/7-7-7-6/7-7-6/71111111111111111-9-9-9-9-9-9-9----|
D|----x-x-x-x-x-x-x-x-x-x-x-x-x-x-x-x-x-x-x-x-x-x-x-x-x-x-x-x-x-x-x-x-x-x----|
A|----4/5-5-5-4/5-5-5-4/5-4/5-5-5-4/5-5-5/6-9-9-9-9-9-9-9-9-7-7-7-7-7-7-7----|
D|---------------------------------------------------------------------------|

Chorus 2 Cont-Guitar 1
e|---------------------------------------------------------------------------|
B|---------------------------------------------------------------------------|
G|---------------------------------------------------------------------------|
D|----0-0-0-0-0-0-0-0--5-5-5-5-5-5-5-5--9-9-9-9-9-9-9-9--7-7-7-7-7-7-7-7-----|
A|----0-0-0-0-0-0-0-0--5-5-5-5-5-5-5-5--9-9-9-9-9-9-9-9--7-7-7-7-7-7-7-7-----|
D|----0-0-0-0-0-0-0-0--5-5-5-5-5-5-5-5--9-9-9-9-9-9-9-9--7-7-7-7-7-7-7-7-----|

Chorus 2 Cont-Guitar 2
e|---------------------------------------------------------------------------|
B|---------------------------------------------------------------------------|
G|----6/7-7-7-6/7-7-7-6/7-6/7-7-7-6/7-7-6/71111111111111111-9-9-9-9-9-9-9----|
D|----x-x-x-x-x-x-x-x-x-x-x-x-x-x-x-x-x-x-x-x-x-x-x-x-x-x-x-x-x-x-x-x-x-x----|
A|----4/5-5-5-4/5-5-5-4/5-4/5-5-5-4/5-5-5/6-9-9-9-9-9-9-9-9-7-7-7-7-7-7-7----|
D|---------------------------------------------------------------------------|

Ending Note-Guitar 1
e|---------------------------------------------------------------------------|
B|---------------------------------------------------------------------------|
G|---------------------------------------------------------------------------|
D|----0~---------------------------------------------------------------------|
A|----0~---------------------------------------------------------------------|
D|----0~---------------------------------------------------------------------|

Ending Note-Guitar 2
e|---------------------------------------------------------------------------|
B|---------------------------------------------------------------------------|
G|----7~---------------------------------------------------------------------|
D|----7~---------------------------------------------------------------------|
A|----5~---------------------------------------------------------------------|
D|---------------------------------------------------------------------------|

| /  slide up
| \  slide down
| h  hammer-on
| p  pull-off
| ~  vibrato
| +  harmonic
| x  Mute note
===============================================================================
comments
print report bad tab
4 comments total. Showing first comments.
0 reply
hero904 wrote on September 1 2008, 08:54 am

yo awsome job perfect 5 stars

0 reply
AllTimeAcid wrote on February 20 2010, 06:58 pm

dude, i love you!
thanks alot

0 reply
mscndlv01 wrote on May 27 2010, 08:26 pm

the power chords aren't right, they change more often.

I want to post or [tab]
guest
You may want to rate the tab now too:
select rating
Please do not post tabs as comments. Select "correction" instead!