Oops, an error
Loading. Please wait.

Dry The River Tab

ver3
ver3

Whole song

Interactive

More versions @911Tabs.com
1,588 views 1 this week
1 commentread comment
1 2 3 4 5
accurate
x 4
Autoscroll
+/-
esc
set tempo
stop
Contributor
Difficulty
Tuning
novice
D A D G B E
WARNING: You are trying to view
                                    content from Ultimate-Guitar.com
                                    in an unauthorized application,
                                    which is prohibited.

                                    Please use an official Ultimate
                                    Guitar Tabs application for iPhone,
                                    iPad or Android to access legitimate
                                    chords, guitar, bass, and drum tabs
                                    from Ultimate-Guitar.com database.

                                    Type "ultimate guitar tabs" in Apple
                                    App Store's or Android Market's
                                    search to find the application.
-------------------------------------------------------------------------------
                Dry the River - Maylene and the Sons of Disaster
-------------------------------------------------------------------------------
Tabbed by: Cj Stevens
Email: frozenpxl@yahoo.com
Myspace: myspace.com/cjstevens
Virb: virb.com/cjstevens


Tuning: Drop D = (High to low) DADGBE

PM or . = Palm Mute


(Intro, Guitar 1)
e|---------------------------------------------10-12-15-12-10------------------------|
B|11b12-11b12-11b12-11b12-11-------------11-12----------------12-11----11-12-11------|
G|---------------------------12-12-12-12----------------------------12----------12---|
D|---------------------------------------------------------------------------------14|
A|-----------------------------------------------------------------------------------|
D|-----------------------------------------------------------------------------------|

e|-----------------------------------------------------------|
B|--12b12.5----12b12.5----12b12.5----12b12.5-----------------|
G|--12b12.5----12b12.5----12b12.5----12b12.5-----------------|
D|----------14---------14---------14---------14-14-14-14-14--|
A|-----------------------------------------------------------|
D|-----------------------------------------------------------|
            .          .          .          .  .  .  .  .

e|-----------------------------------------------------|
B|-12b12.5----12b12.5----12/14-1414141414-12-----------|
G|-12b12.5----12b12.5----12/14 1414141414-12-----------|
D|---------14---------14---------------------14--------|
A|-----------------------------------------------------|
D|-----------------------------------------------------|
           .          .              

e|-----------------------------------------------------------|
B|--12b12.5----12b12.5----12b12.5----12b12.5-----------------|
G|--12b12.5----12b12.5----12b12.5----12b12.5-----------------|
D|----------14---------14---------14---------14-14-14-14-14--|
A|-----------------------------------------------------------|
D|-----------------------------------------------------------|
            .          .          .          .  .  .  .  .

e|-----------------------------------------------------|
B|-12b12.5----12b12.5----12/14-1414141414-12-----------|
G|-12b12.5----12b12.5----12/14 1414141414-12-----------|
D|---------14---------14---------------------14--------|
A|-----------------------------------------------------|
D|-----------------------------------------------------|
           .          .              
(end intro)

(Verse solo, Guitar 1)
e|----------------------------------------------------------------------------------|
B|----------------------------------------------------------------------------------|
G|-12~--------12~-----14-14-14-14-14-12------12~--------12~-----14-14-14-14-14-16-12|
D|----12~-14~-----12~-------------------14~------12~-14~----12~---------------------|
A|----------------------------------------------------------------------------------|
D|----------------------------------------------------------------------------------|


(Verse, Guitars 2, 3)
e|---------------------------------------------------------------------------|
B|---------------------------------------------------------------------------|
G|---------------------------------------------------------------------------|
D|-5-22--5--22-5--22-5-22222222--5-22--5-22--2/77777-5-0---------------------|
A|-5-22--5--22-5--22-5-22222222--5-22--5-22--2/77777-5-0---------------------|
D|-5-22--5--22-5--22-5-22222222--5-22--5-22--2/77777-5-0---------------------|
     ..     ..    ..   ........    ..    ..

(Pre-chorus, Guitar 1)
e|--------------------------------------------------|
B|--------------------------------------------------|
G|--------------------------------------------------|
D|--------------------------------------------------|
A|--------------------------------------------------|
D|2-5-2-0--0-2-5-5-------2-5-2-0--0-2-5-5-----------|
 
(Pre Chourus, Guitars 1, 2, 3)
e|--------------------------------------------------|
B|--------------------------------------------------|
G|--------------------------------------------------|
D|2-5-2-0--0-2-5-5-------2-5-2-0--0-2-5-5-----------|
A|2-5-2-0--0-2-5-5-------2-5-2-0--0-2-5-5-----------|
D|2-5-2-0--0-2-5-5-------2-5-2-0--0-2-5-5-----------|

e|----------------------------------------------------------|
B|----------------------------------------------------------|
G|----------------------------------------------------------|
D|2-5-2-0--0-2-5-5-------2-5-2-0--0-2-5-5-5-5-5-5-5-5-------|
A|2-5-2-0--0-2-5-5-------2-5-2-0--0-2-5-5-5-5-5-5-5-5-------|
D|2-5-2-0--0-2-5-5-------2-5-2-0--0-2-5-5-5-5-5-5-5-5-------|

(Chorus, Guitar 1) 2x
e|---------------------------------------------------------------|
B|---------------------------------------------------------------|
G|-12-12-12-12-12-14-11-9-7-9-9-9-9-9-11-9-7-4-4-4-4-4-4-7-6-5-2-|
D|---------------------------------------------------------------|
A|-10-10-10-10-10-12-9--7-5-7-7-7-7-7-9--7-5-2-2-2-2-2-2-5-4-2-0-|
D|---------------------------------------------------------------|

(Chorus, Guitars 2, 3) 2x
e|-------------------------------------------------------------|
B|-------------------------------------------------------------|
G|-------------------------------------------------------------|
D|-5--5-5-5-5-5-5-0--0-0-0-0-0-0-7--7-7-7-7-7-7-2--2-2-2-2-2-2-|
A|-5--5-5-5-5-5-5-0--0-0-0-0-0-0-7--7-7-7-7-7-7-2--2-2-2-2-2-2-|
D|-5--5-5-5-5-5-5-0--0-0-0-0-0-0-7--7-7-7-7-7-7-2--2-2-2-2-2-2-|

e|-------------------------------------------------------------|
B|-------------------------------------------------------------|
G|-------------------------------------------------------------|
D|-5--5-5-5-5-5-5-7--0-0-0-0-0-0-------------------------------|
A|-5--5-5-5-5-5-5-7--0-0-0-0-0-0-------------------------------|
D|-5--5-5-5-5-5-5-7--0-0-0-0-0-0-5-2-5-2-5-2---5-2-5-2-5-2-----|


(Verse 2, Guitars 1, 2, 3) 
e|------------------------------------------|
B|------------------------------------------|
G|------------------------------------------|
D|-----2-------------------2----------------| 2x
A|-------5-2---2---2---------5-2---2---2----|
D|-2-5-------5---5---5-2-5-------5---5---5--|

e|---------------------------------------------------------------------------------------|
B|---------------------------------------------------------------------------------------|
G|---------------------------------------------------------------------------------------|
D|-2-222-2--55-2-222-2--99-7-5-2-222-2--55-2-222-2--99-7-5-22-55-77-8--------------------|
A|-2-222-2--55-2-222-2--99-7-5-2-222-2--55-2-222-2--99-7-5-22-55-77-8-567-567-567-7-7-7\-|
D|-2-222-2--55-2-222-2--99-7-5-2-222-2--55-2-222-2--99-7-5-22-55-77-8--------------------|
     ...         ...             ...         ...

(Chorus 2, Guitar 1) 2x
e|---------------------------------------------------------------|
B|---------------------------------------------------------------|
G|-12-12-12-12-12-14-11-9-7-9-9-9-9-9-11-9-7-4-4-4-4-4-4-7-6-5-2-|
D|---------------------------------------------------------------|
A|-10-10-10-10-10-12-9--7-5-7-7-7-7-7-9--7-5-2-2-2-2-2-2-5-4-2-0-|
D|---------------------------------------------------------------|

(Chorus 2, Guitars 2, 3) 
  **note: the ending of 2nd chorus is different. Skip the last riff and go into the pre-solo**
e|-------------------------------------------------------------|
B|-------------------------------------------------------------|
G|-------------------------------------------------------------|
D|-5--5-5-5-5-5-5-0--0-0-0-0-0-0-7--7-7-7-7-7-7-2--2-2-2-2-2-2-|
A|-5--5-5-5-5-5-5-0--0-0-0-0-0-0-7--7-7-7-7-7-7-2--2-2-2-2-2-2-|
D|-5--5-5-5-5-5-5-0--0-0-0-0-0-0-7--7-7-7-7-7-7-2--2-2-2-2-2-2-|

e|-------------------------------------------------------------|
B|-------------------------------------------------------------|
G|-------------------------------------------------------------|
D|-5--5-5-5-5-5-5-7--0-0-0-0-0-0-------------------------------|
A|-5--5-5-5-5-5-5-7--0-0-0-0-0-0-------------------------------|
D|-5--5-5-5-5-5-5-7--0-0-0-0-0-0-5-2-5-2-5-2---5-2-5-2-5-2-----|

e|-------------------------------------------------------------|
B|-------------------------------------------------------------|
G|-------------------------------------------------------------|
D|-5--5-5-5-5-5-5-0--0-0-0-0-0-0-7--7-7-7-7-7-7-2--2-2-2-2-2-2-|
A|-5--5-5-5-5-5-5-0--0-0-0-0-0-0-7--7-7-7-7-7-7-2--2-2-2-2-2-2-|
D|-5--5-5-5-5-5-5-0--0-0-0-0-0-0-7--7-7-7-7-7-7-2--2-2-2-2-2-2-|

e|--------------------------------|
B|--------------------------------|
G|--------------------------------|
D|-5--5-5-5-5-5-5-7--0-0-0-0-0-0--|
A|-5--5-5-5-5-5-5-7--0-0-0-0-0-0--|
D|-5--5-5-5-5-5-5-7--0-0-0-0-0-0--|
(end chorus 2)

(Pre-Solo, Guitar 1)
e|-------------------------------------|
B|-------------------------------------|
G|-14-11-----------14-11---------------|
D|-------14-12-14~-------14-12-11~-----|
A|-------------------------------------|
D|-------------------------------------|

(Pre-Solo, Guitars 2, 3)
e|-------------------------------------------------------------|
B|-------------------------------------------------------------|
G|-------------------------------------------------------------|
D|-5-22--5--22-5--22-5-22222222--5-22--5-22--2/77777-5-0-------|
A|-5-22--5--22-5--22-5-22222222--5-22--5-22--2/77777-5-0-------|
D|-5-22--5--22-5--22-5-22222222--5-22--5-22--2/77777-5-0-------|
     ..     ..    ..   ........    ..    ..

(Solo, Guitar 1)
e|---------------------------------------------10-12-15-12-10------------------------|
B|11b12-11b12-11b12-11b12-11-------------11-12----------------12-11----11-12-11------|
G|---------------------------12-12-12-12----------------------------12----------12---|
D|---------------------------------------------------------------------------------14|
A|-----------------------------------------------------------------------------------|
D|-----------------------------------------------------------------------------------|

*rhythm guitars come in*
e|-----------------------------------------------------------|
B|--12b12.5----12b12.5----12b12.5----12b12.5-----------------|
G|--12b12.5----12b12.5----12b12.5----12b12.5-----------------|
D|----------14---------14---------14---------14-14-14-14-14--|
A|-----------------------------------------------------------|
D|-----------------------------------------------------------|
            .          .          .          .  .  .  .  .

e|-----------------------------------------------------|
B|-12b12.5----12b12.5----12/14-1414141414-12-----------|
G|-12b12.5----12b12.5----12/14 1414141414-12-----------|
D|---------14---------14---------------------14--------|
A|-----------------------------------------------------|
D|-----------------------------------------------------|
           .          .              

e|------------------------------------------------------------------------------------------------|
B|-15-------15-------15-------15----------------------15-------15-------15-17-17-17-17-17-17-15---|
G|-15-------15-------15-------15----------------------15-------15-------15-17-17-17-17-17-17-15---|
D|----17-17----17-17----17-17----17-17-17-17-17-17-17----17-17----17-17-------------------------17| 2x
A|------------------------------------------------------------------------------------------------|
D|------------------------------------------------------------------------------------------------|
      .  .     .  .     .  .     .  .  .  .  .  .  .     .  .     .  .  

e|------------------------------------------------------------------------------------------------|
B|-12-------12-------12-------12----------------------12-------12-------12-14-14-14-14-14-14-12---|
G|-12-------12-------12-------12----------------------12-------12-------12-14-14-14-14-14-14-12---|
D|----14-14----14-14----14-14----14-14-14-14-14-14-14----14-14----14-14-------------------------17| 
A|------------------------------------------------------------------------------------------------|
D|------------------------------------------------------------------------------------------------|
      .  .     .  .     .  .     .  .  .  .  .  .  .     .  .     .  .  

e|-------------------------------------------------------------------------------------------|
B|-12-------12-------12-------12----------------------12-------12-------12-14-14-14-14-14-14-|
G|-12-------12-------12-------12----------------------12-------12-------12-14-14-14-14-14-14-|
D|----14-14----14-14----14-14----14-14-14-14-14-14-14----14-14----14-14----------------------| 
A|-------------------------------------------------------------------------------------------|
D|-------------------------------------------------------------------------------------------|
      .  .     .  .     .  .     .  .  .  .  .  .  .     .  .     .  .  

e|----------------------------------------------------------------------------|
B|----------------------------------------------------------------------------|
G|----------------------------------------------------------------------------|
D|-789-789-789-789-----789-789-789------789-789-789-----789-789-9-9-9-9-9-9-9-|
A|----------------------------------------------------------------------------|
D|-----------------5-2-------------5-2--------------2-5-----------------------|


(Solo, Guitars 2, 3 
e|-------------------------------------------------------------|
B|-------------------------------------------------------------|
G|-------------------------------------------------------------|
D|-5-22--5--22-5--22-5-22222222--5-22--5-22--2/77777-5-2-------|
A|-5-22--5--22-5--22-5-22222222--5-22--5-22--2/77777-5-2-------|
D|-5-22--5--22-5--22-5-22222222--5-22--5-22--2/77777-5-2-------|
     ..     ..    ..   ........    ..    ..

e|---------------------------------------------------|
B|---------------------------------------------------|
G|---------------------------------------------------|
D|-8-55-8-55-8-55555555-8-55-8-55-5/101010101010-8-5-|2x
A|-8-55-8-55-8-55555555-8-55-8-55-5/101010101010-8-5-|
D|-8-55-8-55-8-55555555-8-55-8-55-5/101010101010-8-5-|
     ..   ..   ........   ..   ..

e|-------------------------------------------------------------|
B|-------------------------------------------------------------|
G|-------------------------------------------------------------|
D|-5-22--5--22-5--22-5-22222222--5-22--5-22--2/77777-5-0-------|
A|-5-22--5--22-5--22-5-22222222--5-22--5-22--2/77777-5-0-------|
D|-5-22--5--22-5--22-5-22222222--5-22--5-22--2/77777-5-0-------|
     ..     ..    ..   ........    ..    ..

e|-----------------------------------------------------|
B|-----------------------------------------------------|
G|-----------------------------------------------------|
D|-5-22--5--22-5--22-5-22222222--5-22--5-22--2/77777---|
A|-5-22--5--22-5--22-5-22222222--5-22--5-22--2/77777---|
D|-5-22--5--22-5--22-5-22222222--5-22--5-22--2/77777---|
     ..     ..    ..   ........    ..    ..

e|---------------------------------------------------------------------------------------|
B|---------------------------------------------------------------------------------------|
G|---------------------------------------------------------------------------------------|
D|-----------------5-2-----------------5-2-----------------5-2---------------------------|
A|-567-567-567-567-5-2-567-567-567-567-5-2-567-567-567-567-5-2-567-567-567-7-7-7-7-7-7-7-|
E|-----------------5-2-----------------5-2-----------------5-2---------------------------|

(Chorus, Guitar 1) 2x
e|---------------------------------------------------------------|
B|---------------------------------------------------------------|
G|-12-12-12-12-12-14-11-9-7-9-9-9-9-9-11-9-7-4-4-4-4-4-4-7-6-5-2-|
D|---------------------------------------------------------------|
A|-10-10-10-10-10-12-9--7-5-7-7-7-7-7-9--7-5-2-2-2-2-2-2-5-4-2-0-|
D|---------------------------------------------------------------|

(Chorus, Guitars 2, 3) 2x
e|-------------------------------------------------------------|
B|-------------------------------------------------------------|
G|-------------------------------------------------------------|
D|-5--5-5-5-5-5-5-0--0-0-0-0-0-0-7--7-7-7-7-7-7-2--2-2-2-2-2-2-|
A|-5--5-5-5-5-5-5-0--0-0-0-0-0-0-7--7-7-7-7-7-7-2--2-2-2-2-2-2-|
D|-5--5-5-5-5-5-5-0--0-0-0-0-0-0-7--7-7-7-7-7-7-2--2-2-2-2-2-2-|

e|--------------------------------|
B|--------------------------------|
G|--------------------------------|
D|-5--5-5-5-5-5-5-7--0-0-0-0-0-0--|
A|-5--5-5-5-5-5-5-7--0-0-0-0-0-0--|
D|-5--5-5-5-5-5-5-7--0-0-0-0-0-0--|

(Outro Guitars 1)
e|-------------------------------------------------------------|
B|-------------------------------------------------------------|
G|-------------------------------------------------------------|
D|------------------------------------------14-12-11-----------|
A|---------------------------------------------------14-12-7---|
D|-5-2-5-2-5-2---5-2-5-2-5-2----5-2-5-2-5-2--------------------|

(Outro Guitars 2, 3)
e|-------------------------------------------------------------|
B|-------------------------------------------------------------|
G|-------------------------------------------------------------|
D|-------------------------------------------------------------|
A|------------------------------------------------------567----|
D|-5-2-5-2-5-2---5-2-5-2-5-2----5-2-5-2-5-2---5-2-5-2-5--------|


| /  slide up
| \  slide down
| h  hammer-on
| p  pull-off
| ~  vibrato
| +  harmonic
| x  Mute note
===============================================================================
comments
print report bad tab
1 comment total.
0 reply
scarecrow55 wrote on May 29 2007, 06:02 pm

not accurate

I want to post or [tab]
guest
You may want to rate the tab now too:
select rating
Please do not post tabs as comments. Select "correction" instead!