Oops, an error
Loading. Please wait.

Lady At The Gate Tab

ver2
ver2

Whole song

Interactive

More versions @911Tabs.com
6,579 views 12 this week
3 commentsread comments
1 2 3 4 5
accurate
x 6
add to favorites launch autoscroll
font size
0
reset
Autoscroll
+/-
esc
set tempo
stop
Difficulty
Tuning
novice
D A D G B E
WARNING: You are trying to view
                                    content from Ultimate-Guitar.com
                                    in an unauthorized application,
                                    which is prohibited.

                                    Please use an official Ultimate
                                    Guitar Tabs application for iPhone,
                                    iPad or Android to access legitimate
                                    chords, guitar, bass, and drum tabs
                                    from Ultimate-Guitar.com database.

                                    Type "ultimate guitar tabs" in Apple
                                    App Store's or Android Market's
                                    search to find the application.
I have been playing this for as long as i can remember and im sure its right, so here is 
right tab to lady at the gate

 /  Slide up

 \  Slide down

 x Palm mute

 * Harmonic
===============================================================================

Start

e|-----------------------------------------------------------------------------|
B|-----------------------------------------------------------------------------|
G|----2/3-0--------------------------------------------------------------------|
D|----------3-0-0-3-5-3-0------------------------------------------------------|
A|-----------------------------3-0-3-5-3-0------0------------------------------|
D|---------------------------------------------5-3-0---------------------------|

part 1:

3x    e|-----------------------------------------------------------------------------|
B|-----------------------------------------------------------------------------------|
G|-----------------------------------------------------------------------------------|
D|-----------------------------------------------------------------------------------|
A|-----00000--0000--3-0--5-0--6-0--5-0-----------------------------------------------|
D|-----00000--0000--3-0--5-0--6-0--5-0-----------------------------------------------|

e|-----------------------------------------------------------------------------|
B|-----------------------------------------------------------------------------|
G|------3-0--------------------------------------------------------------------|
D|----------3-0-0-3-5-3-0------------------------------------------------------|
A|-----------------------------3-0-3-5-3-0-------0-----------------------------|
D|---------------------------------------------5-3--0--------------------------|

 3x    e|-----------------------------------------------------------------------------|
B|------------------------------------------------------------------------------------|
G|------------------------------------------------------------------------------------|
D|------------------------------------------------------------------------------------|
A|-----00000--0000--3-0--5-0--6-0--5-0------------------------------------------------|
D|-----00000--0000--3-0--5-0--6-0--5-0------------------------------------------------|

e|-----------------------------------------------------------------------------|
B|-----------------------------------------------------------------------------|
G|------3-0--------------------------------------------------------------------|
D|----------3-0-0-3-5-3-0------------------------------------------------------|
A|-----------------------------3-0-3-5-3-0-------0-----------------------------|
D|---------------------------------------------5-3--0--------------------------|

 3x    e|-------------------------------|
B|--------------------------------------|
G|--------------------------------------|
D|--------------------------------------|
A|-----00000--0000--3-0--5-0--6-0--5-0--|
D|-----00000--0000--3-0--5-0--6-0--5-0--|                     .

e|-----------------------------------------------------------------------------|
B|-----------------------------------------------------------------------------|
G|------3-0--------------------------------------------------------------------|
D|----------3-0-0-3-5-3-0------------------------------------------------------|
A|-----------------------------3-0-3-5-3-0------0             ] ---------------|
D|---------------------------------------------5-3-0  Let ring]----------------|

Part: 2

     e|-----------------------------------------------------------------------------|
B|----------------------------------------------------------------------------------|
G|----------------------------------------------------------------------------------|
D|----------------------------------------------------------------------------------|
A|-----0-0-0-0--6-5--0-3-0-3-5-3-0--------------------------------------------------|
D|-----0-0-0-0--6-5--0-3-0-3-5-3-0--------------------------------------------------|

e|-----------------------------------------------------------------------------|
B|-----------------------------------------------------------------------------|
G|-----------------------------------------------------------------------------|
D|----5/6\5--3--0--------3-----------------------------------------------------|
A|--------------------3--5----5---0-3-0----------------------------------------|
D|-------------------------------------------3-0-3-----------------------------|

 e|-----------------------------------------------------------------------------|
B|------------------------------------------------------------------------------|
G|------------------------------------------------------------------------------|
D|------------------------------------------------------------------------------|
A|-----0-0-0-0--6-5--0-3-0-3-5-3-0----------------------------------------------|
D|-----0-0-0-0--6-5--0-3-0-3-5-3-0----------------------------------------------|

e|-----------------------------------------------------------------------------|
B|-----------------------------------------------------------------------------|
G|-----------------------------------------------------------------------------|
D|----5/6\5--3--0--------3-----------------------------------------------------|
A|--------------------3--5----5---0-3-0----------------------------------------|
D|-------------------------------------------3-0-3-----------------------------|

    e|-----------------------------------------------------------------------------|
B|---------------------------------------------------------------------------------|
G|---------------------------------------------------------------------------------|
D|---------------------------------------------------------------------------------|
A|-----0-0-0-0--6-5--0-3-0-3-5-3-0-------------------------------------------------|
D|-----0-0-0-0--6-5--0-3-0-3-5-3-0-------------------------------------------------|

e|-----------------------------------------------------------------------------|
B|-----------------------------------------------------------------------------|
G|-----------------------------------------------------------------------------|
D|----5/6\5--3--0--------3-----------------------------------------------------|
A|--------------------3--5----5---0-3-0----------------------------------------|
D|-------------------------------------------3-0-3-----------------------------|

    e|-----------------------------------------------------------------------------|
B|---------------------------------------------------------------------------------|
G|---------------------------------------------------------------------------------|
D|---------------------------------------------------------------------------------|
A|-----0-0-0-0--6-5--0-3-0-3-5-3-0-------------------------------------------------|
D|-----0-0-0-0--6-5--0-3-0-3-5-3-0-------------------------------------------------|

e|-----------------------------------------------------------------------------|
B|-----------------------------------------------------------------------------|
G|-----------------------------------------------------------------------------|
D|----5/6\5--3--0--------3-----------------------------------------------------|
A|--------------------3--5----5---0-3-0----------------------------------------|
D|-------------------------------------------3-0-3-----------------------------|

Part: 3

4x    e|-----------------------------------------------------------------------------|
B|-----------------------------------------------------------------------------------|
G|-----------------------------------------------------------------------------------|
D|-----------------------------------------------------------------------------------|
A|-----------------------------------------------------------------------------------|
D|-----\ 0 -   let ring]-------/ 6 -  Let ring]--------------------------------------|

e|-----------------------------------------------------------------------------|
B|-----------------------------------------------------------------------------|
G|-----------------------------------------------------------------------------|
D|-----------------------------------------------------------------------------|
A|--\0--0-0--8x8--0-0--3-3-x-5-5-----------------------------------------------|
D|--\0--0-0--8x8--0-0--3-3-x-5-5----*3-----------------------------------------|


e|-----------------------------------------------------------------------------|
B|-----------------------------------------------------------------------------|
G|-----------------------------------------------------------------------------|
D|-----------------------------------------------------------------------------|
A|----0-0--8x8--0-0--3-3-x-5-5-----*3------------------------------------------|
D|----0-0--8x8--0-0--3-3-x-5-5-------------------------------------------------|

e|-----------------------------------------------------------------------------|
B|-----------------------------------------------------------------------------|
G|-----------------------------------------------------------------------------|
D|-----------------------------------------------------------------------------|
A|----0-0--8x8--0-0--3-3-x-5-5-------------------------------------------------|
D|----0-0--8x8--0-0--3-3-x-5-5----*3-------------------------------------------|

e|-----------------------------------------------------------------------------|
B|-----------------------------------------------------------------------------|
G|-----------------------------------------------------------------------------|
D|-----------------------------------------------------------------------------|
A|----0-0--8x8--0-0--3-3-x-5-5----*3-------------------------------------------|
D|----0-0--8x8--0-0--3-3-x-5-5-------------------------------------------------|

e|-----------------------------------------------------------------------------|
B|-----------------------------------------------------------------------------|
G|-----------------------------------------------------------------------------|
D|-----------------------------------------------------------------------------|
A|--\0--0-0--8x8--0-0--3-3-x-5-5-----------------------------------------------|
D|--\0--0-0--8x8--0-0--3-3-x-5-5----*3-----------------------------------------|


e|-----------------------------------------------------------------------------|
B|-----------------------------------------------------------------------------|
G|-----------------------------------------------------------------------------|
D|-----------------------------------------------------------------------------|
A|----0-0--8x8--0-0--3-3-x-5-5-----*3------------------------------------------|
D|----0-0--8x8--0-0--3-3-x-5-5-------------------------------------------------|

e|-----------------------------------------------------------------------------|
B|-----------------------------------------------------------------------------|
G|-----------------------------------------------------------------------------|
D|-----------------------------------------------------------------------------|
A|----0-0--8x8--0-0--3-3-x-5-5-------------------------------------------------|
D|----0-0--8x8--0-0--3-3-x-5-5----*3-------------------------------------------|

e|-----------------------------------------------------------------------------|
B|-----------------------------------------------------------------------------|
G|-----------------------------------------------------------------------------|
D|-----------------------------------------------------------------------------|
A|----0-0--8x8--0-0--3-3-x-5-5----*3-------------------------------------------|
D|----0-0--8x8--0-0--3-3-x-5-5-------------------------------------------------|


Part: 5

e|--------------------------------------------------------------------------------|
B|--------------------------------------------------------------------------------|
G|--------------------------------------------------------------------------------|
D|--------------------------------------------------------------------------------|
A|----0-0-0-0--6-------------------3-------------3-0-3-0-0-3-5-6-5-3---6-5-3-0----|
D|----0-0-0-0-----6-5-3--0-3-5----5-3-0--0-------------------------------6-5-3-0--|

4x    e|-----------------------------------------------------------------------|
B|-----------------------------------------------------------------------------|
G|-----------------------------------------------------------------------------|
D|-----------------------------------------------------------------------------|
A|-----0-0--6-------------------3-------------3-0-3-0-0-3-5-6-5-3---6-5-3-0----|
D|-----0-0-----6-5-3--0-3-5----5-3-0--0-------------------------------6-5-3-0--|
comments
print report bad tab
3 comments total.
0 reply
bugit wrote on August 3 2009, 08:51 pm

intro is

G|--2/3-0---------------------------------|
D|--------3-0-3h5p3p0---------------------|
A|---------------------3-0-0h3h5-3--5-3---|
D|----------------------------------5-3---|

0 reply
bugit wrote on August 3 2009, 08:55 pm

intro is

G|--2/3-0---------------------------------|
D|--------3-0-3h5p3p0---------------------|
A|---------------------3-0-0h3h5-3--5-3---|
D|----------------------------------5-3---|

0 reply
nostheboss wrote on September 2 2011, 01:04 pm

part 5 is

d|------------------------------------------------------------
a|-0-0-0-0-5---------------3------3-0-3-0-0-3-5-6-5-3--6-5-3-0
d|-0-0-0-0--6-5-3--0-3-5--5-3-0--0---------------------6-5-3-0

I want to post or [tab]
guest
You may want to rate the tab now too:
select rating
Please do not post tabs as comments. Select "correction" instead!