Oops, an error
Loading. Please wait.

1000 Times Goodbye Tab

ver2
ver2

Intro

Whole song

More versions @911Tabs.com
1,250 views 1 this week
1 commentread comment
1 2 3 4 5
please rate
Autoscroll
+/-
esc
set tempo
stop
Contributor
Tuning
D# G# C# F# A# D#
WARNING: You are trying to view
                                    content from Ultimate-Guitar.com
                                    in an unauthorized application,
                                    which is prohibited.

                                    Please use an official Ultimate
                                    Guitar Tabs application for iPhone,
                                    iPad or Android to access legitimate
                                    chords, guitar, bass, and drum tabs
                                    from Ultimate-Guitar.com database.

                                    Type "ultimate guitar tabs" in Apple
                                    App Store's or Android Market's
                                    search to find the application.
#----------------------------------PLEASE NOTE---------------------------------#
#This file is the author's own work and represents their interpretation of the #
#song. You may only use this file for private study, scholarship, or research. #
#------------------------------------------------------------------------------#

1000 TIMES GOODBYE
As recorded by Megadeth
(From the 2001 Album THE WORLD NEEDS A HERO)

Transcribed by Fenian
	

Words and Music by Dave Mustaine

E5
0 2 2 x x x
	
F#5
2 4 x x x x
	
G5
3 5 x x x x
	
A5
5 7 x x x x

Bb5
6 8 x x x x

Gtr I (Eb Ab Db Gb Bb Eb) - 'Untitled'
Gtr II (Eb Ab Db Gb Bb Eb) - 'Untitled'
Gtr III (Eb Ab Db Gb Bb Eb) - 'Untitled'
Gtr IV (Eb Ab Db Gb Bb Eb) - 'Untitled'

 Intro
  Q=158
 4/4
  Gtrs I, II
  PM------------------------------------------------------------------|
  E E E E E E E E   E E E E E E E E   E E E E E E E E   E E E E E E E E
|-----------------|-----------------|-----------------|-----------------|
|-----------------|-----------------|-----------------|-----------------|
|-----------------|-----------------|-----------------|-----------------|
|-----------------|-----------------|-----------------|-----------------|
|-----------------|-----------------|-----------------|-----------------|
|-0-0-0-0-1-1-1-1-|-0-0-0-0-4-3-2-1-|-0-0-0-0-1-1-1-1-|-0-0-0-0-4-3-2-1-|


  Gtrs I, II
  PM----------------------------------
  E E E E E E E E   E E E E E E  E E
|-----------------|------------------|
|-----------------|------------------|
|-----------------|------------------|
|-----------------|------------------|
|-----------------|------------------|
|-0-0-0-0-1-1-1-1-|-0-0-0-0-4-3--2-1-|
|
| Gtr III
|                                <
| W                 H       Q    Q
|-----------------|-------------12---|
|-----------------|-------------12---|
|-----------------|------------------|
|-----------------|------------------|
|-----------------|------------------|
|-----------------|------------------|


 ------------------------------------------|
    E  E E E E E E E     E  E E E   E  E E   E
|--------------------|--------------------------|
|--------------------|--------------------------|
|--------------------|--------------------------|
|--------------------|--------------------------|
|--------------------|--------------------------|
|---0--0-0-0-1-1-1-1-|---0--0-0-0---4--3-2---1--|
|
|  +W                   +H         +Q.       E
|-(12)---------------|-(12)-------(12)----------|
|-(12)---------------|-(12)-------(12)-----<12>-|
|--------------------|--------------------------|
|--------------------|--------------------------|
|--------------------|--------------------------|
|--------------------|--------------------------|


    PM---------------------------------------
    E  E E E E E E E      E   E E E E E E E
|--------------------|----------------------|
|--------------------|----------------------|
|--------------------|----------------------|
|--------------------|----------------------|
|--------------------|----------------------|
|---0--0-0-0-1-1-1-1-|----0---0-0-0-4-3-2-1-|
|
|   W                    +W
|-<12>---------------|-(<12>)---------------|
|--------------------|----------------------|
|--------------------|----------------------|
|--------------------|----------------------|
|--------------------|----------------------|
|--------------------|----------------------|


 -------------------------------------------|
     E   E E E E E E E      E   E E E E E E E
|----------------------|----------------------|
|----------------------|----------------------|
|----------------------|----------------------|
|----------------------|----------------------|
|----------------------|----------------------|
|----0---0-0-0-1-1-1-1-|----0---0-0-0-4-3-2-1-|
|
|   +W                     +W
|-(<12>)---------------|-(<12>)---------------|
|----------------------|----------------------|
|----------------------|----------------------|
|----------------------|----------------------|
|----------------------|----------------------|
|----------------------|----------------------|


     PM----------------------------------------
     E   E E E E E E E      E   E E E E E E E
|----------------------|----------------------|
|----------------------|----------------------|
|----------------------|----------------------|
|----------------------|----------------------|
|----------------------|----------------------|
|----0---0-0-0-1-1-1-1-|----0---0-0-0-4-3-2-1-|
|
|   +W                     +W
|-(<12>)---------------|-(<12>)---------------|
|----------------------|----------------------|
|----------------------|----------------------|
|----------------------|----------------------|
|----------------------|----------------------|
|----------------------|----------------------|


 -------------------------------|
     E   E E E E E E E      E   E E E E E E E
|----------------------|----------------------||
|----------------------|----------------------||
|----------------------|----------------------||
|----------------------|--------------5-------||
|----------------------|----------------------||
|----0---0-0-0-1-1-1-1-|----0---0-5h6---6-5p3-||
|
|                           >
|   +W                     +W
|-(<12>)---------------|-(<12>)---------------||
|----------------------|----------------------||
|----------------------|----------------------||
|----------------------|----------------------||
|----------------------|----------------------||
|----------------------|----------------------||


    Gtrs I, II
    PM------------------------------------------------------------------|
    E E E E E E E E   E E E E E E E E   E E E E E E E E   E E E E E E E E
||------------------|-----------------|-----------------|------------------|
||o-----------------|-----------------|-----------------|------------------|
||------------------|-----------------|-----------------|------------------|
||------------------|-----------------|-----------------|------------------|
||o-----------------|-----------------|-----------------|------------------|
||--0-0-0-0-1-1-1-1-|-0-0-0-0-4-3-2-1-|-0-0-0-0-1-1-1-1-|-0-0-0-0-4-3-2-1--|


  PM------------------------------------------------------|
  E E E E E E E E   E E E E E E E E   E E E E E E E E   E E E E E E E E
|-----------------|-----------------|-----------------|------------------||
|-----------------|-----------------|-----------------|-----------------o||
|-----------------|-----------------|-----------------|------------------||
|-----------------|-----------------|-----------------|---------5--------||
|-----------------|-----------------|-----------------|-----------------o||
|-0-0-0-0-1-1-1-1-|-0-0-0-0-4-3-2-1-|-0-0-0-0-1-1-1-1-|-0-0-5h6---6-5p3--||


  Gtrs I, II
  PM-------------------------------------------------------------------------|
  E E E E E E E E   E E E E  E E E E     E  E E E E E E E     E  E E E E E E E
|-----------------|------------------|--------------------|--------------------|
|-----------------|------------------|--------------------|--------------------|
|-----------------|------------------|--------------------|--------------------|
|-----------------|------------------|--------------------|--------------------|
|-----------------|------------------|--------------------|--------------------|
|-0-0-0-0-1-1-1-1-|-0-0-0-0--4-3-2-1-|---0--0-0-0-1-1-1-1-|---0--0-0-0-4-3-2-1-|
|
| Gtr III
|                            <
| W                 H        H          +W                   +W
|-----------------|---------12-------|-(12)---------------|-(12)---------------|
|-----------------|------------------|--------------------|--------------------|
|-----------------|------------------|--------------------|--------------------|
|-----------------|------------------|--------------------|--------------------|
|-----------------|------------------|--------------------|--------------------|
|-----------------|------------------|--------------------|--------------------|


    PM---------------------------------------------
    E      E E E E E E E     E      E E E E E E E
|------------------------|------------------------|
|------------------------|------------------------|
|------------------------|------------------------|
|------------------------|------------------------|
|------------------------|------------------------|
|---0------0-0-0-1-1-1-1-|---0------0-0-0-4-3-2-1-|
|
|   T                        T
|  +W                       +W
|-(12(24))---------------|-(12(24))---------------|
|------------------------|------------------------|
|------------------------|------------------------|
|------------------------|------------------------|
|------------------------|------------------------|
|------------------------|------------------------|


 -----------------------------------|
    E      E E E E E E E     E      E E E E E E E
|------------------------|------------------------||
|------------------------|------------------------||
|------------------------|------------------------||
|------------------------|----------------5-------||
|------------------------|------------------------||
|---0------0-0-0-1-1-1-1-|---0------0-5h6---6-5p3-||
|
|   T                        T
|  +W                       +W
|-(12(24))---------------|-(12(24))---------------||
|------------------------|------------------------||
|------------------------|------------------------||
|------------------------|------------------------||
|------------------------|------------------------||
|------------------------|------------------------||


   Verse
    $
    Gtrs I, II
    PM|     PM|       PM------------------|     PM|       PM|
    E E E E E E E E   E E E E E E E E   E E E E E E E E   E E E E E E E E   4x
||------------------|-----------------|-----------------|-------------------||
||o-----------------|-----------------|-----------------|------------------o||
||------------------|-----------------|-----------------|-------------------||
||------------------|-----------------|-----------------|---------5---------||
||o-----5h7-----5h7-|-----------------|-----5h7-----8p7-|------------------o||
||--0-0-----0-0-----|-0-0-0-0-0-0-0-0-|-0-0-----0-0-----|-0-0-5h6---6-5p3---||


    PM|   PM--|     PM--|                PM|   PM--|     PM--|
  E E E E E E E E   E E E E +Q   E E   E E E E E E E E   E E E E +Q   E E
|-----------------|------------------|-----------------|------------------|
|-----------------|------------------|-----------------|------------------|
|-----------------|------------------|-----------------|------------------|
|-----------------|------------------|-----------------|------------------|
|-0-----2-------3-|-------2-(2)------|-0-----2-------3-|-------2-(2)------|
|---2-2---2-2-2---|-2-2-2-0-(0)--1-2-|---2-2---2-2-2---|-2-2-2-0-(0)--1-2-|


                                                                 To Coda
    PM|   PM--|     PM--|                PM|   PM--|     PM--|
  E E E E E E E E   E E E E +Q   E E   E E E E E E E E   E E E E +Q   E E
|-----------------|------------------|-----------------|------------------||
|-----------------|------------------|-----------------|------------------||
|-----------------|------------------|-----------------|------------------||
|-----------------|------------------|-----------------|------------------||
|-0-----2-------3-|-------2-(2)------|-0-----2-------3-|-------2-(2)------||
|---2-2---2-2-2---|-2-2-2-0-(0)--1-2-|---2-2---2-2-2---|-2-2-2-0-(0)--1-2-||


 Pre-Chorus
  Gtr III
                                 ~~~~~~~~~
   H            +Q         +E    E    +H         E  E  Q
|----------------------------------|------------12---------|
|-15b17========(15)r======(15)--15-|-(15)----------12-15---|
|----------------------------------|-----------------------|
|----------------------------------|-----------------------|
|----------------------------------|-----------------------|
|----------------------------------|-----------------------|
|
| Gtrs I, II
|  PM--------|                            PM----------------
|  E     E E E   S  S S S   S S  E     E  E E E  E  E  E E
|----------------------------------|-----------------------|
|----------------------------------|-----------------------|
|----------------------------------|-----------------------|
|----------------------------------|-------------0---------|
|----------------7h=8p7h8p==7h8p=0-|------0-1-2-----2--1-0-|
|--0-----0-0-0---------------------|-----------------------|


   PM------|                       ~~                  ~~
   E  E  E  E  E         E    E    E    E  a  E  E  E  Q    +Q
|------------------------------------|-------------------------------|
|------------------------------------|-------------------------------|
|-12----14----12b12.5----------------|-------------------------------|
|----14----14-----------14---12---14-|-12----------------------------|
|------------------------------------|----13s12-10-12-10---(10)\-----|
|------------------------------------|-------------------------------|
|
|----------|                                  PM-----------------|
|  E  E  E  E  S      S  S S  S S  E    E     E  E  E  E E   E   E
|------------------------------------|-------------------------------|
|------------------------------------|-------------------------------|
|------------------------------------|-------------------------------|
|------------------------------------|-----------------0-------------|
|--------------7h=====8p=7h8p=7h8p=0-|--------0--1--2----2---1---0---|
|--0--0--0--0------------------------|-------------------------------|


   PM---------------------|
   S  S  S  S  S  S  S  S  S  S  S  S  S  S  S  S
|-------------------------------------------------|
|-------------------------------------------------|
|-------------------------------------------------|
|----------------------12-14-15-17p14-15p12-14h15-|
|-------------12-14-15----------------------------|
|-12-13-14-15-------------------------------------|
|
|  PM---------------|
|  E     E     E     E     S  S  S  S  S  S  E
|-------------------------------------------------|
|-------------------------------------------------|
|-------------------------------------------------|
|-------------------------------------------------|
|--------------------------7h=8p=7h=8p=7h=8p=0----|
|--0-----0-----0-----0----------------------------|


   S  S  S  S  S  S  S  S  E  S  S  S  S  E
|--------------------------------------------|
|--------------------------------------------|
|-12-14-16p15-14-12----12-14-14p12-11-12-14/-|
|-------------------16-----------------------|
|--------------------------------------------|
|--------------------------------------------|
|
|        PM------------------------------|
|  E     E     E     E     E  E     E     E
|--------------------------------------------|
|--------------------------------------------|
|--------------------------------------------|
|--------------------------0-----------------|
|--------0-----1-----2--------2-----1-----0--|
|--------------------------------------------|


   ~~~~~
   H           E    E    E         E
|-------------12---14---14pb15====14-|
|-15b17------------------------------|
|------------------------------------|
|------------------------------------|
|------------------------------------|
|------------------------------------|
|
|  PM-------|
|  E    E E E  S S  S S  S      S  E
|------------------------------------|
|------------------------------------|
|------------------------------------|
|------------------------------------|
|--------------7h8p=7h8p=7h=====8p=0-|
|--0----0-0-0------------------------|


                      ~~~~~
   +E   E  E  E      +H           W
|-(14)r14-12-17b19==(17)r-------|-----------------||
|-------------------------------|-----------------||
|-------------------------------|-----------------||
|-------------------------------|-----------------||
|-------------------------------|-----------------||
|-------------------------------|-----------------||
|
|       PM--------------------------------------|
|   E   E  E  E       E   E E E   E E E E E E E E
|-------------------------------|-----------------||
|-------------------------------|-----------------||
|-------------------------------|-----------------||
|---------------------0---------|---------0-------||
|-------0--1--2-----------2-1-0-|---0-1-2---2-1-0-||
|-------------------------------|-0---------------||


 Chorus
  $$
  Gtrs I, II
    PM------|   PM--------|   PM--|     PM------|   PM--------|   PM--|
  E E E E E E E E   E E E E E E E E   E E E E E E E E   E E E E E E E E
|-----------------|-----------------|-----------------|-----------------|
|-----------------|-----------------|-----------------|-----------------|
|-----------------|-----------------|-----------------|-----------------|
|-----------------|-----------------|-----------------|-----------------|
|-4-----------2---|---------0-------|-4-----------2---|---------0-------|
|---0-1-2-0-2---0-|-1-2-0-2---0-2-0-|---0-1-2-0-2---0-|-1-2-0-2---0-2-0-|


    PM------|   PM--------|   PM--|
  E E E E E E E E   E E E E E E E E   E E E E +Q   a Q    E E E E +Q   a Q
|-----------------|-----------------|-------------------|---------------------|
|-----------------|-----------------|-------------------|---------------------|
|-----------------|-----------------|-------------------|---------------------|
|-----------------|-----------------|-------------------|---------------------|
|-4-----------2---|---------0-------|-4-4-4-2-(2)--4s5--|-4-4-4-2-(2)--4s5----|
|---0-1-2-0-2---0-|-1-2-0-2---0-2-0-|-2-2-2-0-(0)--2s3--|-2-2-2-0-(0)--2s3----|


    PM------|   PM--------|   PM--|     PM------|   PM--------|   PM--|
  E E E E E E E E   E E E E E E E E   E E E E E E E E   E E E E E E E E
|-----------------|-----------------|-----------------|-----------------|
|-----------------|-----------------|-----------------|-----------------|
|-----------------|-----------------|-----------------|-----------------|
|-----------------|-----------------|-----------------|-----------------|
|-4-----------2---|---------0-------|-4-----------2---|---------0-------|
|---0-1-2-0-2---0-|-1-2-0-2---0-2-0-|---0-1-2-0-2---0-|-1-2-0-2---0-2-0-|


                                                             To Dbl. Coda
    PM------|   PM--------|   PM--|
  E E E E E E E E   E E E E E E E E   E E E E +Q   a Q    E E E E +Q   a Q
|-----------------|-----------------|-------------------|---------------------|
|-----------------|-----------------|-------------------|---------------------|
|-----------------|-----------------|-------------------|---------------------|
|-----------------|-----------------|-------------------|---------------------|
|-4-----------2---|---------0-------|-4-4-4-2-(2)--4s5--|-4-4-4-2-(2)--4s5----|
|---0-1-2-0-2---0-|-1-2-0-2---0-2-0-|-2-2-2-0-(0)--2s3--|-2-2-2-0-(0)--2s3----|


                         D.S. al Coda
  E E E E +Q   a Q    E E E E +Q   a Q
|-------------------|-------------------||
|-------------------|-------------------||
|-------------------|-------------------||
|-------------------|-------------------||
|-4-4-4-2-(2)--4s5--|-4-4-4-2-(2)--4s5--||
|-2-2-2-0-(0)--2s3--|-2-2-2-0-(0)--2s3--||


 Pre-Chorus
  &
  Gtr III
     ~~~~~~~~~~~
  E +Q.     +Q.          E   S S Q   E E E E S S
|--------------------------|---------2-3-5-2-3p2-|
|-5-(5)-----(5)----------5p|=4p3-----------------|
|-4------------------------|-----4---------------|
|--------------------------|---------------------|
|--------------------------|---------------------|
|--------------------------|---------------------|
|
| Gtrs I, II
| PM------|                      PM---------------
| E  E  E E  S S S S S S E   E   E E E E E E E
|--------------------------|---------------------|
|--------------------------|---------------------|
|--------------------------|---------------------|
|--------------------------|-----------0---------|
|------------7h8p7h8p7h8p0-|-----0-1-2---2-1-0---|
|-0--0--0-0----------------|---------------------|


  PM----|                     PM|     ~
  E E E E E   E   E   E   E E E E E E Q
|-----------------------|------------------|
|-5-4---3---------------|------------------|
|-----4---4---3---x---2-|------------------|
|-----------------------|-5---4-4---5-2----|
|-----------------------|---------5--------|
|-----------------------|------------------|
|
|-------|                   PM----------|
| E E E E S S S S S S E   E E E E E E E E
|-----------------------|------------------|
|-----------------------|------------------|
|-----------------------|------------------|
|-----------------------|---------0--------|
|---------7h8p7h8p7h8p0-|---0-1-2---2-1-0--|
|-0-0-0-0---------------|------------------|


   S  S  S S  S  S S  S  S S  S  S S  S  S  S
|---------------------------------------------|
|---------------------------------------------|
|------------------9h11h12p9h11----9-------11h|
|----------9-11-12--------------12---12S14----|
|-10-11-12------------------------------------|
|---------------------------------------------|
|
|  PM--------------|
|  E     E    E    E     S S  S  S S  S  E
|---------------------------------------------|
|---------------------------------------------|
|---------------------------------------------|
|---------------------------------------------|
|------------------------7h8p=7h=8p7h=8p=0----|
|--0-----0----0----0--------------------------|


   S  S  S  S  S S  S S  E  S  S  S  E    S
|--------------------------------10----------|
|----10-12p11-10p8-11p8-10-11-12----14---15--|
|-12-----------------------------------------|
|--------------------------------------------|
|--------------------------------------------|
|--------------------------------------------|
|
|        PM----------------------------|
|  E     E     E    E    E  E     E    E
|--------------------------------------------|
|--------------------------------------------|
|--------------------------------------------|
|------------------------0-------------------|
|--------0-----1----2-------2-----1----0-----|
|--------------------------------------------|


   E  E  E  E  E    E    E    E
|-12-14-15-17-17s==22---19---20-|
|-------------------------------|
|-------------------------------|
|-------------------------------|
|-------------------------------|
|-------------------------------|
|
|  PM------|
|  E  E  E  E  S S  S S  S S  E
|-------------------------------|
|-------------------------------|
|-------------------------------|
|-------------------------------|
|--------------7h8p=7h8p=7h8p=0-|
|--0--0--0--0-------------------|


                                  D.S.S. al Dbl. Coda
   E  E  E  E  +E       +E   +Q      W
|-17-19----------------------------|------------------||
|-------20-19-(19)b20==(19)r(19)---|------------------||
|----------------------------------|------------------||
|----------------------------------|------------------||
|----------------------------------|------------------||
|----------------------------------|------------------||
|
|     PM-------------------------------------------|
|  E  E  E  E   E        E    E  E   E E E E E E E E
|----------------------------------|------------------||
|----------------------------------|------------------||
|----------------------------------|------------------||
|---------------0------------------|---------0--------||
|-----0--1--2------------2----1--0-|---0-1-2---2-1-0--||
|----------------------------------|-0----------------||


 Chorus
  &&
  Gtrs I, II
    PM------|   PM--------|   PM--|     PM------|   PM--------|   PM--|
  E E E E E E E E   E E E E E E E E   E E E E E E E E   E E E E E E E E
|-----------------|-----------------|-----------------|-----------------|
|-----------------|-----------------|-----------------|-----------------|
|-----------------|-----------------|-----------------|-----------------|
|-9-----------7---|---------5-------|-9-----------7---|---------5-------|
|-7-5-6-7-5-7---5-|-6-7-5-7---5-7-5-|---5-6-7-5-7---5-|-6-7-5-7---5-7-5-|
|-----------------|-----------------|-----------------|-----------------|


    PM------|   PM--------|   PM--|
  E E E E E E E E   E E E E E E E E
|-----------------|-----------------|
|-----------------|-----------------|
|-----------------|-----------------|
|-9-----------7---|---------5-------|
|---5-6-7-5-7---5-|-6-7-5-7---5-7-5-|
|-----------------|-----------------|


  E E E E +Q   a  Q    E E E E +Q   a  Q
|--------------------|----------------------|
|--------------------|----------------------|
|--------------------|----------------------|
|-9-9-9-7-(7)--7s10--|-9-9-9-7-(7)--7s10----|
|-7-7-7-5-(5)--5s=8--|-7-7-7-5-(5)--5s=8----|
|--------------------|----------------------|


    PM------|   PM--------|   PM--|     PM------|   PM--------|   PM--|
  E E E E E E E E   E E E E E E E E   E E E E E E E E   E E E E E E E E
|-----------------|-----------------|-----------------|-----------------|
|-----------------|-----------------|-----------------|-----------------|
|-----------------|-----------------|-----------------|-----------------|
|-9-----------7---|---------5-------|-9-----------7---|---------5-------|
|---5-6-7-5-7---5-|-6-7-5-7---5-7-5-|---5-6-7-5-7---5-|-6-7-5-7---5-7-5-|
|-----------------|-----------------|-----------------|-----------------|


    PM------|   PM--------|   PM--|
  E E E E E E E E   E E E E E E E E   W          +W
|-----------------|-----------------|----------|--------||
|-----------------|-----------------|----------|--------||
|-----------------|-----------------|----------|--------||
|-9-----------7---|---------5-------|----------|--------||
|---5-6-7-5-7---5-|-6-7-5-7---5-7-5-|-2--------|-(2)----||
|-----------------|-----------------|-0--------|-(0)----||


   Bridge
    Gtr III
     S  S  S  S  S  S  S  S  S  S  S  S  S  S  S  S
||--17p12----15p12----17p12----15p12----17p12----12-|
||o-------12-------12-------12-------12-------12----|
||--------------------------------------------------|
||--------------------------------------------------|
||o-------------------------------------------------|
||--------------------------------------------------|
|
|   Gtrs I, II
|    W
||--------------------------------------------------|
||o-------------------------------------------------|
||--------------------------------------------------|
||--------------------------------------------------|
||o--2----------------------------------------------|
||---0----------------------------------------------|


   S   S  S  S  S  S  S  S  S  S  S  S  S  S  a  E
|-17p=12----15p12----17p12----15p12----17p12--------|
|--------12-------12-------12-------12-------12s14--|
|---------------------------------------------------|
|---------------------------------------------------|
|---------------------------------------------------|
|---------------------------------------------------|
|
| +W
|---------------------------------------------------|
|---------------------------------------------------|
|---------------------------------------------------|
|---------------------------------------------------|
|-(2)-----------------------------------------------|
|-(0)-----------------------------------------------|


   S  S  S  S  S  S  S  S  S  S  S  S  S  S  S  S
|-19p14----17p14----19p14----17p14----19p14----14-|
|-------14-------14-------14-------14-------14----|
|-------------------------------------------------|
|-------------------------------------------------|
|-------------------------------------------------|
|-------------------------------------------------|
|
|  W
|-------------------------------------------------|
|-------------------------------------------------|
|-------------------------------------------------|
|-------------------------------------------------|
|--4----------------------------------------------|
|--2----------------------------------------------|


   S   S  S  S  S  S  S  S  S  S  S  S  S  S  S  S
|-19p=14----17p14----19p14----17p14----19p14----15-|
|--------14-------14-------14-------14-------15----|
|--------------------------------------------------|
|--------------------------------------------------|
|--------------------------------------------------|
|--------------------------------------------------|
|
| +W
|--------------------------------------------------|
|--------------------------------------------------|
|--------------------------------------------------|
|--------------------------------------------------|
|-(4)----------------------------------------------|
|-(2)----------------------------------------------|


   S  S  S  S  S  S  S  S  S  S  S  S  S  S  S  S
|-19p15----17p15----19p15----17p15----19p15----15-|
|-------15-------15-------15-------15-------15----|
|-------------------------------------------------|
|-------------------------------------------------|
|-------------------------------------------------|
|-------------------------------------------------|
|
|  W
|-------------------------------------------------|
|-------------------------------------------------|
|-------------------------------------------------|
|-------------------------------------------------|
|--5----------------------------------------------|
|--3----------------------------------------------|


   S   S  S  S  S  S  S  S  S  S  S  S  S  S  S  S
|-19p=15----17p15----19p15----17p15----19p15----17-|
|--------15-------15-------15-------15-------17----|
|--------------------------------------------------|
|--------------------------------------------------|
|--------------------------------------------------|
|--------------------------------------------------|
|
| +W
|--------------------------------------------------|
|--------------------------------------------------|
|--------------------------------------------------|
|--------------------------------------------------|
|-(5)----------------------------------------------|
|-(3)----------------------------------------------|


   S  S  S  S  S  S  S  S  S  S  S  S  S  S  S  S
|-21p17----19p17----21p17----19p17----21p17----17-|
|-------17-------17-------17-------17-------17----|
|-------------------------------------------------|
|-------------------------------------------------|
|-------------------------------------------------|
|-------------------------------------------------|
|
|  W
|-------------------------------------------------|
|-------------------------------------------------|
|-------------------------------------------------|
|--2----------------------------------------------|
|--0----------------------------------------------|
|-------------------------------------------------|


 1.
   S  S  S  S  S  S  S  S  S  S  S  S  S  S E
|-22p18----20p18----22p18----20p18----22p18-----||
|-------18-------18-------18-------18----------o||
|-------------------------------------------0---||
|-----------------------------------------------||
|----------------------------------------------o||
|-----------------------------------------------||
|
|  W
|-----------------------------------------------||
|----------------------------------------------o||
|-----------------------------------------------||
|--3--------------------------------------------||
|--1-------------------------------------------o||
|-----------------------------------------------||


  2.
  Gtr III
   S  S  S  S  S  S  S  S  S  S  S  S  S  S  S  S
|-22p18----20p18----22p18----20p18----22p18----22-||
|-------18-------18-------18-------18-------18----||
|-------------------------------------------------||
|-------------------------------------------------||
|-------------------------------------------------||
|-------------------------------------------------||
|
|    Gtr IV
|  W
|-------------------------------------------------||
|-------------------------------------------------||
|-------------------------------------------------||
|-------------------------------------------------||
|-------------------------------------------------||
|-------------------------------------------------||
|
| Gtrs I, II
|  W
|-------------------------------------------------||
|-------------------------------------------------||
|-------------------------------------------------||
|--3----------------------------------------------||
|--1----------------------------------------------||
|-------------------------------------------------||


 Guitar Solo
                                          >
   W                                     +W
|-22b24===============================|=(22)r---------------------------|
|-------------------------------------|---------------------------------|
|-------------------------------------|---------------------------------|
|-------------------------------------|---------------------------------|
|-------------------------------------|---------------------------------|
|-------------------------------------|---------------------------------|
|
|              PM ~~        PM                   ~~           PM
|  E        E  E  E    +E   E  E    E     E      Q    E    E  E  Q
|-------------------------------------|---------------------------------|
|-12--------------------------12------|-------------------14----14------|
|-12h======13-----------------12h==13-|-------------------14----14------|
|-------------12-14---(14)-14---------|---x-----14---12------14---------|
|-------------------------------------|---------------------------------|
|-------------------------------------|---------------------------------|
|
|  PM----------------------------------------------------------------|
|  S     S  E  E  S S   E   E  S S  E     S   S  E E  S S  E  E  S S E
|-------------------------------------|---------------------------------|
|-------------------------------------|---------------------------------|
|-------------------------------------|---------------------------------|
|-------------------------------------|---------------------------------|
|-------------------------------------|---------------------------------|
|--0-----0--0--0--0-0---0---0--0-0--0-|---0---0--0-0--0-0--0--0--0-0-0--|


  Gtr IV
           PM ~~        PM               ~~   PM      PM
   E    E  E  E    +E   E  E    E   E    Q    E    E  E  E   E
|---------------------------------|----------------------------|
|-12h==14-----------------12h==14-|---------------14----14-----|
|-12h==14-----------------12h==14-|---------------14----14-----|
|---------12-14---(14)-14---------|-----14---14------12------0-|
|---------------------------------|----------------------------|
|---------------------------------|----------------------------|
|
| Gtrs I, II
|  PM--------------------------------------------------------|
|  S S  E  E  S S   E   E  S S  E   S S  E E  S S  E  E  S S E
|---------------------------------|----------------------------|
|---------------------------------|----------------------------|
|---------------------------------|----------------------------|
|---------------------------------|----------------------------|
|---------------------------------|----------------------------|
|--2-2--2--2--2-2---2---2--2-2--2-|-2-2--2-2--2-2--2--2--2-2-2-|


                                                         |---3---|
   E       E  E  E    E  E  E       E    E    E  E  E    E  E    E  E    E
|------------12------12---------------|-12------12-------------------------|
|---------12----15------12---------12-|------15-12-12----------------------|
|-14b15--------------------14b15------|-----------------15p14p==12------12-|
|-------------------------------------|----------------------------14------|
|-------------------------------------|------------------------------------|
|-------------------------------------|------------------------------------|
|
|  PM-------------------------------------------------------------------|
|  S    S  E  E  S S  E  E  S    S  E    S S  E  E  S S  E    E     S S  E
|-------------------------------------|------------------------------------|
|-------------------------------------|------------------------------------|
|-------------------------------------|------------------------------------|
|-------------------------------------|------------------------------------|
|-------------------------------------|------------------------------------|
|--3----3--3--3--3-3--3--3--3----3--3-|--3-3--3--3--3-3--3----3-----3-3--3-|


   |----3----|  |---3---|
   E    E    E  E  E    E   E  E  E   E   E    E  E E    E  E  Q
|---------------------------------------|-----------------------------|
|---------------------------------------|-----------------------------|
|-12h==14p==12-11h12p==11s==9-11------9-|-----------------------------|
|--------------------------------12-----|-9---12----9-----------------|
|---------------------------------------|--------12-----10-12---------|
|---------------------------------------|---------------------12\-----|
|
|  PM---------------------------------------------------------------|
|  S S    E     E    S    S E  E  S S E   S S  E  E S S  E  E  S  S E
|---------------------------------------|-----------------------------|
|---------------------------------------|-----------------------------|
|---------------------------------------|-----------------------------|
|---------------------------------------|-----------------------------|
|---------------------------------------|-----------------------------|
|--5-5----5-----5----5----5-5--5--5-5-5-|-6-6--6--6-6-6--6--6--6--6-6-|


   |----3----|  |---3---|    |---3---|  |----3----|
   E    E    E  E  E    E    E  E    E  E    E    E
|-15h==17------15-----------------------------------|
|-----------17----17---17---15h17------15-----------|
|-----------------------------------16------16---16-|
|---------------------------------------------------|
|---------------------------------------------------|
|---------------------------------------------------|
|
|  PM------------------------------------------------
|  S S    E     E    S    S  E    E     S S    E
|---------------------------------------------------|
|---------------------------------------------------|
|---------------------------------------------------|
|---------------------------------------------------|
|---------------------------------------------------|
|--0-0----0-----0----0----0--0----0-----0-0----0----|


   |----3----|  |---3---|    |---3---|  |----3----|
   E    E    E  E  E    E    E  E    E  E    E    E
|---------------------------------------------------|
|---------------------------------------------------|
|-14---16------14-----------------------------------|
|-----------17----16---17---14-16------14-----------|
|-----------------------------------17------17---14-|
|---------------------------------------------------|
|
|----------------------------------------------|
|  S S    E     E    S    S  E    E     S S    E
|---------------------------------------------------|
|---------------------------------------------------|
|---------------------------------------------------|
|---------------------------------------------------|
|---------------------------------------------------|
|--0-0----0-----0----0----0--0----0-----0-0----0----|


   |----3----|  |---3---|    |---3---|  |----3----|
   E    E    E  E  E    E    E  E    E  E    E    E
|-15h==17------15-----------------------------------|
|-----------17----17---17---15h17------15-----------|
|-----------------------------------16------16---16-|
|---------------------------------------------------|
|---------------------------------------------------|
|---------------------------------------------------|
|
|  PM------------------------------------------------
|  S S    E     E    S    S  E    E     S S    E
|---------------------------------------------------|
|---------------------------------------------------|
|---------------------------------------------------|
|---------------------------------------------------|
|---------------------------------------------------|
|--2-2----2-----2----2----2--2----2-----2-2----2----|


   |----3----|  |--3---|    |---3---|  |----3----|
   E    E    E  E E    E    E  E    E  E    E    E
|--------------------------------------------------|
|-----------------0--------------------------------|
|-14---16------14-----12------12-------------------|
|-----------17-------------14------12h14---12---12-|
|--------------------------------------------------|
|--------------------------------------------------|
|
|---------------------------------------------|
|  S S    E     E   S    S  E    E     S S    E
|--------------------------------------------------|
|--------------------------------------------------|
|--------------------------------------------------|
|--------------------------------------------------|
|--------------------------------------------------|
|--2-2----2-----2---2----2--2----2-----2-2----2----|


   |----3----|  |--3---|    |---3---|  |----3----|
   E    E    E  E  E   E    E  E    E  E    E    E
|--------------------------------------------------|
|--------------------------------------------------|
|--------------12---------------------12-----------|
|-14p==12---------14-------14p12------12---14p==12-|
|-----------14---------------------14--------------|
|--------------------------------------------------|
|
|  PM-----------------------------------------------
|  S S    E     E    S   S  E    E     S S    E
|--------------------------------------------------|
|--------------------------------------------------|
|--------------------------------------------------|
|--------------------------------------------------|
|--------------------------------------------------|
|--3-3----3-----3----3---3--3----3-----3-3----3----|


   |----3----|  |---3---|    |---3---|  |----3----|
   E    E    E  E  E    E    E  E    E  E    E    E
|---------------------------------------------------|
|---------------------------------------------------|
|--------------12----------------------12--------12-|
|-14p==12------12-14p==12---14p12-----------14------|
|-----------14----------------------14--------------|
|---------------------------------------------------|
|
|----------------------------------------------|
|  S S    E     E    S    S  E    E     S S    E
|---------------------------------------------------|
|---------------------------------------------------|
|---------------------------------------------------|
|---------------------------------------------------|
|---------------------------------------------------|
|--3-3----3-----3----3----3--3----3-----3-3----3----|


   |----3----|  |3-|      |---3---|  |----3----|
   E    E    E  E  Q      E  E    E  E    E    E
|-----------------------------------12--------12-|
|--------------12--------15-12---15------15------|
|-14p==12---14----14-----------------------------|
|------------------------------------------------|
|------------------------------------------------|
|------------------------------------------------|
|
|  PM---------------------------------------------
|  S S    E     E    S S  E    E     S S    E
|------------------------------------------------|
|------------------------------------------------|
|------------------------------------------------|
|------------------------------------------------|
|------------------------------------------------|
|--5-5----5-----5----5-5--5----5-----5-5----5----|


   |----3----|  |3-|      |---3---|
   E    E    E  E  Q      E  E    E  S  E    S
|-15p==12------12-15-----15p12------12------17-||
|-----------15-------------------15----15------||
|----------------------------------------------||
|----------------------------------------------||
|----------------------------------------------||
|----------------------------------------------||
|
|-----------------------------------------|
|  S S    E     E    S S  E    E     S  S E
|----------------------------------------------||
|----------------------------------------------||
|----------------------------------------------||
|----------------------------------------------||
|----------------------------------------------||
|--6-6----6-----6----6-6--6----6-----6--6-6----||


    E5
    Gtrs I, II
     W
     |
     /

    Gtr IV
     |--3--|        |--3--|        |--3--|        |--3--|
     S  S  S  S  S  S  S  S  S  S  S  S  S  S  S  S  S  S  S  S
||--17p15p12----12-17p15p12----12-17p15p12----12-17p15p12----12-|
||o----------15-------------15-------------15-------------15----|
||--------------------------------------------------------------|
||--------------------------------------------------------------|
||o-------------------------------------------------------------|
||--------------------------------------------------------------|


  +W
   |
   /

   |--3--|        |--3--|        |--3--|        |--3--|
   S  S  S  S  S  S  S  S  S  S  S  S  S  S  S  S  S  S  S  S
|-17p15p12----12-17p15p12----12-17p15p12----12-17p15p12----12---|
|----------15-------------15-------------15-------------15------|
|---------------------------------------------------------------|
|---------------------------------------------------------------|
|---------------------------------------------------------------|
|---------------------------------------------------------------|


  F#5
   W
   |
   /

   |--3--|        |--3--|        |--3--|        |--3--|
   S  S  S  S  S  S  S  S  S  S  S  S  S  S  S  S  S  S  S  S
|-19p17p14----14-19p17p14----14-19p17p14----14-19p17p14----14-|
|----------17-------------17-------------17-------------17----|
|-------------------------------------------------------------|
|-------------------------------------------------------------|
|-------------------------------------------------------------|
|-------------------------------------------------------------|


  +W
   |
   /

   |--3--|        |--3--|        |--3--|        |--3--|
   S  S  S  S  S  S  S  S  S  S  S  S  S  S  S  S  S  S  S  S
|-19p17p14----14-19p17p14----14-19p17p14----14-19p17p14----14-|
|----------17-------------17-------------17-------------17----|
|-------------------------------------------------------------|
|-------------------------------------------------------------|
|-------------------------------------------------------------|
|-------------------------------------------------------------|


  G5
   W
   |
   /

   |--3--|        |--3--|        |--3--|        |--3--|
   S  S  S  S  S  S  S  S  S  S  S  S  S  S  S  S  S  S  S  S
|-19p17p15----15-19p17p15----15-19p17p15----15-19p17p15----15-|
|----------17-------------17-------------17-------------17----|
|-------------------------------------------------------------|
|-------------------------------------------------------------|
|-------------------------------------------------------------|
|-------------------------------------------------------------|


  +W
   |
   /

   |--3--|        |--3--|        |--3--|        |--3--|
   S  S  S  S  S  S  S  S  S  S  S  S  S  S  S  S  S  S  S  S
|-19p17p15----15-19p17p15----15-19p17p15----15-19p17p15----15-|
|----------17-------------17-------------17-------------17----|
|-------------------------------------------------------------|
|-------------------------------------------------------------|
|-------------------------------------------------------------|
|-------------------------------------------------------------|


  A5
   W
   |
   /

   |--3--|        |--3--|        |--3--|        |--3--|
   S  S  S  S  S  S  S  S  S  S  S  S  S  S  S  S  S  S  S  S
|-21p19p17----17-21p19p17----17-21p19p17----17-21p19p17----17-|
|----------19-------------19-------------19-------------19----|
|-------------------------------------------------------------|
|-------------------------------------------------------------|
|-------------------------------------------------------------|
|-------------------------------------------------------------|


 1.
  Bb5
   W
   |
   /

   |--3--|        |--3--|        |--3--|        |--3--|
   S  S  S  S  S  S  S  S  S  S  S  S  S  S  S  S  S  S  S  S
|-22p20p18----18-22p20p18----18-22p20p18----18-22p20p18----18--||
|----------20-------------20-------------20-------------20----o||
|--------------------------------------------------------------||
|--------------------------------------------------------------||
|-------------------------------------------------------------o||
|--------------------------------------------------------------||


  2.
  Bb5
   W
   |
   /

   |--3--|        |--3--|        |--3--|
   S  S  S  S  S  S  S  S  S  S  S  S  S  S  S  E  E
|-22p20p18----18-22p20p18----18-22p20p18----18-22-22b24==|
|----------20-------------20-------------20--------------|
|--------------------------------------------------------|
|--------------------------------------------------------|
|--------------------------------------------------------|
|--------------------------------------------------------|


  Gtr IV
                   |----3-----|        |-----3-----|       |------3-------|
   +Q.     E      +Q    Q     Q        Q     Q     Q       Q     Q        Q
|-(22)r---22b24==(22)r-22b24-22b24--|-22b24-22b24-22b24---22b24-22b24----22-|
|-----------------------------------|---------------------------------------|
|-----------------------------------|---------------------------------------|
|-----------------------------------|---------------------------------------|
|-----------------------------------|---------------------------------------|
|-----------------------------------|---------------------------------------|
|
| Gtrs I, II
|   W                                  Q.               E +Q          Q
|-----------------------------------|---------------------------------------|
|-----------------------------------|---------------------------------------|
|-----------------------------------|---------------------------------------|
|-----------------------------------|---------------------------------------|
|---2-------------------------------|--5----------------7-(7)---------8\----|
|---0-------------------------------|--3----------------5-(5)---------6\----|


                    ~~~~~~~~~~~~~~~~
                              |-----3------|
   H.         Q     Q.    E  +Q   Q     E  E
|-22b26r=====22--|-22----22-(22)-22----22-21-|
|----------------|---------------------------|
|----------------|---------------------------|
|----------------|---------------------------|
|----------------|---------------------------|
|----------------|---------------------------|
|
|  W                Q.    E  +Q     Q
|----------------|---------------------------|
|----------------|---------------------------|
|----------------|---------------------------|
|----------------|---------------------------|
|--2-------------|--5-----7--(7)----8\-------|
|--0-------------|--3-----5--(5)----6\-------|


   |3-|  |--3--|  |--3--|  |--3--|    |--3---|  |---3---|  |--3---|  |--3---|
   Q  E  E  E  E  E  E  E  E  E  E    E   E  E  E  E    E  E   E  E  E   E  E
|-22-19-21-17-19-15-17-14-15----14-|------------------------------------------|
|----------------------------17----|-15--17-14-15------14---------------------|
|----------------------------------|--------------16------14--16----14--------|
|----------------------------------|-----------------------------17-----16-17-|
|----------------------------------|------------------------------------------|
|----------------------------------|------------------------------------------|
|
|  W                                  Q.             E    +Q         Q
|----------------------------------|------------------------------------------|
|----------------------------------|------------------------------------------|
|----------------------------------|------------------------------------------|
|----------------------------------|------------------------------------------|
|--2-------------------------------|--5--------------7----(7)--------8\-------|
|--0-------------------------------|--3--------------5----(5)--------6\-------|


                                           ~~~
            |--3--|  |--3--|
   S  E  S  E  E  E  E  E  E  S  S  S S    Q   Q    H        W
|---------------------------------------|------------------|----------------||
|---------------------------------------|------------------|----------------||
|---------------------------------------|------------------|----------------||
|-14-16----14---------------------------|------------------|----------------||
|-------17----16-17-14-16----14---------|------------------|----------------||
|-------------------------17----15-17---|-15---------------|----------------||
|
|  W                                       Q.    E +Q   Q    Q.   E +Q   Q
|---------------------------------------|------------------|----------------||
|---------------------------------------|------------------|----------------||
|---------------------------------------|------------------|----------------||
|---------------------------------------|------------------|----------------||
|--2------------------------------------|--5-----7-(7)--8--|-8----7-(7)--5--||
|--0------------------------------------|--3-----5-(5)--6--|-6----5-(5)--3--||


 Outro
  Gtr III
                                 <
                                 ~~~~~~~~~~~~~~~~~~~~~~~~~~~~~~~~
  W                 H       Q    Q      +W                   +W
|-----------------|------------------|--------------------|--------------------|
|-----------------|------------------|--------------------|--------------------|
|-----------------|------------------|--------------------|--------------------|
|-----------------|------------------|--------------------|--------------------|
|-----------------|------------------|--------------------|--------------------|
|-----------------|-------------12---|-(12)---------------|-(12)---------------|
|
| Gtrs I, II
| PM|     PM|       PM----------------------|     PM|         PM-|
| E E E E E E E E   E E E E E E  E E     E  E E E E E E E     E  E E E E E E E
|-----------------|------------------|--------------------|--------------------|
|-----------------|------------------|--------------------|--------------------|
|-----------------|------------------|--------------------|--------------------|
|-----------------|------------------|--------------------|------------5-------|
|-----5h7-----5h7-|------------------|--------5h7-----8p7-|--------------------|
|-0-0-----0-0-----|-0-0-0-0-0-0--0-0-|---0--0-----0-0-----|---0--0-5h6---6-5p3-|


   W                   +W
|-------------------|---------------------|
|-------------------|---------------------|
|-------------------|---------------------|
|-------------------|---------------------|
|-------------------|---------------------|
|-<5>---------------|-(<5>)---------------|
|
|  PM-|     PM|         PM-----------------
|  E  E E E E E E E     E   E E E E E E E
|-------------------|---------------------|
|-------------------|---------------------|
|-------------------|---------------------|
|-------------------|---------------------|
|-------5h7-----5h7-|---------------------|
|--0--0-----0-0-----|---0---0-0-0-0-0-0-0-|


   +W                    +H.             Q
|---------------------|---------------------|
|---------------------|------------------0--|
|---------------------|------------------0--|
|---------------------|---------------------|
|---------------------|---------------------|
|-(<5>)---------------|-(<5>)---------------|
|
|-------|     PM|         PM----|
|   E   E E E E E E E     E   E E E +Q   Q
|---------------------|---------------------|
|---------------------|---------------------|
|---------------------|---------------------|
|---------------------|---------------------|
|---------5h7-----8p7-|-----------5-(5)--7--|
|---0---0-----0-0-----|---0---0-0-3-(3)--5--|


  E  E   H        +Q       E E E E E E E E
|------------------------|-----------------|
|------------------------|-----------------|
|------------------------|-----------------|
|------------------------|-----------------|
|---[5]-[7]------([7])---|-5---5-----5-----|
|------------------------|---7---7-6---6h7-|
|
| PM|        PM|           PM---------------
| E  E   E E E E   E   E   E E E E E E E E
|------------------------|-----------------|
|------------------------|-----------------|
|------------------------|-----------------|
|------------------------|-----------------|
|--------5h7-------5h==7-|-----------------|
|-0--0-------0-0---------|-0-0-0-0-0-0-0-0-|


                                   ~~~~~
  E E E E E E E E    E      +E    +H.
|-----------------|------------------------------|
|-----------------|------------------------------|
|-----------------|------------------------------|
|-----------------|------------------------------|
|-5-----5---------|------------------------------|
|---7-6---6-5-6-0-|-[3]b5==([3])r([3])-----------|
|
|---|     PM|        PM----|
| E E E E E E E E    E       E     E   E E E E E
|-----------------|------------------------------|
|-----------------|------------------------------|
|-----------------|------------------------------|
|-----------------|----------------------5-------|
|-----5h7-----8p7-|------------------------------|
|-0-0-----0-0-----|--0-------0-----5h==6---6-5p3-|


                                                ~~~~~~~~~~~~~~~~~~~~~~
  E E  Q         +Q     E  E         +Q     E   E         +H
|---------------------------------|----------------------------------|
|-----14pb15====(14)r==14-14pb15==|=(14)r==14-[14]pb15==([14])-------|
|---------------------------------|----------------------------------|
|---------------------------------|----------------------------------|
|-0-0-----------------------------|----------------------------------|
|-0-0-----------------------------|----------------------------------|
|
| PM|             PM-|                PM------------------------------
| E E  E      E   E  E  E  E          E  E  E   E          E   E E E
|---------------------------------|----------------------------------|
|---------------------------------|----------------------------------|
|---------------------------------|----------------------------------|
|---------------------------------|----------------------------------|
|------5h=====7---------5h=7------|----------------------------------|
|-0-0-------------0--0------------|---0--0--0---0----------0---0-0-0-|


 ~~~~~~~~~~~~~~~~~~~~~~~~~~~~~
    +W                     H.            Q
|-----------------------|-------------------|
|-([14])r---------------|-------------------|
|-----------------------|----------------0--|
|-----------------------|-14-------------0--|
|-----------------------|-------------------|
|-----------------------|-------------------|
|
|---------|     PM|        PM---|
|    E    E E E E E E E    E  E E E +Q   Q
|-----------------------|-------------------|
|-----------------------|-------------------|
|-----------------------|-------------------|
|-----------------------|-------------------|
|-----------5h7-----8p7-|---------5-(5)--7--|
|----0----0-----0-0-----|--0--0-0-3-(3)--5--|


               ~~~~~~~                 ~~~~~~~~~~~~
   Q        E  E  +Q     Q          E  Q.      +H
|-----------------------17pb19r==|=17-17------(17)-------|
|-----------------------17pb18r==|=17-17------(17)-------|
|-14pb16r==14-14-(14)------------|-----------------------|
|--------------------------------|-----------------------|
|--------------------------------|-----------------------|
|--------------------------------|-----------------------|
|
|  PM----|         PM-|             PM|
|  E     E  E  E   E  E  E     E    E  E  E E   E  E E E
|--------------------------------|-----------------------|
|--------------------------------|-----------------------|
|--------------------------------|-----------------------|
|--------------------------------|--------------5--------|
|-----------5h=7---------8p====7-|-----------------------|
|--0-----0---------0--0----------|--0--0--5h6------6-5p3-|


               ~~~~~~~~~~~~~~~~~~~~
   Q        E  E  +H           +W
|-17pb19r==17-17-(17)-------|-(17)---------------|
|-17pb18r==17-17-(17)-------|-(17)---------------|
|---------------------------|--------------------|
|---------------------------|--------------------|
|---------------------------|--------------------|
|---------------------------|--------------------|
|
|  PM----|         PM-|         PM---|
|  E     E  E  E   E  E E E     E  E E E +Q   Q
|---------------------------|--------------------|
|---------------------------|--------------------|
|---------------------------|--------------------|
|---------------------------|--------------------|
|-----------5h=7--------8p7-|----------5-(5)--7--|
|--0-----0---------0--0-----|---0--0-0-3-(3)--5--|


             ~~~~~~~
   Q.        E  +H           Q.        E  +H
|-----------15-(15)-------|-----------15-(15)-------|
|-15----------------------|-15--------15-(15)-------|
|-17b19-------------------|-17b19-------------------|
|-------------------------|-------------------------|
|-------------------------|-------------------------|
|-------------------------|-------------------------|
|
|  PM---|        PM-|        PM---|
|  E    E E  E   E  E E E    E    E E  E   E  E E E
|-------------------------|-------------------------|
|-------------------------|-------------------------|
|-------------------------|-------------------------|
|-------------------------|----------------5--------|
|---------5h=7--------8p7-|-------------------------|
|--0----0--------0--0-----|--0----0-5h=6------6-5p3-|


                              ~~~~~~~~~~~
   Q.          E  +Q          Q      +H.            Q
|----------------------------15---|-(15)---------------|
|-15b15.5-----15-(15)b15.5---15---|-(15)---------------|
|-15b15.5-------------------------|-----------------0--|
|---------------------------------|-----------------0--|
|---------------------------------|--------------------|
|---------------------------------|--------------------|
|
|  PM-----|        PM------|          PM---|
|  E      E E  E   E       E  E E     E  E E E +Q   Q
|---------------------------------|--------------------|
|---------------------------------|--------------------|
|---------------------------------|--------------------|
|---------------------------------|--------------------|
|-----------5h=7--------------8p7-|----------5-(5)--7--|
|--0------0--------0-------0------|---0--0-0-3-(3)--5--|


               ~~~~~~~~~~~~~                     ~~~~~~~
   Q        E  E       +H            Q        E  E  +H
|-18pb19r==18-18pb19==(18)r-------|-18pb19r==18-18-(18)-------|
|-18pb19r==18-18pb19==(18)r-------|-18pb19r==18-18-(18)-------|
|---------------------------------|---------------------------|
|---------------------------------|---------------------------|
|---------------------------------|---------------------------|
|---------------------------------|---------------------------|
|
|  PM----|              PM--|        PM----|
|  E     E  E  E        E   E E E    E     E  E  E   E  E E E
|---------------------------------|---------------------------|
|---------------------------------|---------------------------|
|---------------------------------|---------------------------|
|---------------------------------|------------------5--------|
|-----------5h=7--------------8p7-|---------------------------|
|--0-----0--------------0---0-----|--0-----0--5h=6------6-5p3-|


                                           ~~~~~~~~~~~~~~~~~~~
   Q        E  E       +E   E  E      E    H             +E    E  E E
|-18pb19r==18-18pb19==(18)r18-18pb19r18-|-18pb19========(18)r-17-15---|
|-18pb19r==18-18pb19==(18)r18-18pb19r18-|-18pb19========(18)r-17-15---|
|---------------------------------------|---------------------------0-|
|---------------------------------------|---------------------------0-|
|---------------------------------------|-----------------------------|
|---------------------------------------|-----------------------------|
|
|  PM----|              PM-|               PM-------|
|  E     E  E  E        E   E  E      E    E      E E E  +Q       Q
|---------------------------------------|-----------------------------|
|---------------------------------------|-----------------------------|
|---------------------------------------|-----------------------------|
|---------------------------------------|-----------------------------|
|-----------5h=7---------------8p=====7-|-------------5--(5)------7---|
|--0-----0--------------0---0-----------|--0------0-0-3--(3)------5---|


   E  E  E  E  E  E  E  E    E  E  E  E  Q    E  E    E  E  E E E E E E
|-------------------------|------------------------|--------------------|
|-11-11-11-10-10-10-11-11-|-11-10-10-10--8----8s10-|--9--9--9-5-5-5-5s3-|
|-15-15-15-14-14-14-15-15-|-15-14-14-14-12---12s14-|-13-13-13-9-9-9-9-7-|
|-------------------------|------------------------|--------------------|
|-------------------------|------------------------|--------------------|
|-------------------------|------------------------|--------------------|
|
|  PM|         PM|           PM|                      PM|       PM|
|  E  E  E  E  E  E  E  E    E  E  E  E  E E  E  E    E  E  E E E E E E
|-------------------------|------------------------|--------------------|
|-------------------------|------------------------|--------------------|
|-------------------------|------------------------|--------------------|
|-------------------------|--------------5---------|--------------------|
|--------5h=7--------8p=7-|------------------------|--------5h7-----8p7-|
|--0--0--------0--0-------|--0--0--5h=6----6--5p=3-|--0--0------0-0-----|


  Gtrs I, II
  Q.   E +Q   q    Q.   E +Q   Q    Q  Q  H      W
|----------------|----------------|------------|------*|
|----------------|----------------|------------|------*|
|----------------|----------------|------------|------*|
|----------------|----------------|------------|------*|
|-5----7-(7)--8--|-8----7-(7)--5--|-2----------|------*|
|-3----5-(5)--6--|-6----5-(5)--3--|-0----------|------*|



Duration Legend
---------------
W - whole; H - half; Q - quarter; E - 8th; S - 16th; T - 32nd; X - 64th; a - acciaccatura
+ - note tied to previous; . - note dotted; .. - note double dotted
Uncapitalized letters represent notes that are staccato (1/2 duration)
Irregular groupings are notated above the duration line
Duration letters will always appear directly above the note/fret number it represents the
duration for.  Duration letters with no fret number below them represent rests.  Multi-
bar rests are notated in the form Wxn, where n is the number of bars to rest for.  Low
melody durations appear below the staff

Tablature Legend
----------------
 h   - hammer-on
 p   - pull-off
 b   - bend
 pb  - pre-bend
 r   - bend release (if no number after the r, then release immediately)
 /\  - slide into or out of (from/to "nowhere")
 s   - legato slide
 S   - shift slide
 - natural harmonic
[n]  - artificial harmonic
n(n) - tapped harmonic
 ~   - vibrato
 tr  - trill
 T   - tap
 TP  - trem. picking
 PM  - palm muting
\n/  - tremolo bar dip; n = amount to dip
 \n  - tremolo bar down
 n/  - tremolo bar up
/n\  - tremolo bar inverted dip
 =   - hold bend; also acts as connecting device for hammers/pulls
 <> - volume swell (louder/softer)
 x   - on rhythm slash represents muted slash
 o   - on rhythm slash represents single note slash

Misc Legend
-----------
 |  - bar
||  - double bar
||o - repeat start
o|| - repeat end
*|  - double bar (ending)
 :  - bar (freetime)
 $  - Segno
 &  - Coda
Tempo markers -  = BPM(8/16=s8/s16), where s8 = swing 8ths, s16 = swing 16ths

comments
We did not receive enough feedback on this tab! Please rate:
print report bad tab
1 2 3 4 5
1 comment total.
0 reply
DuffMcKagan7179 wrote on May 1 2009, 12:27 pm

I'm fairly certain this is in standard tuning, not a half-step down.

I want to post or [tab]
guest
You may want to rate the tab now too:
select rating
Please do not post tabs as comments. Select "correction" instead!