Oops, an error
Loading. Please wait.

99 Ways To Die Tab

ver4
ver4

Solo

Whole song

More versions @911Tabs.com
1,145 views 1 this week
no commentswrite comment
1 2 3 4 5
please rate
Autoscroll
+/-
esc
set tempo
stop
Contributor
Hey! There's an official Ultimate Guitar app which is ideal
for learning songs when you're away from computer. Get the app
WARNING: You are trying to view
                                    content from Ultimate-Guitar.com
                                    in an unauthorized application,
                                    which is prohibited.

                                    Please use an official Ultimate
                                    Guitar Tabs application for iPhone,
                                    iPad or Android to access legitimate
                                    chords, guitar, bass, and drum tabs
                                    from Ultimate-Guitar.com database.

                                    Type "ultimate guitar tabs" in Apple
                                    App Store's or Android Market's
                                    search to find the application.
#----------------------------------PLEASE NOTE---------------------------------#
#This file is the author's own work and represents their interpretation of the #
#song. You may only use this file for private study, scholarship, or research. #
#------------------------------------------------------------------------------#

99 WAYS TO DIE
As recorded by Megadeth
(From the 1993 Album HIDDEN TREASURES)

Transcribed by cbliss66@aol.com
        

Words and Music by Mustaine
Arranged by Megadeth

Gtr I (E A D G B E) - 'Mustaine'
Gtr II (E A D G B E) - 'Friedman'
Gtr III (E A D G B E) - 'Nylon 1'
Gtr IV (E A D G B E) - 'Nylon 2'
Gtr V (E A D G B E) - 'Friedman Solo Gtr.'

 Intro                               1st and 3rd Verse
  Moderately Fast Rock Q=164
                                   $
  B5Bb5  B5Bb5    B5Bb5  B5Bb5  G5    E         E5         G5/D        G5/D
 4/4             5/4                 4/4
  Gtrs I, II
                              PM      PM------|
  E Q.   E Q.     E Q.   E Q  E Q     E E S S E Q.   E   E E E E E E E E
|---------------|------------------||------------------|------------------|
|---------------|------------------||------------------|------------------|
|---------------|------------------||-----------9\-----|------------------|
|-9-8----9-8----|-9-8----9-8----5--||-----------9\-----|---5-----------5--|
|-9-8----9-8----|-9-8----9-8----5--||-----2-2-2-7\-----|---5-7-----5-7-5--|
|-7-6----7-6----|-7-6----7-6--3-3--||-0-0-0-0-0--------|-------5-7--------|


  E         E5         C     A5/E       E         E5
  PM------|                PM    ~~~    PM------|
  E E S S E Q.   E   E E E E  E  Q.     E E S S E Q.   E   E a E E E E E  E E
|------------------|------------------|------------------|--------------------|
|------------------|------------------|------------------|--------------------|
|-----------9\-----|---6s7---14-12----|-----------9\-----|--------------------|
|-----------9\-----|---5s6---14-12----|-----------9\-----|--------------------|
|-----2-2-2-7\-----|------------------|-----2-2-2-7\-----|---5s7-5-------10-8-|
|-0-0-0-0-0--------|-------0----------|-0-0-0-0-0--------|---------7-6-5------|


  E         E5         C        G5/D    E         E5         G5/D        G5/D
  PM------|                PM    ~~~    PM------|
  E E S S E Q.   E   E E E E  E  Q.     E E S S E Q.   E   E E E E E E E E
|------------------|------------------|------------------|------------------|
|------------------|------------------|------------------|------------------|
|-----------9\-----|---6s7---14-12----|-----------9\-----|------------------|
|-----------9\-----|---5s6---14-12----|-----------9\-----|---5-----------5--|
|-----2-2-2-7\-----|------------------|-----2-2-2-7\-----|---5-7-----5-7-5--|
|-0-0-0-0-0--------|-------0----------|-0-0-0-0-0--------|-------5-7--------|


  E         E5         C     A5/E       E         E5
  PM------|                PM    ~~~    PM------|
  E E S S E Q.   E   E E E E  E  Q.     E E S S E Q.   E
|------------------|------------------|------------------|
|------------------|------------------|------------------|
|-----------9\-----|---6s7---14-12----|-----------9\-----|
|-----------9\-----|---5s6---14-12----|-----------9\-----|
|-----2-2-2-7\-----|------------------|-----2-2-2-7\-----|
|-0-0-0-0-0--------|-------0----------|-0-0-0-0-0--------|


                                                  To Coda
                       E         E5         C     A5/E
                       PM------|                PM    ~~~
  E a E E E E E  E E   E E S S E Q.   E   E E E E  E  Q.
|--------------------|------------------|------------------||
|--------------------|------------------|------------------||
|--------------------|-----------9\-----|---6s7---14-12----||
|--------------------|-----------9\-----|---5s6---14-12----||
|---5s7-5-------10-8-|-----2-2-2-7\-----|------------------||
|---------7-6-5------|-0-0-0-0-0--------|-------0----------||


 Bridge
  Gtr I
  Q.     Q.     Q     +E  Q.      E  E E E
  |      |      |      |  |       |  | | |
  o      o      o      /  o       o  o o o

  Gtr III
  E  E E E  E E E E    E  E  E E +H
|-------------------|----------------------|
|------0------0-----|--0-------0-(0)-------|
|----0------0-----0-|--------0-------------|
|-2------4------5---|-----7----------------|
|-------------------|----------------------|
|-------------------|----------------------|
|
| Gtr IV
| W                    E  E  E E  E  E E E
|-------------------|----------------------|
|-------------------|-----7--8----7--8-----|
|-------------------|------------------9-7-|
|-------------------|----------------------|
|-------------------|----------------------|
|-------------------|----------------------|
|
| Gtr II
| Q.     Q.     Q     +E  Q.      E  E E E
|-------------------|-----5----------------|
|-5------7------8---|-(8)---------8--7-----|
|-------------------|------------------7-4-|
|-------------------|----------------------|
|-------------------|----------------------|
|-------------------|----------------------|


  Q.      Q.     Q     +E  Q.      E  E E E
  |       |      |      |  |       |  | | |
  o       o      o      /  o       o  o o o

  E  E E  E  E E E E    E  E  E E +H
|--------------------|-----------------------|
|------0-------0-----|--0-------0-(0)--------|
|----0-------0-----0-|--------0--------------|
|-2-------4------5---|-----7-----------------|
|--------------------|-----------------------|
|--------------------|-----------------------|
|
| Q    H.               W
|--------------------|-----------------------|
|--------------------|-----------------------|
|-9\-----------------|-----------------------|
|--------------------|-----------------------|
|--------------------|-----------------------|
|--------------------|-----------------------|
|
| Q.      Q.     Q     +E  Q.      E  E E E
|--------------------|-----5-----------------|
|-5-------7------8---|-(8)---------8--7------|
|--------------------|------------------7-4--|
|--------------------|-----------------------|
|--------------------|-----------------------|
|--------------------|-----------------------|


  Gtr III                                     Gtr V
  E  E E E  E E E E    E  E  E E +H           Q  e Q  e Q    E Q  e E E E E
|-------------------|----------------------||--------------|-----------------||
|------0------0-----|--0-------0-(0)-------||--------------|-----------------||
|----0------0-----0-|--------0-------------||--------------|--------------4--||
|-2------4------5---|-----7----------------||-----------1--|---5--4-7-5-7----||
|-------------------|----------------------||-2--0-3--2----|-----------------||
|-------------------|----------------------||--------------|-----------------||
|
| Gtr I
| Q.     Q.     Q     +E  Q.      E  E E E    Q  e Q  e Q    e Q  e E E E E
|-------------------|----------------------||--------------|-----------------||
|-------------------|----------------------||--------------|-----------------||
|-------------------|-----2----------------||--------------|-----------------||
|-2------4------5---|-(5)---------5--4-----||-----------1--|---2--1-4-2-4-5--||
|-------------------|------------------5-0-||-2--0-3--2----|-3---------------||
|-------------------|----------------------||--------------|-----------------||
|
| Gtr II
| Q.     Q.     Q     +E  Q.      E  E E E    Q  e Q  e Q    e Q  e E E E E
|-------------------|-----5----------------||--------------|-----------------||
|-5------7------8---|-(8)---------8--7-----||-----------4--|---5--4-7-5-7-8--||
|-------------------|------------------7-2-||-4--2-5--4----|-5---------------||
|-------------------|----------------------||--------------|-----------------||
|-------------------|----------------------||--------------|-----------------||
|-------------------|----------------------||--------------|-----------------||


 Chorus I
  E         E5  B5 Bb5              F5
  Gtrs I, II
  PM------|   PM
  E E S S E E E  E E   +H     +E  E Q
|--------------------|-----------------|
|--------------------|-----------------|
|-----------9--------|-----------------|
|-----------9---/9-8-|-(8)----(8)---3--|
|-----2-2-2-7---/9-8-|-(8)----(8)---3--|
|-0-0-0-0-0---0-/7-6-|-(6)----(6)-0-1--|


  E         E5  B5Bb5      B5Bb5      F5
  PM------|   PM
  E E S S E E E E E   +Q   E E +E  E  Q
|-------------------|----------------------|
|-------------------|----------------------|
|-----------9-------|----------------------|
|-----------9---9-8-|-(8)--9-8-(8)-8\-3----|
|-----------7---9-8-|-(8)--9-8-(8)-8\-3----|
|-0-0-0-0-0---0-7-6-|-(6)--7-6-(6)-6\-1----|


  E         E5  B5 Bb5              F5
  PM------|   PM
  E E S S E E E  E E   +H     +E  E Q
|--------------------|-----------------|
|--------------------|-----------------|
|-----------9--------|-----------------|
|-----------9---/9-8-|-(8)----(8)---3--|
|-----2-2-2-7---/9-8-|-(8)----(8)---3--|
|-0-0-0-0-0---0-/7-6-|-(6)----(6)-0-1--|


  E         E5  B5Bb5      B5Bb5      F5
  PM------|   PM
  E E S S E E E E E   +Q   E E +E  E  Q
|-------------------|----------------------|
|-------------------|----------------------|
|-----------9-------|----------------------|
|-----------9---9-8-|-(8)--9-8-(8)-8\-3----|
|-----------7---9-8-|-(8)--9-8-(8)-8\-3----|
|-0-0-0-0-0---0-7-6-|-(6)--7-6-(6)-6\-1----|


                                      2nd Verse
  F#5  E5   G5A5         G    F#5F5    E         E5         G5/D        G5/D
                                       PM------|
  Q.   Q.   a  Q     +E  Q.   Q  Q     E E S S E Q.   E   E E E E E E E E
|-----------------|-----------------||------------------|------------------|
|-7----5----8s10--|-(10)-8----7--6--||------------------|------------------|
|-6----4----7s=9--|--(9)-4----6--5--||-----------9\-----|------------------|
|-4----2----5s=7--|--(7)-5----4--3--||-----------9\-----|---5-----------5--|
|-4----2----5s=7--|--(7)-5----4--3--||-----2-2-2-7\-----|---5-7-----5-7-5--|
|-2----0----3s=5--|--(5)-3----2--1--||-0-0-0-0-0--------|-------5-7--------|


  E         E5         C        G5/D    E         E5
  PM------|                PM    ~~~    PM------|
  E E S S E Q.   E   E E E E  E  Q.     E E S S E Q.   E   E a E E E E E  E E
|------------------|------------------|------------------|--------------------|
|------------------|------------------|------------------|--------------------|
|-----------9\-----|---6s7---14-12----|-----------9\-----|--------------------|
|-----------9\-----|---5s6---14-12----|-----------9\-----|--------------------|
|-----2-2-2-7\-----|------------------|-----2-2-2-7\-----|---5s7-5-------10-8-|
|-0-0-0-0-0--------|-------0----------|-0-0-0-0-0--------|---------7-6-5------|


  E         E5         C     A5/E       E         E5         G5/D        G5/D
  PM------|                PM    ~~~    PM------|
  E E S S E Q.   E   E E E E  E  Q.     E E S S E Q.   E   E E E E E E E E
|------------------|------------------|------------------|------------------|
|------------------|------------------|------------------|------------------|
|-----------9\-----|---6s7---14-12----|-----------9\-----|------------------|
|-----------9\-----|---5s6---14-12----|-----------9\-----|---5-----------5--|
|-----2-2-2-7\-----|------------------|-----2-2-2-7\-----|---5-7-----5-7-5--|
|-0-0-0-0-0--------|-------0----------|-0-0-0-0-0--------|-------5-7--------|


  E         E5         C     A5/E       E         E5
  PM------|                PM    ~~~    PM------|
  E E S S E Q.   E   E E E E  E  Q.     E E S S E Q.   E
|------------------|------------------|------------------|
|------------------|------------------|------------------|
|-----------9\-----|---6s7---14-12----|-----------9\-----|
|-----------9\-----|---5s6---14-12----|-----------9\-----|
|-----2-2-2-7\-----|------------------|-----2-2-2-7\-----|
|-0-0-0-0-0--------|-------0----------|-0-0-0-0-0--------|


                       E         E5         C        G5/D
                       PM------|                PM    ~~~
  E a E E E E E  E E   E E S S E Q.   E   E E E E  E  Q.
|--------------------|------------------|------------------||
|--------------------|------------------|------------------||
|--------------------|-----------9\-----|---6s7---14-12----||
|--------------------|-----------9\-----|---5s6---14-12----||
|---5s7-5-------10-8-|-----2-2-2-7\-----|------------------||
|---------7-6-5------|-0-0-0-0-0--------|-------0----------||


 Bridge II
  Gtr I
  Q.     Q.     Q     +E  Q.       E  E E E
  |      |      |      |  |        |  | | |
  o      o      o      /  o        o  o o o

  Gtr III
  E  E E E  E E E E    E  E  E  E +H
|-------------------|-----------------------|
|------0------0-----|--0--------0-(0)-------|
|----0------0-----0-|--------0--------------|
|-2------4------5---|-----7-----------------|
|-------------------|-----------------------|
|-------------------|-----------------------|
|
| Gtr IV
| W                    E  E  E  E  E  E E E
|-------------------|-----5--7--8-----7-5-7-|
|-------------------|-----7--8-10-----8-7-8-|
|-------------------|-----------------------|
|-------------------|-----------------------|
|-------------------|-----------------------|
|-------------------|-----------------------|
|
| Gtr II
| Q.     Q.     Q     +E  Q.       E  E E E
|-------------------|-----5-----------------|
|-5------7------8---|-(8)----------8--7-----|
|-------------------|-------------------7-4-|
|-------------------|-----------------------|
|-------------------|-----------------------|
|-------------------|-----------------------|


   Q.      Q.       Q     +E  Q.      E  E E E
   |       |        |      |  |       |  | | |
   o       o        o      /  o       o  o o o

   E   E E E   E  E E E    E  E  E E +H
|-----------------------|-----------------------|
|--------0--------0-----|--0-------0-(0)--------|
|------0-------0------0-|--------0--------------|
|--2-------4--------5---|-----7-----------------|
|-----------------------|-----------------------|
|-----------------------|-----------------------|
|
| +Q.      E  +H          +W
|-(7)\-----3--(3)-------|-(3)-------------------|
|-(8)\-----5--(5)-------|-(5)-------------------|
|-----------------------|-----------------------|
|-----------------------|-----------------------|
|-----------------------|-----------------------|
|-----------------------|-----------------------|
|
|  Q.      Q.       Q     +E  Q.      E  E E E
|-----------------------|-----5-----------------|
|--5-------7--------8---|-(8)---------8--7------|
|-----------------------|------------------7-4--|
|-----------------------|-----------------------|
|-----------------------|-----------------------|
|-----------------------|-----------------------|


  Gtr III                                     Gtr V
  E  E E E  E E E E    E  E  E E +H           Q  e Q  e Q    E Q  e E E E E
|-------------------|----------------------||--------------|-----------------||
|------0------0-----|--0-------0-(0)-------||--------------|-----------------||
|----0------0-----0-|--------0-------------||--------------|--------------4--||
|-2------4------5---|-----7----------------||-----------1--|---5--4-7-5-7----||
|-------------------|----------------------||-2--0-3--2----|-----------------||
|-------------------|----------------------||--------------|-----------------||
|
| Gtr I
| Q.     Q.     Q     +E  Q.      E  E E E    Q  e Q  e Q    e Q  e E E E E
|-------------------|----------------------||--------------|-----------------||
|-------------------|----------------------||--------------|-----------------||
|-------------------|-----2----------------||--------------|-----------------||
|-2------4------5---|-(5)---------5--4-----||-----------1--|---2--1-4-2-4-5--||
|-------------------|------------------5-0-||-2--0-3--2----|-3---------------||
|-------------------|----------------------||--------------|-----------------||
|
| Gtr II
| Q.     Q.     Q     +E  Q.      E  E E E    Q  e Q  e Q    e Q  e E E E E
|-------------------|-----5----------------||--------------|-----------------||
|-5------7------8---|-(8)---------8--7-----||-----------4--|---5--4-7-5-7-8--||
|-------------------|------------------7-2-||-4--2-5--4----|-5---------------||
|-------------------|----------------------||--------------|-----------------||
|-------------------|----------------------||--------------|-----------------||
|-------------------|----------------------||--------------|-----------------||


 Chorus II
  E         E5  B5 Bb5              F5
  Gtrs I, II
  PM------|   PM
  E E S S E E E  E E   +H     +E  E Q
|--------------------|-----------------|
|--------------------|-----------------|
|-----------9--------|-----------------|
|-----------9---/9-8-|-(8)----(8)---3--|
|-----2-2-2-7---/9-8-|-(8)----(8)---3--|
|-0-0-0-0-0---0-/7-6-|-(6)----(6)-0-1--|


  E         E5  B5Bb5      B5Bb5      F5
  PM------|   PM
  E E S S E E E E E   +Q   E E +E  E  Q
|-------------------|----------------------|
|-------------------|----------------------|
|-----------9-------|----------------------|
|-----------9---9-8-|-(8)--9-8-(8)-8\-3----|
|-----------7---9-8-|-(8)--9-8-(8)-8\-3----|
|-0-0-0-0-0---0-7-6-|-(6)--7-6-(6)-6\-1----|


  E         E5  B5 Bb5              F5
  PM------|   PM
  E E S S E E E  E E   +H     +E  E Q
|--------------------|-----------------|
|--------------------|-----------------|
|-----------9--------|-----------------|
|-----------9---/9-8-|-(8)----(8)---3--|
|-----2-2-2-7---/9-8-|-(8)----(8)---3--|
|-0-0-0-0-0---0-/7-6-|-(6)----(6)-0-1--|


  E         E5  B5Bb5      B5Bb5      F5
  PM------|   PM
  E E S S E E E E E   +Q   E E +E  E  Q
|-------------------|----------------------|
|-------------------|----------------------|
|-----------9-------|----------------------|
|-----------9---9-8-|-(8)--9-8-(8)-8\-3----|
|-----------7---9-8-|-(8)--9-8-(8)-8\-3----|
|-0-0-0-0-0---0-7-6-|-(6)--7-6-(6)-6\-1----|


  E         E5  B5 Bb5              F5
  PM------|   PM
  E E S S E E E  E E   +H     +E  E Q
|--------------------|-----------------|
|--------------------|-----------------|
|-----------9--------|-----------------|
|-----------9---/9-8-|-(8)----(8)---3--|
|-----2-2-2-7---/9-8-|-(8)----(8)---3--|
|-0-0-0-0-0---0-/7-6-|-(6)----(6)-0-1--|


  E         E5  B5Bb5      B5Bb5      F5
  PM------|   PM
  E E S S E E E E E   +Q   E E +E  E  Q
|-------------------|----------------------|
|-------------------|----------------------|
|-----------9-------|----------------------|
|-----------9---9-8-|-(8)--9-8-(8)-8\-3----|
|-----------7---9-8-|-(8)--9-8-(8)-8\-3----|
|-0-0-0-0-0---0-7-6-|-(6)--7-6-(6)-6\-1----|


  F#5  E5   G5A5         G    F#5F5   F#5  E  F#G5       E5  F#G5F#E5
                                           PM-|          PM  PM  PM|
                                                               |-3-|
  Q.   Q.   a  Q     +E  Q.   Q  Q    Q.   Q  E Q    +E  E E E Q Q Q
|-----------------|-----------------|-----------3--|-(3)-------------|
|-7----5----8s10--|-(10)-8----7--6--|-7---------3--|-(3)-------------|
|-6----4----7s=9--|--(9)-4----6--5--|-6------------|-----4---6-7-6-4-|
|-4----2----5s=7--|--(7)-5----4--3--|-4----2--4-5--|-(5)-2---4-5-4-2-|
|-4----2----5s=7--|--(7)-5----4--3--|-4---------5--|-(5)-2---4-5-4-2-|
|-2----0----3s=5--|--(5)-3----2--1--|-2----0--2-3--|-(3)-0---2-3-2-0-|


                                   Guitar Solo
  F#5  E  F#G5       E5 F#D5 C#B5   (F#)
  Gtr I                             Gtr V
       PM-|          PM-|                                                    TP
                           |-3-|
  Q.   Q  E Q    +E  Q  E  Q Q Q     E     +Q     a      +S   +S       +Q    Q
|-----------3--|-(3)-------------||-----------------------------------------------|
|-7---------3--|-(3)------10-9-7-||-24b26-(24)---24b26==(24)r(24)b26==(24)r-------|
|-6------------|-----4--6--7-6-4-||-----------------------------------------------|
|-4----2--4-5--|-(5)-2--4--7-6-4-||------------------------------------------x\---|
|-4---------5--|-(5)-2--4--5-4-2-||-----------------------------------------------|
|-2----0--2-3--|-(3)-0--2--------||-----------------------------------------------|
|
| Gtr II                            Gtrs I, II
|      PM-|          PM-|            PM---|               PM                 PM
|                          |-3-|
| Q.   Q  E Q    +E  Q  E  Q Q Q     E      E  E          E             Q    E  E
|-----------3--|-(3)-------------||-----------------------------------------------|
|-7---------3--|-(3)------10-9-7-||-----------------------------------------------|
|-6------------|-----4--6--7-6-4-||-----------------------------------------------|
|-4----2--4-5--|-(5)-2--4--7-6-4-||-----------------------------------------------|
|-4---------5--|-(5)-2--4--5-4-2-||------------4------------------------4-------4-|
|-2----0--2-3--|-(3)-0--2--------||--2------2--2----------2-------------2----2--2-|


                  A5                BbA5   AG5
   E   S  S  S  S  S  S  a      +Q     +E   E
|----------------------------------------------|
|-----24-24-24-24-24-21------------------------|
|-----------------------23b25==(23)---(23)r----|
|--x-------------------------------------------|
|----------------------------------------------|
|----------------------------------------------|
|
|      PM---|
| +E   E     E     Q                E   E   E
|----------------------------------------------|
|----------------------------------------------|
|----------------------------------------------|
|------------------7----------------8---7---5--|
|-(4)--------------7----------------8---7---5--|
|-(2)--2-----2-----5----------------6---5---3--|


     (F#)
      |---3---|  |---3---|  |--3--|  |---3----|
   a  E  E    E  E  E    E  E  E  E  E  S  S  E
|-18s19p14--------------17p14----------------14p|
|------------17p14------------17p14-------------|
|------------------16---------------16-14-14----|
|-----------------------------------------------|
|-----------------------------------------------|
|-----------------------------------------------|
|
|     PM---|          PM             PM
|     E    E     E    E     Q        E     E
|-----------------------------------------------|
|-----------------------------------------------|
|-----------------------------------------------|
|-----------------------------------------------|
|----------------4----------4--------------4----|
|-----2----2-----2----2-----2--------2-----2----|


                    A5          Bb5A5G5      (F#)
                                 ~~                        ~~~
   |---3----|  |---3---|
   E   E    E  E  E    E   a  E  Q    +E      E      +E    E.    S  S  S  S  S  E  E
|-12---------------------------------------|-------------------------------------------|
|-----14---13-12----------13s17------------|-16b17==(16)r-16----14----------------16---|
|----------------14---11\-------14---(14)\-|-15b16==(15)r-15----15-16-16p15----15-16---|
|------------------------------------------|-16b17==(16)r-------------------16---------|
|------------------------------------------|-------------------------------------------|
|------------------------------------------|-------------------------------------------|
|
|        PM---|                               PM----|         PM                PM
| +E     E     E    Q            E E   E      E       E    E  E     Q           E  E
|------------------------------------------|-------------------------------------------|
|------------------------------------------|-------------------------------------------|
|------------------------------------------|-------------------------------------------|
|-------------------7------------8-7---5---|-------------------------------------------|
|-(4)---------------7------------8-7---5---|---------------4--------4--------------4---|
|-(2)----2-----2----5------------6-5---3---|--2-------2----2--2-----2-----------2--2---|


                         A5          Bb5   A5    G5
   +E         +E    S  S  S  S  S  S  S  S  S  S  S  S
|------------------------------------------------------|
|-(16)b17.5==(16)r----------14-15-16-15-14-------------|
|-(16)b17.5==(16)r-14-16-17----------------17-16-14----|
|---------------------------------------------------17-|
|------------------------------------------------------|
|------------------------------------------------------|
|
|              PM--|
|   E          E    E     Q           E     E     E
|------------------------------------------------------|
|------------------------------------------------------|
|------------------------------------------------------|
|-------------------------7-----------8-----7-----5----|
|---4---------------------7-----------8-----7-----5----|
|---2----------2----2-----5-----------6-----5-----3----|


  (F#)                                                            A5        Bb5  A5G5
                                                                              ~~~~~~~~~~~
                                                             |3-|
   E.         +S    S  S  E  a  E  E  S  S  E    a  E  S  S  E  S  E  E      +Q     +S   S
|---------------------------------------------|----------------14-17-19b21==(19)---(19)r----|
|-14b15======(14)r----------------------------|-------------16------------------------------|
|-14b14.5====(14)r----14----------------------|-------14-17---------------------------------|
|------------------16-------14s16-14----------|-14s16---------------------------------------|
|------------------------16----------16p14----|---------------------------------------------|
|------------------------------------------17-|---------------------------------------------|
|
|  PM------|              PM          PM               PM---|
|  E       E        E     E     Q     E     E       E  E     E     Q          E  E   E
|---------------------------------------------|---------------------------------------------|
|---------------------------------------------|---------------------------------------------|
|---------------------------------------------|---------------------------------------------|
|---------------------------------------------|--------------------7----------8--7---5------|
|-------------------4-----------4-----------4-|-----4--------------7----------8--7---5------|
|--2-------2--------2-----2-----2-----2-----2-|-----2--2-----2-----5----------6--5---3------|


  (G5)
   S  S  S  S  S  S  S  S  S  S  S  S  S  S  S  S
|-------------------------------------------------|
|-------------------------------------------------|
|-------------------------------------15----------|
|----------------15----------15h16h17----17p16h17-|
|-------15h16h17----17p16h17----------------------|
|-15h18-------------------------------------------|
|
|        PM          PM                PM
|  E     E     E     E     E     E     E     E
|-------------------------------------------------|
|-------------------------------------------------|
|-------------------------------------------------|
|--------------------------5-----5-----------5----|
|--5-----------5-----------5-----5-----------5----|
|--3-----3-----3-----3-----3-----3-----3-----3----|


                                        F5    F#5
   S   S  S  S  S  S  S  S  S   S  S  S  S  S  S  S
|---------------------------------------15----------|
|-----------15-----------------15h17h18----18p17p15-|
|-15h=17h18----18p17p15h17h18-----------------------|
|---------------------------------------------------|
|---------------------------------------------------|
|---------------------------------------------------|
|
|         PM---|                   PM---------|
| +E      E     E     E    +E      E     E     E
|---------------------------------------------------|
|---------------------------------------------------|
|---------------------------------------------------|
|-(5)-----------------5----(5)----------------------|
|-(5)-----5-----5-----5----(5)-----------3-----4----|
|-(3)-----3-----3-----3----(3)-----0-----1-----2----|


  (G5)
   S  S  S  S  S  S  S  S  S  S  S  S  S  S  S  S
|-20p15-17----15----------15----------------------|
|----------18----18p17h18----18p17p15-20p15-17----|
|----------------------------------------------18-|
|-------------------------------------------------|
|-------------------------------------------------|
|-------------------------------------------------|
|
|        PM          PM                PM
|  E     E     E     E     E     E     E     E
|-------------------------------------------------|
|-------------------------------------------------|
|-------------------------------------------------|
|--------------------------5-----5-----------5----|
|--5-----------5-----------5-----5-----------5----|
|--3-----3-----3-----3-----3-----3-----3-----3----|


                                                        F5       F#5
   S   S  S  S  S  S  S  S  a      +S    S  S  S  a      +S    S  S  S
|---------------------------------------15----15--------------15-------|
|-15-----------15--------------------------18p15-----------------18p15-|
|-----18p17h18----18p17p15-17b19==(17)r----------17b19==(17)r----------|
|----------------------------------------------------------------------|
|----------------------------------------------------------------------|
|----------------------------------------------------------------------|
|
|         PM---|                            PM-------------------|
| +E      E     E     E            +E       E             E       E
|----------------------------------------------------------------------|
|----------------------------------------------------------------------|
|----------------------------------------------------------------------|
|-(5)-----------------5------------(5)---------------------------------|
|-(5)-----5-----5-----5------------(5)--------------------3-------4----|
|-(3)-----3-----3-----3------------(3)------0-------------1-------2----|


  G5
                                     ~~~~
   Q.        +E   S     +S   a      +Q     +E
|-18b21-----(18)-18b20-(18)-18b20==(18)---(18)r-|
|-----------------------------------------------|
|-----------------------------------------------|
|-----------------------------------------------|
|-----------------------------------------------|
|-----------------------------------------------|
|
|  E    E E   E   E                  E  E   E
|-----------------------------------------------|
|-----------------------------------------------|
|-----------------------------------------------|
|--5----5-5---5---5------------------5--5---5---|
|--5----5-5---5---5------------------5--5---5---|
|--3----3-3---3---3------------------3--3---3---|


                                               F5F#5      A5                               Bb5
                                           ~~~~~
                   |3-|
   a      +E    E  E  S  S  S  E   a      +Q      E        +E    E  S  S  E  S  S  E  S  S  E
|-18b20==(18)r-18-15------------------------------------|-------17-17h22p17-------------------|
|--------------------18-15-----------------------20b22==|=(20)r-------------20p17-------------|
|--------------------------18-17--15b17==(15)r----------|-------------------------20-19p17----|
|-------------------------------------------------------|----------------------------------19-|
|-------------------------------------------------------|-------------------------------------|
|-------------------------------------------------------|-------------------------------------|
|
|               PM|                        PM----------------------------------------------|
|         +E    E  E     E    +E           E   E  E         E    E  E     E  E     E  E     E
|-------------------------------------------------------|-------------------------------------|
|-------------------------------------------------------|-------------------------------------|
|-------------------------------------------------------|-------------------------------------|
|---------(5)---5--5-----5----(5)-----------------------|---2----2--2-----2--2-----2--2-----3-|
|---------(5)---5--5-----5----(5)--------------3--4-----|---0----0--0-----0--0-----0--0-----1-|
|---------(3)---3--3-----3----(3)----------0---1--2-----|-------------------------------------|


                                   A5   G5   F5
                                |----3-----|
   a      +E   +S   S  S  S  E  Q     Q    Q
|------------------------------18----20---22---||
|---------------------17s20s17-----------------||
|------------------19--------------------------||
|-20b21==(20)r(20)-----------------------------||
|----------------------------------------------||
|----------------------------------------------||
|
|          PM---------|
|          E    E      E     E +E  E    E    E
|----------------------------------------------||
|----------------------------------------------||
|----------------------------------------------||
|----------3----3------3-----3-(3)-2-----------||
|----------1----1------1-----1-(1)-0----5----3-||
|---------------------------------------3----1-||


 Interlude
         E5
           ~~~~
   a      +Q     +Q      H         W
|-22b24==(22)---(22)r\-----------|------|
|--------------------------------|------|
|--------------------------------|------|
|--------------------------------|------|
|--------------------------------|------|
|--------------------------------|------|
|
|          PM---|        PM--|
|          E  E   E    E E E E E   W
|--------------------------------|------|
|--------------------------------|------|
|--------------------------------|------|
|-----------------2----------2---|------|
|----------2--2---2------2-2-2---|------|
|----------0--0---0------0-0-0---|------|


  E5                    G5 EbsuF5/AE5
  Gtrs I, II
  PM--|    PM--|                   PM--|    PM--|
  E E E Q  E E E   Q.   Q  E E E   E E E Q  E E E
|----------------|---------------|----------------|
|----------------|---------------|----------------|
|----------------|------7--8-7-5-|----------------|
|-----2--------2-|------5--6-5-3-|-----2--------2-|
|-2-2-2----2-2-2-|------5--6-5-3-|-2-2-2----2-2-2-|
|-0-0-0----0-0-0-|------3--4-3-1-|-0-0-0----0-0-0-|


                                  D.S. al Coda
       G5 EbsuF5/AE5   G5 EbsuF5/AE5
  Q.   Q  E E E   E Q  Q  E E E   E Q  E Q  E E
|---------------|---------------|---------------||
|---------------|---------------|---------------||
|------7--8-7-5-|------7--8-7-5-|-4----4----4---||
|------5--6-5-3-|-2----5--6-5-3-|-2----2----2---||
|------5--6-5-3-|-2----5--6-5-3-|-2----2----2---||
|------3--4-3-1-|-0----3--4-3-1-|-0----0----0---||


 Bridge III
  &
  Gtr I
  Q.     Q.        Q      +E  Q.               E  E    E    E
  |      |         |       |  |                |  |    |    |
  o      o         o       /  o                o  o    o    o

  Gtr III
  E  E E E     E E E E     E  E  E E          +H
|----------------------|--------------------------------------|
|------0---------0-----|---0-------0----------(0)-------------|
|----0---------0-----0-|---------0----------------------------|
|-2------4---------5---|------7-------------------------------|
|----------------------|--------------------------------------|
|----------------------|--------------------------------------|
|
| Gtr V
|                                              |----3-----|
| H         a  H          +Q     Q    a  a  a  Q     Q    Q
|----------------------|----------------------12--------------|
|----------------------|-------------------12-------15---13---|
|----------------------|----------------12--------------------|
|-------------14-------|-(14)--------14-----------------------|
|-----------x----------|--------------------------------------|
|----------------------|--------------------------------------|
|
| Gtr II
| Q.     Q.        Q      +E  Q.               E  E    E    E
|----------------------|------5-------------------------------|
|-5------7---------8---|--(8)------------------8--7-----------|
|----------------------|-------------------------------7----4-|
|----------------------|--------------------------------------|
|----------------------|--------------------------------------|
|----------------------|--------------------------------------|


   Q.          Q.        Q     +E  Q.        E  E  E   E
   |           |         |      |  |         |  |  |   |
   o           o         o      /  o         o  o  o   o

   E    E   E  E     E E E E    E  E  E E   +H
|----------------------------|---------------------------||
|-----------0----------0-----|--0-------0---(0)----------||
|-------0------------0-----0-|--------0------------------||
|--2-----------4---------5---|-----7---------------------||
|----------------------------|---------------------------||
|----------------------------|---------------------------||
|
|                    ~~
|  E   +E   E  S  S  H          Q     E S S  Q    +Q
|----------------------------|---------------------------||
|-15--(15)\---12p10-12-------|-10-------8-7--8----(8)\---||
|----------------------------|---------------------------||
|----------------------------|---------------------------||
|----------------------------|---------------------------||
|----------------------------|---------------------------||
|
|  Q.          Q.        Q     +E  Q.        E  E  E   E
|----------------------------|-----5---------------------||
|--5-----------7---------8---|-(8)-----------8--7--------||
|----------------------------|---------------------7---4-||
|----------------------------|---------------------------||
|----------------------------|---------------------------||
|----------------------------|---------------------------||


  Gtr III                                     Gtr V
  E  E E E  E E E E    E  E  E E +H           Q  e Q  e Q    E Q  e E E E E
|-------------------|----------------------||--------------|-----------------||
|------0------0-----|--0-------0-(0)-------||--------------|-----------------||
|----0------0-----0-|--------0-------------||--------------|--------------4--||
|-2------4------5---|-----7----------------||-----------1--|---5--4-7-5-7----||
|-------------------|----------------------||-2--0-3--2----|-----------------||
|-------------------|----------------------||--------------|-----------------||
|
| Gtr I
| Q.     Q.     Q     +E  Q.      E  E E E    Q  e Q  e Q    e Q  e E E E E
|-------------------|----------------------||--------------|-----------------||
|-------------------|----------------------||--------------|-----------------||
|-------------------|-----2----------------||--------------|-----------------||
|-2------4------5---|-(5)---------5--4-----||-----------1--|---2--1-4-2-4-5--||
|-------------------|------------------5-0-||-2--0-3--2----|-3---------------||
|-------------------|----------------------||--------------|-----------------||
|
| Gtr II
| Q.     Q.     Q     +E  Q.      E  E E E    Q  e Q  e Q    e Q  e E E E E
|-------------------|-----5----------------||--------------|-----------------||
|-5------7------8---|-(8)---------8--7-----||-----------4--|---5--4-7-5-7-8--||
|-------------------|------------------7-2-||-4--2-5--4----|-5---------------||
|-------------------|----------------------||--------------|-----------------||
|-------------------|----------------------||--------------|-----------------||
|-------------------|----------------------||--------------|-----------------||


                                 Out-Chorus
  Am G Am Bb B                    E         E5  B5Bb5
 6/4                             4/4
  Gtrs I, II
                                  PM------|   PM
   E E  E  E  H..        +E       E E S S E E E E E
|-----------------------------||--------------------|
|-10-8-10-11-12---------(12)--||o-------------------|
|--5-4--5--3--4----------(4)\-||------------9-------|
|--7-5--7--8--9----------(9)\-||------------9---9-8-|
|-----------------------------||o-----------7---9-8-|
|-----------------------------||--0-0-0-0-0---0-7-6-|


               F5   E         E5  B5Bb5
                    PM------|   PM
  +H     +E  E Q    E E S S E E E E E
|-----------------|---------------------|
|-----------------|---------------------|
|-----------------|-----------9---------|
|-(8)----(8)---3--|-----------9---9-8---|
|-(8)----(8)---3--|-----------7---9-8---|
|-(6)----(6)-0-1--|-0-0-0-0-0---0-7-6---|


  Bb5  B5Bb5      F5     E         E5  B5Bb5      B5Bb5    F5
                         PM------|   PM
  +Q   E E +E  E  Q   4x E E S S E E E E E   +Q   E E +Q   Q
|---------------------||-------------------|------------------|
|--------------------o||-------------------|------------------|
|---------------------||-----------9-------|------------------|
|-(8)--9-8-(8)-8\-3---||-----------9---9-8-|-(8)--9-8-(8)--3--|
|-(8)--9-8-(8)-8\-3--o||-----------7---9-8-|-(8)--9-8-(8)--3--|
|-(6)--7-6-(6)-6\-1---||-0-0-0-0-0---0-7-6-|-(6)--7-6-(6)--1--|


  E         E5  B5Bb5      B5Bb5    F5
  PM------|   PM
  E E S S E E E E E   +Q   E E +Q   Q
|-------------------|------------------|
|-------------------|------------------|
|-----------9-------|------------------|
|-----------9---9-8-|-(8)--9-8-(8)--3--|
|-----------7---9-8-|-(8)--9-8-(8)--3--|
|-0-0-0-0-0---0-7-6-|-(6)--7-6-(6)--1--|


  E         E5  B5Bb5      B5Bb5    F5
  PM------|   PM
  E E S S E E E E E   +Q   E E +Q   Q
|-------------------|--------------------|
|-------------------|--------------------|
|-----------9-------|--------------------|
|-----------9---9-8-|-(8)--9-8-(8)--3----|
|-----------7---9-8-|-(8)--9-8-(8)--3----|
|-0-0-0-0-0---0-7-6-|-(6)--7-6-(6)--1----|


  E         E5  B5Bb5      B5Bb5    B5Bb5      B5Bb5    B5E5
  PM------|   PM
  E E S S E E E E E   +Q   E E +Q   E E   +Q   E E +Q   E E
|-------------------|-------------------|-------------------*|
|-------------------|-------------------|-------------------*|
|-----------9-------|-------------------|-------------------*|
|-----------9---9-8-|-(8)--9-8-(8)--9-8-|-(8)--9-8-(8)--9-2-*|
|-----------7---9-8-|-(8)--9-8-(8)--9-8-|-(8)--9-8-(8)--9-2-*|
|-0-0-0-0-0---0-7-6-|-(6)--7-6-(6)--7-6-|-(6)--7-6-(6)--7-0-*|



Duration Legend
---------------
W - whole; H - half; Q - quarter; E - 8th; S - 16th; T - 32nd; X - 64th; a - acciaccatura
+ - note tied to previous; . - note dotted; .. - note double dotted
Uncapitalized letters represent notes that are staccato (1/2 duration)
Irregular groupings are notated above the duration line
Duration letters will always appear directly above the note/fret number it represents the
duration for.  Duration letters with no fret number below them represent rests.  Multi-
bar rests are notated in the form Wxn, where n is the number of bars to rest for.  Low
melody durations appear below the staff

Tablature Legend
----------------
 h   - hammer-on
 p   - pull-off
 b   - bend
 pb  - pre-bend
 r   - bend release (if no number after the r, then release immediately)
 /\  - slide into or out of (from/to "nowhere")
 s   - legato slide
 S   - shift slide
<n> - natural harmonic
[n]  - artificial harmonic
n(n) - tapped harmonic
 ~   - vibrato
 tr  - trill
 T   - tap
 TP  - trem. picking
 PM  - palm muting
\n/  - tremolo bar dip; n = amount to dip
 \n  - tremolo bar down
 n/  - tremolo bar up
/n\  - tremolo bar inverted dip
 =   - hold bend; also acts as connecting device for hammers/pulls
 <> - volume swell (louder/softer)
 x   - on rhythm slash represents muted slash
 o   - on rhythm slash represents single note slash

Misc Legend
-----------
 |  - bar
||  - double bar
||o - repeat start
o|| - repeat end
*|  - double bar (ending)
 :  - bar (freetime)
 $  - Segno
 &  - Coda
Tempo markers - <E/E./Q/Q./H/H.> = BPM(8/16=s8/s16), where s8 = swing 8ths, s16 = swing 16ths

comments
We did not receive enough feedback on this tab! Please rate:
print report bad tab
1 2 3 4 5
I want to post or [tab]
guest
You may want to rate the tab now too:
select rating
Please do not post tabs as comments. Select "correction" instead!