Oops, an error
Loading. Please wait.

Anthology Set The World Afire Disc One Tab

8,048 views 1 this week
3 commentsread comments
1 2 3 4 5
excellent!
x 2
Autoscroll
+/-
esc
set tempo
stop
Contributor
Hey! There's an official Ultimate Guitar app which is ideal
for learning songs when you're away from computer. Get the app
WARNING: You are trying to view
                                    content from Ultimate-Guitar.com
                                    in an unauthorized application,
                                    which is prohibited.

                                    Please use an official Ultimate
                                    Guitar Tabs application for iPhone,
                                    iPad or Android to access legitimate
                                    chords, guitar, bass, and drum tabs
                                    from Ultimate-Guitar.com database.

                                    Type "ultimate guitar tabs" in Apple
                                    App Store's or Android Market's
                                    search to find the application.
This is just the first disc. I'll tab out the second one later and update it.

Artist: Megadth
Album: Antholgy: Set the World Afire

Disc One
1.Mechanix
2.Rattlehead
3.Peace Sells
4.Wake Up Dead
5.Devils Island
6.Anarchy in the UK
7.Set the World Afire
8.Into the Lungs of Hell
9.In My Darkest Hour
10.Holy Wars... the Punishment Due
11.Tornado of Souls
12.Hangar 18
13.Take No Prisoners
14.Go to Hell
15.Sweating Bullets
16.Crown of Worms
17.High Speed Dirt

Disc Two [to be tabbed out later]
1.Skin o' My Teeth
2.Ashes in Your Mouth
3.Breakpoint
4.Angry Again
5.Train of Consequences
[6.]Reckoning Day
7.A Tout le Monde
8.The Killing Road
9.New World Order
10.Trust
11.She-Wolf
12.Insomnia
13.Prince of Darkness
14.Kill the King
15.Dread and the Fugitive Mind
16.Foreclosure of a Dream
[17.]Symphony of Destruction
[18.]Peace Sells

[x.] = Live version, uploaded tab of original

Tabs
----
|========|
|Disc One|
|========|
1.Mechanix
1 guitar is distorted and wahed, another is just distorted
note: the lead guitar should play the fast riff like so:
Db|---------|
Ab|-7-5-7-5-|
Eb|---------|
Repeat it as neccasry, just get rid of the Eb notes and tremolo pick
Title : Mechanix
Artist : Megadeth
Album : Killing Is My Business...And Business Is Good!
Transcribed by : Skywalker  -  skywalker@infoguitar.com


Legend
------

 h  = hammer-on
 p  = pull-off
 b  = bend
 r  = bend release
 /  = slide up/down
<5> = natural harmonic
[5] = artifical harmonic
 ~  = vibrato
 tr = trill

   SECTION A: BOTH GUITARS

Eb-||----------------------------------------------------|--------------|
Bb-||*---------------------------------------------------|--------------|
Gb-||---4--------5---------------------------------------|--4---------5-|
Db-||---4--------5---------4/-5----5----------(5)--------|--4---------5-|
Ab-||*--2--------3-------x-4/-5--x-5----------(5)--------|--2---------3-|
Eb-||--------------------x-2/-3--x-3----------(3)--------|--------------|
   *  Detuned by 1/4 step from standard

Eb|------------------------------------||------------------------------|
Bb|-----------------------------------*||------------------------------|
Gb|------------------------------------||---4--------5-----------------|
Db|--------------2---------(2)---------||---4--------5---------4/-5----|
Ab|--------------2---------(2)--------*||---2--------3-------x-4/-5--x-|
Eb|--------0-2-3-0---------(0)---------||--------------------x-2/-3--x-|


Eb|----------------------------------|---------------------------------|
Bb|----------------------------------|---------------------------------|
Gb|----------------------------------|--4---------5--------------------|
Db|-5--------------5-3---------------|--4---------5--------------2-----|
Ab|-5------------------5-3-5-4-3-----|--2---------3--------------2-----|
Eb|-3--3-3-3-3-3-3---------------6-5-|---------------------0-2-3-0-----|
    *  Guitar 2 holds chord here.


                       SECTION B: GUITAR 1

Eb|-----------------||-||-----------------------------------------------|
Bb|-----------------||-||*----------------------------------------------|
Gb|-----------------||-||-----------------------------------------------|
Db|-----(2)---x\----||-||-----------------------------------------------|
Ab|-----(2)---x\----||-||*--7-5-7-5-7-5-7-5-7-5-7-5-7-5---5---7-5-7-5-7-|
Eb|-----(0)---------||-||---0---0---0---0---0---0---0---7-----0---0---0-|
              *  Guitar 1 pickslide

Eb-------------------------|-------------------------------------------|
Bb-------------------------|-------------------------------------------|
Gb-------------------------|-------------------------------------------|
Db-------------5-7p5-------|---------------------------------------5---|
Ab-5-7-5---5-7-------7p5---|---7-5-7-5-7-5---5---7-5-7-5-7-5---5---3---|
Eb---0---7-----------------|---0---0---0---7-----0---0---0---7---------|

                     SECTION B: GUITAR 2

Eb----------------||-----------------------------------------|---------|
Bb---------------*||-----------------------------------------|---------|
Gb----------------||-----------------------------------------|---------|
Db-------7----5---||-------------------------------2----2----|---------|
Ab--5----5----3--*||-------------------------------2----2----|---------|
Eb--3-------------||-------------------------------0----0----|---------|

                                      SECTION C: BOTH GUITARS

Eb|---------------------------------|-||--------------------------------|
Bb|---------------------------------|-||*-------------------------7-7-7-|
Gb|---------------------------------|-||-------9-------9-------9--7-7-7-|
Db|---------------5---------7----5--|-||-------9-------9-------9--7-7-7-|
Ab|---------------3----5----5----3--|-||*------7-------7-------7--5-5-5-|
Eb|--------------------3------------|-||---0-0-0---0-0-0---0-0-0--------|
                  *  Merge w/ Guitar 1 for the repeat. "Imagine you were at my station..."

Eb-------------------------------|-------------------------------------|
Bb-------------------------------|-------------------------------------|
Gb------9-------9-------9--------|-------9-------9-------9---12--9-----|
Db------9-------9-------9--5--7--|-------9-------9-------9---12--9---5-|
Ab------7-------7-------7--3--5--|-------7-------7-------7---10--7---3-|
Eb--0-0-0---0-0-0---0-0-0--------|---0-0-0---0-0-0---0-0-0-------------|
    "And you brought your motor to me..." "You're a burner, yeah, a real motor car..."


                       SECTION D: BOTH GUITARS

Eb------------------||---------------------------------------------|---|
Bb-----------------*||---9---------------------7-------------------|-5-|
Gb------------------||---9----------------x-9--7---------------x-7-|-5-|
Db---------7----5---||---9----------------x-9--7---------------x-7-|-5-|
Ab----5----5----3--*||---7----------------x-7--5---------------x-5-|-3-|
Eb----3-------------||---------------------------------------------|---|
                         "Who ever thought you'd be better..." "At turning a screw than me..."

Eb|----------------------------------------|---------------------------|
Bb|---------------------4------------------|---9---------------------7-|
Gb|----------------x-5--4------------------|---9----------------x-9--7-|
Db|----------------x-5--4------x\----------|---9----------------x-9--7-|
Ab|----------------x-3--2------x\----------|---7----------------x-7--5-|
Eb|----------------------------------------|---------------------------|
     "Well, I do it for my life..." *  Pick Slide  "Made my drive shaft crank..."

Eb|-------------------|------------------------------------------|-----|
Bb|-------------------|-5----------------------------------------|-----|
Gb|---------------x-7-|-5----------------------------------------|-----|
Db|---------------x-7-|-5----------------------4----5----4-------|-----|
Ab|---------------x-5-|-3----------------------2----3----2----5--|-----|
Eb|-------------------|---------------------------------------3--|-----|
     "Made my pistons bulge..." "Made my ball bearings melt from the heat...."

Eb---------------------------------------------------------------------|
Bb---------------------------------------------------------------------|
Gb---------------------------------------------------------------------|
Db---------------------------------------------------------------------|
Ab---------------------------------------------------------------------|
Eb---------------------------------------------------------------------|

       SECTION E: BOTH GUITARS

Eb--------------------------------------------|------------------------|
Bb--------------------------------------------|------------------------|
Gb--------------------------------------------|------------------------|
Db-------2------------------------------------|--(2)-------------------|
Ab-------2------------------------------------|--(2)-------------------|
Eb-------0------------------------------------|--(0)----------0--0-0-0-|
                                                 *  Guitar 2 out.

Eb|--------------------------------------|-----------------------------|
Bb|--------------------------------------|-----------------------------|
Gb|--------------------------------------|-----------------------------|
Db|--------------------------------------|-----------------------------|
Ab|--------------------------------------|-----------------------------|
Eb|-0-0--0-0-0-0-0--0-0-0-0-0--0-0-0-0-0-|---0-0-0-0-0--0-0-0-0-0--0-0-|


Eb|-----------------------------------------|--------------------------|
Bb|-----------------------------------------|--------------------------|
Gb|-----------------------------------------|--------------------------|
Db|-----------------------------------------|--------------------------|
Ab|-----------------------------------------|--------------------------|
Eb|-0-0-0--0-0-0-0-0--0-0-0-0-0--0-0-0-0-0--|--0-0-0-0-0--0-0-0-0-0--0-|

                                             SECTION F: BOTH GUITARS

Eb|----------------------------------------|----------------------------|
Bb|------------------------------------9~--|----------------------------|
Gb|-----------------------------10\-9--9~--|----------------------------|
Db|-----------------------------10\-9--9~--|----------------------------|
Ab|------------------------------8\-7--7~--|----------------------------|
Eb|-0-0-0-0--0-0-0-0-0--0-0-0-0------------|-0--0-0-0-0-0--0-0-0-0-0--0-|
                                *  Guitar 2 enters.

Eb|-----------------|--------------------------------------------|-----|
Bb|--------------9~-|--------------------------------------------|-----|
Gb|-------10\-9--9~-|----------------------------------10---10~--|-----|
Db|-------10\-9--9~-|----------------------------------10---10~--|-----|
Ab|--------8\-7--7~-|-----------------------------------8----8~--|-----|
Eb|-0-0-0-----------|-0--0-0-0-0-0--0-0-0-0-0--0-0-0-0-----------|--0--|


Eb|-----------------------------------------|--------------------------|
Bb|--------------------------------------9~-|--------------------------|
Gb|-------------------------------10\-9--9~-|--------------------------|
Db|-------------------------------10\-9--9~-|--------------------------|
Ab|--------------------------------8\-7--7~-|--------------------------|
Eb|-0-0-0-0-0--0-0-0-0-0--0-0-0-0-----------|-0--0-0-0-0-0--0-0-0-0-0--|


Eb|-------------------|--------------------------------------------|---|
Bb|-------------------|-----------------------------------------9~-|---|
Gb|---------10---10~--|----------------------------------10\-9--9~-|---|
Db|---------10---10~--|----------------------------------10\-9--9~-|---|
Ab|----------8----8~--|-----------------------------------8\-7--7~-|---|
Eb|-0-0-0-0-----------|-0--0-0-0-0-0--0-0-0-0-0--0-0-0-0-----------|-0-|


Eb|-------------------------------------------|-------------------------|
Bb|-------------------------------------------|-------------------------|
Gb|--------------------------------10---10~---|-------------------------|
Db|--------------------------------10---10~---|-------------------------|
Ab|---------------------------------8----8~---|-------------------------|
Eb|--0-0-0-0-0--0-0-0-0-0--0-0-0-0------------|-0--0-0-0-0-0--0-0-0-0-0-|


Eb|--------------------|--------------------------------------------|--|
Bb|-----------------9~-|--------------------------------------------|--|
Gb|----------10\-9--9~-|----------------------------------10---10~--|--|
Db|----------10\-9--9~-|----------------------------------10---10~--|--|
Ab|-----------8\-7--7~-|-----------------------------------8----8~--|--|
Eb|--0-0-0-0-----------|-0--0-0-0-0-0--0-0-0-0-0--0-0-0-0-----------|--|

                                                      LEAD 1: GUITAR 1

Eb|-------------------------------------------------|--------------------|
Bb|-------------------------------------------------|--------------------|
Gb|-------------------------------------------------|--------------------|
Db|-------------------------------------------------|------------14------|
Ab|-7-5---5-----------------7-5---5-----------------|-------13--------12-|
Eb|-----7---7-6-5-3-5-0-3-5-----7---7-6-5-3-5-0-3-5-|--12----------------|
                                                      *  Guitar 2 plays Section F throughout.

Eb|--------------------------------------14----|-15p12----15h17-12-15p12-|
Bb|-----------------------14--------13---------|-------15----------------|
Gb|--------14--------13--------12--------------|-------------------------|
Db|---13--------12-----------------------------|-------------------------|
Ab|--------------------------------------------|-------------------------|
Eb|--------------------------------------------|-------------------------|


Eb|-------------12h15-12-15h17-12-15p12----------------12h15-12-15h17-15-|
Bb|-15-17-12-15-------------------------15-17p12-15h17-------------------|
Gb|----------------------------------------------------------------------|
Db|----------------------------------------------------------------------|
Ab|----------------------------------------------------------------------|
Eb|----------------------------------------------------------------------|


Eb|-12-----------|-------------------------------------------------------|
Bb|----17p15-12--|-15h17-15-12-------------------------------15p12-------|
Gb|--------------|-------------16-15-15p14-12----12-14-15-16-------16-15-|
Db|--------------|----------------------------14-------------------------|
Ab|--------------|-------------------------------------------------------|
Eb|--------------|-------------------------------------------------------|


Eb|---------------------------------------------------------|-12-------|
Bb|---------------------------------------------------------|----15p12-|
Gb|-14-12-14-15-14-12----12---------------------------------|----------|
Db|-------------------14----14-13-12-13-14-13-12------------|----------|
Ab|----------------------------------------------14-13-12~--|----------|
Eb|---------------------------------------------------------|----------|


Eb|--------12--------------12--------------12--------------12-------------|
Bb|-----------15p12-----------15p12-----------15p12-----------15p12-------|
Gb|-14b16-----------14b16-----------14b16-----------14b16-----------14b16-|
Db|-----------------------------------------------------------------------|
Ab|-----------------------------------------------------------------------|
Eb|-----------------------------------------------------------------------|


Eb|--12--------------12---------------|-12-----------------------------|
Bb|-----15p12-----------15p12---------|----15p12--------12-------------|
Gb|-----------14b16-----------14b16---|----------14b16-----15p12-14p12-|
Db|-----------------------------------|--------------------------------|
Ab|-----------------------------------|--------------------------------|
Eb|-----------------------------------|--------------------------------|


Eb|----------------------------------------------------------------------|
Bb|-------------------12-------------------------------------------------|
Gb|----12h14-12-14-15----12-14-15p14-12----------------------------------|
Db|-14----------------------------------14p12----12-14-14-14p12----12----|
Ab|-------------------------------------------14----------------14----14-|
Eb|----------------------------------------------------------------------|


Eb|----------------|------------------24p22-19-19-19-19-24p22-19-19-19-|
Bb|----------------|---------------------------------------------------|
Gb|----------------|---------------------------------------------------|
Db|----------------|---------------------------------------------------|
Ab|-13-12-13-14-13-|-12------------------------------------------------|
Eb|----------------|----15-12\-----------------------------------------|
                           *  Tremolo pick all the way down slide to encompass all notes.

Eb|-19-24p22-19-19-19-19-24p22-19--------19-22-|-24p22-19--------19-22-|
Bb|-------------------------------22b24--------|----------22b24--------|
Gb|--------------------------------------------|-----------------------|
Db|--------------------------------------------|-----------------------|
Ab|--------------------------------------------|-----------------------|
Eb|--------------------------------------------|-----------------------|


Eb|-24p22-19--------19-22-24p22-19--------19-22-24p22-19--------19-19-24--|p
Bb|----------22b24-----------------22b24-----------------22b24------------|
Gb|-----------------------------------------------------------------------|
Db|-----------------------------------------------------------------------|
Ab|-----------------------------------------------------------------------|
Eb|-----------------------------------------------------------------------|


Eb|-22-19--------19-24p22-19-------|-19-24p22-19--------19-24p22-19-------|
Bb|-------22b24--------------22b24-|-------------22b24--------------22b24-|
Gb|--------------------------------|--------------------------------------|
Db|--------------------------------|--------------------------------------|
Ab|--------------------------------|--------------------------------------|
Eb|--------------------------------|--------------------------------------|


Eb|--19-24p22-19----19--24p22-19-----24p22-19-24p22-19-24p22-19-24p22-19-|
Bb|--------------22--------------19--------------------------------------|
Gb|----------------------------------------------------------------------|
Db|----------------------------------------------------------------------|
Ab|----------------------------------------------------------------------|
Eb|----------------------------------------------------------------------|


Eb-|-------------15p12----12-15p12-15p12-12-12-15p12-17p12----12-17p12-|
Bb-|-17b19-------------12----------------------------------15----------|
Gb-|-------------------------------------------------------------------|
Db-|-------------------------------------------------------------------|
Ab-|-------------------------------------------------------------------|
Eb-|-------------------------------------------------------------------|


Eb|-15p12-----------------------------------|----------------------------|
Bb|-------15p12----15p12-15p12-------15p12--|-15p12----12-15p12-17p12----|
Gb|-------------15-------------15-14--------|-------15----------------15-|
Db|-----------------------------------------|----------------------------|
Ab|-----------------------------------------|----------------------------|
Eb|-----------------------------------------|----------------------------|


Eb|-------------------------------12-12-15p12-15-17p15-12-18--------13--|h
Bb|-12-17p12-15p12----15p12-12-15----------------------------15/-17-----|
Gb|----------------15---------------------------------------------------|
Db|---------------------------------------------------------------------|
Ab|---------------------------------------------------------------------|
Eb|---------------------------------------------------------------------|


Eb|-15-17-18p17-|-15h17-15-------17-18-20-18-17-18--------r------------|
Bb|-------------|----------15--r-------------------20b22---17-20-17-18-|
Gb|-------------|------------------------------------------------------|
Db|-------------|------------------------------------------------------|
Ab|-------------|------------------------------------------------------|
Eb|-------------|------------------------------------------------------|


Eb|-20h22-20p18----18h22-22b24----22~-22--22--22--22-|-22---r-----24b26-|
Bb|-------------20-----------------------------------|------------------|
Gb|--------------------------------------------------|------------------|
Db|--------------------------------------------------|------------------|
Ab|--------------------------------------------------|------------------|
Eb|--------------------------------------------------|------------------|

                                            END: GUITAR 2

Eb|----24--24--24--24---r-----\----------*|-----------------------------|
Bb|--------------------------------------*|-----------------------------|
Gb|--------------------------------------*|-----------------------------|
Db|--------------------------------------*|-----------------------------|
Ab|--------------------------------------*|---7-5-7-5-7-5-7-5-7-5-7-5-7-|
Eb|--------------------------------------*|---0---0---0---0---0---0---0-|


Eb|-------------------------------------------|-------------------------|
Bb|-------------------------------------------|-------------------------|
Gb|-------------------------------------------|-------------------------|
Db|---------------------------------7p5-------|-------------------------|
Ab|-5---5---7-5-7-5-7-5-7-5---5-7p5-----7p5---|---7-5-7-5-7-5---5---7-5-|
Eb|---7-----0---0---0---0---7-----------------|---0---0---0---7-----0---|


Eb|----------------------------------*-|
Bb|----------------------------------*-|
Gb|-------------------------------9--*-|
Db|---------------5-------7---5---9--*-|
Ab|-7-5-7-5---5---3---5---5---3---7--*-|
Eb|-0---0---7---------3-----------0--*-|
                  "Yeah...!"

=========================================================================
2.Rattlehead
Title : Rattlehead
Artist : Megadeth
Album : Killing Is My Business...And Business Is Good!
Transcribed by : Skywalker  -  skywalker@infoguitar.com


Legend
------

 h  = hammer-on
 p  = pull-off
 b  = bend
 r  = bend release
 /  = slide up/down
<5> = natural harmonic
[5] = artifical harmonic
 ~  = vibrato
 tr = trill

    INTRO: BOTH GUITARS

Eb|---------------------------------------------------------------------|
Bb|---------------------------------------------------------------------|
Gb|---------------------------------------------------------------------|
Db|------0-7-7-0-5-5--0-8-8-0-7-7-0-5-5--0-0-7-7-0-5-5--0-8-8-0-7-7-0-0-|
Ab|---------------------------------------------------------------------|
Eb|---------------------------------------------------------------------|
    *  Detuned by 1/4 step from normal.


                                               SECTION A: BOTH GUITARS

Eb-|-----------------------------------------|-||----------------------|
Bb-|-----------------------------------------|-||*---------------------|
Gb-|-5---------------------(5)---------------|-||----------------------|
Db-|-5---------------------(5)---------------|-||---0-0-7-7-0-5-5--0-8-|
Ab-|-3---------------------(3)---------------|-||*---------------------|
Eb-|-----------------------------------------|-||----------------------|
              "Here I come..."

Eb|--------------------------------------------------|------------------|
Bb|--------------------------------------------------|------------------|
Gb|--------------------------------------------------|------------------|
Db|-8-0-7-7-0-5-5--0-0-7-7-0-5-5--0-8-8-0-7-7-0-5-0--|-5----------------|
Ab|--------------------------------------------------|-3-3-3-3--3-3-3-3-|
Eb|--------------------------------------------------|------------------|
                                                                "Stand up, and plant your feet..."

Eb|------------------------------------------------||------------------|
Bb|-----------------------------------------------*||------------------|
Gb|--------------------------------------5--5--5---||------------------|
Db|--------------------3-----------------5--5--5---||---0-0-7-7-0-5-5--|
Ab|--3-3-3-3--3-3-3-3--1-1-1-1--1-1-1-1--3--3--3--*||------------------|
Eb|------------------------------------------------||------------------|
                                               3x

Eb|------------------------------------------------------|--------------|
Bb|------------------------------------------------------|--------------|
Gb|------------------------------------------------------|--------------|
Db|-0-8-8-0-7-7-0-5-5--0-0-7-7-0-5-5--0-8-8-0-7-7-0-5-0--|-5------------|
Ab|------------------------------------------------------|-3-3-3-3--3-3-|
Eb|------------------------------------------------------|--------------|
                                                                    "Let it loose, I 
fuckin' care..."


                                                          LEAD 1 & 2 RHYTHM: GUITAR 1

Eb|----------------------------------------------------||-||-----------|
Bb|---------------------------------------------------*||-||*----------|
Gb|------------------------------------------2---------||-||-----------|
Db|------------------------3-----------------2--5--5---||-||-----------|
Ab|-3-3--3-3-3-3--3-3-3-3--1-1-1-1--1-1-1-1--0--5--5--*||-||*----------|
Eb|---------------------------------------------3--3---||-||---0-0-0-0-|


Eb|---------------------------------------------------------|-----------|
Bb|---------------------------------------------------------|-----------|
Gb|---------------------------------------------------------|-----------|
Db|------2---------------3---------------4---------------5--|-----------|
Ab|------2---------------3---------------4---------------5--|-----------|
Eb|-0-0--0--0-0-0-0-0-0--1--0-0-0-0-0-0--2--0-0-0-0-0-0--3--|-0-0-0-0-0-|

                                                              LEAD 1: GUITAR 2

Eb|--------------------------------------------------------||----------|
Bb|-------------------------------------------------------*||----------|
Gb|--------------------------------------------------------||-6--7--9--|
Db|----2---------------3---------------4---------------5---||----------|
Ab|----2---------------3---------------4---------------5--*||----------|
Eb|-0--0--0-0-0-0-0-0--1--0-0-0-0-0-0--2--0-0-0-0-0-0--3---||----------|


Eb|-----------------8--10--12--9b10---------r10-8-10-8-7------|-7------|
Bb|-7~---8--10--12---------------------------------------10-8-|---10-8-|
Gb|-----------------------------------------------------------|--------|
Db|-----------------------------------------------------------|--------|
Ab|-----------------------------------------------------------|--------|
Eb|-----------------------------------------------------------|--------|


Eb|--------------------------------------------------------------------|
Bb|-7-8-7b8---10-8-7-------7-------------------------------------------|
Gb|------------------9-7-9---9-7---------------------------------------|
Db|------------------------------10-9-7--------------------------------|
Ab|-------------------------------------10-9-7-------------------------|
Eb|--------------------------------------------10---(10)b12----r---\---|


Eb-|--------------12---15---15b17-----------------r-17b19--------|-r-18b20-|
Bb-|-10b12---r---------------------------------------------------|---------|
Gb-|-------------------------------------------------------------|---------|
Db-|-------------------------------------------------------------|---------|
Ab-|-------------------------------------------------------------|---------|
Eb-|-------------------------------------------------------------|---------|

                                                     SECTION B: BOTH GUITARS

Eb--------r-20b22------r-b4---------(24)----r------|-------------------|
Bb-------------------------------------------------|-------------------|
Gb-------------------------------------------------|-------------------|
Db-------------------------------------------------|---0-0-7-7-0-0-5-5-|
Ab-------------------------------------------------|-------------------|
Eb-------------------------------------------------|-------------------|


Eb-----------------------------------------------------|----------------|
Bb-----------------------------------------------------|----------------|
Gb-----------------------------------------------------|----------------|
Db--7-8-7-5-0-0------0-0-7-7-0-0-5-5--7-8-7-5-0-0------|--0-0-7-7-0-0-5-|
Ab--------------3-3-------------------------------3-3--|----------------|
Eb-----------------------------------------------------|----------------|


Eb------------------------------------------------------|--------------|
Bb------------------------------------------------------|--------------|
Gb------------------------------------------------------|--------------|
Db-5--7-8-7-5-0-0------0-0-7-7-0-0-5-5--7-8-7-5-0-0-----|--------------|
Ab----------------3-3-------------------------------3-3-|--------------|
Eb------------------------------------------------------|--------------|

                                                                  LEAD 2: GUITAR 2

Eb----------------------------------------------------------------------|
Bb----------------------------------------------------------------12-15-|
Gb----------------------------------------------------------------------|
Db----------------------------------------------------------------------|
Ab----------------------------------------------------------------------|
Eb----------------------------------------------------------------------|


Eb|-12-13----------13-12-13-------13-12-13-------13-12-13-------13-12-13-|
Bb|-------15-12-------------15-12----------15-12----------15-12----------|
Gb|----------------------------------------------------------------------|
Db|-------------14-------------------------------------------------------|
Ab|----------------------------------------------------------------------|
Eb|----------------------------------------------------------------------|


Eb|-------13-12-13-------13-12--18-15--|-------------------------------|
Bb|-15-12----------15-12---------------|-17-18-17-18-15----14----14----|
Gb|------------------------------------|----------------16----15----15-|
Db|------------------------------------|-------------------------------|
Ab|------------------------------------|-------------------------------|
Eb|------------------------------------|-------------------------------|


Eb|-----------------------------------------------------10-11-12-11-10-|
Bb|----9----9----------------10-11-12-11-10----12-11-12----------------|
Gb|------10---10----12-10-12----------------12-------------------------|
Db|-17-----------12----------------------------------------------------|
Ab|--------------------------------------------------------------------|
Eb|--------------------------------------------------------------------|


Eb|------|-10-11-12-14b16-------r-12-10-12-11b13---r---14b15--14--13b14-|
Bb|-12---|--------------------------------------------------------------|
Gb|------|--------------------------------------------------------------|
Db|------|--------------------------------------------------------------|
Ab|------|--------------------------------------------------------------|
Eb|------|--------------------------------------------------------------|


Eb---15-14-15-14----14-15-17-15-14----|-14-15-17-15-14----15-17-19-17-15-|
Bb---------------15----------------15-|----------------17----------------|
Gb------------------------------------|----------------------------------|
Db------------------------------------|----------------------------------|
Ab------------------------------------|----------------------------------|
Eb------------------------------------|----------------------------------|

                      *  Harmony

Eb----15-17/-20-19~---19-17-19b20----20-22b24------------|-------------|
Bb-17-----------------------------17-19-20b22-------r----|-------------|
Gb--------------------16-17-19---------------------------|-------------|
Db-------------------------------------------------------|-------------|
Ab-------------------------------------------------------|-------10h12-|
Eb-------------------------------------------------------|-10h13-------|
                                                           "Rattlehead..."

Eb----------------------------------------------------------------------|
Bb-------------------------------------------------------9-10-9-------9-|
Gb-------------------------------------10----------10h12--------12-10---|
Db-------------10----------10h12-10h12----12-10h12----------------------|
Ab-------10h12----12-10h12----------------------------------------------|
Eb-10h13----------------------------------------------------------------|


Eb-------8-10-8b10--r-10-10b11--r|--13-12b13--r--13-12-13-17-15-13----15-|
Bb-10-12-------------------------|---------------------------------17----|
Gb-------------------------------|---------------------------------------|
Db-------------------------------|---------------------------------------|
Ab-------------------------------|---------------------------------------|
Eb-------------------------------|---------------------------------------|

                                              SECTION C: BOTH GUITARS

Eb-13-----------17/-20---20b22------------r-|-||------------------------|
Bb----17-15-13------------------------------|-||*-----------------------|
Gb------------------------------------------|-||------------5---------7-|
Db------------------------------------------|-||----5--7----3----7----5-|
Ab------------------------------------------|-||*---3--5---------5------|
Eb------------------------------------------|-||------------------------|
                                                            "You..."  "Your..."

Eb|---------------------------|----------------------------------------|
Bb|---------------------------|----------------------------------------|
Gb|---------5-----------------|-----------5---------7---------5--------|
Db|----7----3----7----x--x--x-|-5--6-7----3----7----5----7----3----7---|
Ab|----5---------5----x--x--x-|-3--4-5---------5---------5---------5---|
Eb|-------------------x--x--x-|----------------------------------------|
            "Head..."                     "Is pounding with pain..."

Eb-----------||--------------------------------------------------------|
Bb----------*||--------------------------------------------------------|
Gb-7/-8\-7---||-------------5------------7-5---------5-----------------|
Db-5/-6\-5---||---5--6-7----3-----7------5-3---7-----3----7----x--x--x-|
Ab----------*||---3--4-5--------x-5--x-x-------5---x------5----x--x--x-|
Eb-----------||-----------------x----x-x-----------x-----------x--x--x-|
                            "Winning..." "sinning..." "beginning..."

Eb-|------------------------------------------------------|------------|
Bb-|------------------------------------------------------|------------|
Gb-|-----------5------------7-5---------5--------7/-8\-7--|------------|
Db-|-5--6-7----3-----7------5-3---7-----3----7---5/-6\-5--|---5--6-7---|
Ab-|-3--4-5--------x-5--x-x-------5---x------5------------|---3--4-5---|
Eb-|---------------x----x-x-----------x-------------------|------------|
               "Feeding..." "the needing..." "for bleeding..."

Eb|---------------------------------------------|-----------------------|
Bb|---------------------------------------------|-----------------------|
Gb|--5------------7-5---------5-----------------|-----------5---------7-|
Db|--3-----7------5-3---7-----3----7----x--x--x-|-5--6-7----3-----7-5-5-|
Ab|------x-5--x-x-------5---x------5----x--x--x-|-3--4-5--------x-5-----|
Eb|------x----x-x-----------x-----------x--x--x-|---------------x-------|
     "Bashing..." "smashing..." "crashing..."               "Frying..."


                                     LEAD 3: GUITAR 2

Eb|--------------------------------|------------------------------------|
Bb|--------------------------------|------------------------------------|
Gb|-7-7-5--------8-----------------|-7h10-7-10-7-10-7-10-7-10-7-10-7-10-|
Db|-5-5-3---7----6----7------(7)---|------------------------------------|
Ab|---------5---------5------(5)---|------------------------------------|
Eb|--------------------------------|------------------------------------|
      "Annihilating you..."

Eb|------------------------------------------|----------r----------14-13-|
Bb|---------------r--------------------------|-13b15------15-13-15-------|
Gb|-7-10--10--------7----7-------------------|---------------------------|
Db|-------------------10---10-7--------------|---------------------------|
Ab|-----------------------------10-8-8-------|---------------------------|
Eb|------------------------------------------|---------------------------|


Eb|-------13-----------------------------------------------------------|
Bb|-15-14----15-14-13--14-15-14-13-------12----------------------------|
Gb|--------------------------------14-13----14-13-12-13-14-13-12-------|
Db|--------------------------------------------------------------15-12-|
Ab|--------------------------------------------------------------------|
Eb|--------------------------------------------------------------------|


Eb|----------|-------------------------------r-13-12-13-17-15-13----15-|
Bb|----------|----------12-13-14-15b17---------------------------17----|
Gb|----------|-11-12-14------------------------------------------------|
Db|----12-15-|---------------------------------------------------------|
Ab|-15-------|---------------------------------------------------------|
Eb|----------|---------------------------------------------------------|


Eb-13-----------17/-20---20b22------|--r-b2---r-b2---------r-----------|
Bb----17-15-13----------------------|----------------------------------|
Gb----------------------------------|----------------------------------|
Db----------------------------------|----------------------------------|
Ab----------------------------------|----------------------------------|
Eb----------------------------------|----------------------------------|

               LEAD 3 RHYTHM: GUITAR 1

Eb-----------|-||------------------------------------------------------|
Bb-----------|-||*-----------------------------------------------------|
Gb-----------|-||---2---2-----2----------------2---2-----2-------2-----|
Db-----------|-||---0---0-----0---3-2-3-2-0----3---3-----3---3-5---5-3-|
Ab-----------|-||*--------------------------3--------------------------|
Eb-----------|-||------------------------------------------------------|

                                                                SECTION D: BOTH GUITARS

Eb|----|-----------------------------------------------------||-||-----|
Bb|----|----------------------------------------------------*||-||*----|
Gb|----|-2---2-----2----------------2---2-----4--5-----------||-||---2-|
Db|-2--|-0---0-----0---3-2-3-2-0----3---3-----2--3---5---5---||-||---0-|
Ab|----|-------------------------3-------------------3---4--*||-||*----|
Eb|----|-----------------------------------------------------||-||-----|


Eb|-----------------------------------------------------|--------------|
Bb|-----------------------------------------------------|--------------|
Gb|---2----2----4-5-4-3-2-0--2---2----2----5-3-5-3-2-0--|--------------|
Db|---0----0-----------------0---0----0-----------------|-5---5----5---|
Ab|-----------------------------------------------------|-3---3----3---|
Eb|-----------------------------------------------------|--------------|
           "There's someone back in the shadows..."                   "You feel though 
can't see his eyes..."


                                                  SECTION E: BOTH GUITARS

Eb|--------------------------------------------||-||--------------------|
Bb|-------------------------------------------*||-||*-------------------|
Gb|--2-3-2-3-2-0--2---2----2---5-3-2-0-2-3-5---||-||--------------------|
Db|---------------0---0----0-------------------||-||---7---------5----7-|
Ab|-------------------------------------------*||-||*--5----6----3----5-|
Eb|--------------------------------------------||-||--------4-----------|
                                           4x

Eb----------------------------------------|-----------------------------|
Bb----------------------------------------|-----------------------------|
Gb----------------------------------------|-----------------------------|
Db----------------------------------------|-7---------5----7------------|
Ab----------------------------------------|-5----6----3----5------------|
Eb----4-4-4-4--4-4-4-4--4-4-4-4--4-4-4-4--|------4--------------4-4-4-4-|
                                                                "Rattlehead..."


                                   SECTION F: BOTH GUITARS

Eb------------------------------||-------------------------------------|
Bb-----------------------------*||---------------------1p0-------------|
Gb------------------------------||---2---2-----2---5p0-----2p0--2---2--|
Db------------------------------||---0---0-----0----------------0---0--|
Ab-----------------------------*||-------------------------------------|
Eb--4-4-4-4--4-4-4-4--4-4-4-4---||-------------------------------------|


Eb|---------------------|-----------------------------------------------|
Bb|--------1h3----------|-------------------1p0-------------------------|
Gb|----2-------2p0-2p0--|-2---2-----2---5p0-----2p0--2---2-----2--5-----|
Db|----0----------------|-0---0-----0----------------0---0-----0--5---5-|
Ab|---------------------|---------------------------------------------5-|
Eb|---------------------|-----------------------------------------------|

           LEAD 4: GUITAR 1

Eb|------|-------------------------------------------------------------|
Bb|------|-------------------------------------------------------------|
Gb|---7--|-------------7p0-----------------------------7p0-------------|
Db|---7--|---------7p0-----7p0-----7p0-------------7p0-----7p0-----7p0-|
Ab|------|-5p0-5p0-------------5p0-----5p0-5p0-5p0-------------5p0-----|
Eb|------|-------------------------------------------------------------|


Eb|-----------------|--------------------------------------------------|
Bb|-----------------|--------------------------------------------------|
Gb|-----7-7-7-7-7-7-|-7-7--7-7-7-7-7-7-7-7--7-7-7-6-6-6-5-5--3-3-3-5-5-|
Db|-----------------|--------------------------------------------------|
Ab|-5p0-------------|--------------------------------------------------|
Eb|-----------------|--------------------------------------------------|


Eb|-------------------|--------------------------------------------------|
Bb|----------15--15~--|-------------15--15~---------15-15-15-15-15-15-15-|
Gb|-5-6-6-7--14--13~--|---5--5-6-7--14--13~---5--x-----------------------|
Db|-------------------|--------------------------------------------------|
Ab|-------------------|--------------------------------------------------|
Eb|-------------------|--------------------------------------------------|


Eb|----------------15p14-13--------------|-----------------------------|
Bb|-15-13h14-13h14----------15--13-12-11-|-10--------------------------|
Gb|--------------------------------------|----12-11-10-9---------------|
Db|--------------------------------------|---------------12-11-10-9----|
Ab|--------------------------------------|--------------------------12-|
Eb|--------------------------------------|-----------------------------|


Eb|----------20b22----20~20-20-20---r--19-18-20--19-18-17----17--|-----|
Bb|-------------------------------------------------------20-----|-18--|
Gb|--------------------------------------------------------------|-----|
Db|--------------------------------------------------------------|-----|
Ab|-11-10-9------------------------------------------------------|-----|
Eb|--------------------------------------------------------------|-----|


Eb|--------------------r-------------------------------------------------|
Bb|-20--18--17h18----------17-17~--17--15------15--17--17-15----15-------|
Gb|----------------------------------------17----------------17----16-17-|
Db|----------------------------------------------------------------------|
Ab|----------------------------------------------------------------------|
Eb|----------------------------------------------------------------------|


Eb|----------|---------r-20-20-18-17-20p18-17--17p15----15---------------|
Bb|-15-16b17-|---(16)--------------------------------18----18-17--15-15--|p
Gb|----------|-----------------------------------------------------------|
Db|----------|-----------------------------------------------------------|
Ab|----------|-----------------------------------------------------------|
Eb|----------|-----------------------------------------------------------|


Eb|----------------------------------------|---------------------------|
Bb|-13-----13-13p11------------------------|---------------------------|
Gb|----15-----------14--14-14p12-----12-12-|---------------------------|
Db|------------------------------15--------|-15-14--15-15p14-12--12-12-|
Ab|----------------------------------------|---------------------------|
Eb|----------------------------------------|---------------------------|


Eb|--------------------------------------------------------------------|
Bb|--------------------------------------------------------------------|
Gb|--------------------------------------------------10h12-14-15-16-17-|
Db|-----------------------------------------10h12-14-------------------|
Ab|-15p12--13-12-------------------10h12-13----------------------------|
Eb|--------------15-13-12-10h12-13-------------------------------------|


Eb|----------17h20-||----20b22--20b22---18h20-18-17--------------------|
Bb|-15-16-17-------||*------------------------------20p18-17-17--------|
Gb|----------------||--------------------------------------------------|
Db|----------------||--------------------------------------------------|
Ab|----------------||*-------------------------------------------11-12-|
Eb|----------------||--------------------------------------------------|

                                                          LEAD 4 RHYTHM: GUITAR 2

Eb|-------------------------------------20--17h20-17---||-||-----------|
Bb|----------------------------15h17-18---------------*||-||*----------|
Gb|-------------------14-15-17-------------------------||-||---2---2---|
Db|-------13-14-16h17----------------------------------||-||---0---0---|
Ab|-14h15---------------------------------------------*||-||*----------|
Eb|----------------------------------------------------||-||-----------|
                                                  4x

Eb|-----------------------------------------------|---------------------|
Bb|-----------------------------------------------|---------------------|
Gb|---2---5-3-5-3-2-0--2---2-----2---5-3-5-3-2-0--|---------------3-2-3-|
Db|---0----------------0---0-----0----------------|-5---5-----5---------|
Ab|-----------------------------------------------|-3---3-----3---------|
Eb|-----------------------------------------------|---------------------|


Eb|--------------------------------------||-||-------------------------|
Bb|-------------------------------------*||-||*------------------------|
Gb|-2-0-0--2---2----2--5-3-2-0-2-3-2-0---||-||---2---2-----2---5-4-5-4-|
Db|--------0---0----0--------------------||-||---0---0-----0-----------|
Ab|-------------------------------------*||-||*------------------------|
Eb|--------------------------------------||-||-------------------------|


Eb|---------------------------------|----------------------------------|
Bb|---------------------------------|----------------------------------|
Gb|-2-0--2---2-----2---5-4-5-4-2-0--|---------------4-2-4-2-0-0--2---2-|
Db|------0---0-----0----------------|-5---5-----5----------------0---0-|
Ab|---------------------------------|-3---3-----3----------------------|
Eb|---------------------------------|----------------------------------|


Eb|-------------------------||-||--------------------------------------|
Bb|------------------------*||-||*-------------------------------------|
Gb|----2--5-4-2-0-2-3-2-0---||-||--------------------------------------|
Db|----0--------------------||-||---7---------5----7-------------------|
Ab|------------------------*||-||*--5----6----3----5-------------------|
Eb|-------------------------||-||--------4--------------4-4-4-4--4-4-4-|


Eb----------------------|-----------------------------------------------|
Bb----------------------|-----------------------------------------------|
Gb----------------------|-----------------------------------------------|
Db----------------------|-7---------5----7------------------------------|
Ab----------------------|-5----6----3----5------------------------------|
Eb-4--4-4-4-4--4-4-4-4--|------4--------------4-4-4-4--4-4-4-4--4-4-4-4-|
                                              "I'm a rattlehead..."


                 SECTION G: BOTH GUITARS

Eb------------||--------------------------------------------------------|
Bb-----------*||--------------------------------------------------------|
Gb------------||--------------------------------------------------------|
Db------------||---0-0-7-7-0-5-5--0-8-8-0-7-7-0-5-5--0-0-7-7-0-5-5--0-8-|
Ab-----------*||--------------------------------------------------------|
Eb--4-4-4-4---||--------------------------------------------------------|


Eb----------------|-----------------------------------------------------|
Bb----------------|-----------------------------------------------------|
Gb----------------|-----------------------------------------------------|
Db-8-0-7-7-0-5-5--|--0-0-7-7-0-5-5--0-8-8-0-7-7-0-5-5--0-0-7-7-0-5-5--0-|
Ab----------------|-----------------------------------------------------|
Eb----------------|-----------------------------------------------------|


Eb-----------------|---------------------------------------------------|
Bb-----------------|---------------------------------------------------|
Gb-----------------|---------------------------------------------------|
Db-8-8-0-7-7-0-5-5-|---0-0-7-7-0-5-5--0-8-8-0-7-7-0-5-5--0-0-7-7-0-5-5-|
Ab-----------------|---------------------------------------------------|
Eb-----------------|---------------------------------------------------|


Eb---------------------|-----------------------------------------------|
Bb---------------------|-----------------------------------------------|
Gb---------------------|------------------------------------7-----7----|
Db--0-8-8-0-7-7-0-5-5--|--0-0-7-7-0-5-5--0-8-0-------3------7-----7----|
Ab---------------------|-----------------------3-4-5---5-3--5-----5----|

Eb---------------------|-----------------------------------------------

               END: BOTH GUITARS

Eb-----------|---------------------------------------------------------|
Bb-----------|---------------------------------------------------------|
Gb--7-----7--|---------------------------------------------------------|
Db--7-----7--|---7------------7------------7------------7------------7-|
Ab--5-----5--|---5-5-5-5-5-5--5-5-5-5-5-5--5-5-5-5-5-5--5-5-5-5-5-5--5-|
Eb-----------|---------------------------------------------------------|


Eb|-------------|------------------------------------------------------|
Bb|-------------|------------------------------------------------------|
Gb|-------------|----------------------------------------7----------7--|
Db|-------------|-7------------7------------7------------7----------7--|
Ab|-5-5-5-5-5---|-5-5-5-5-5-5--5-5-5-5-5-5--5-5-5-5-5-5--5----------5--|
Eb|-------------|------------------------------------------------------|
                                                            "Rattle your goddamn head..."

Eb-----*-|
Bb-----*-|
Gb-7\--*|-
Db-7\--*|-
Ab-5\--*|-
Eb-----*|-

===========================================================================================
3.Peace Sells
Tabbed by: Screechy

Tuning: Standard

Intro
e|------------|
B|------------|
G|------------|
D|-----9\-----|
A|-----7\--2--|
E|-0-0-----0--|
   * *

e|-----------------------------------------|
B|-----------------------------------------|
G|-----------------------------------------|
D|-7---------------------------------------|
A|-5----------------------------------8-7--|
E|--------0-0-0-0-0-0-0-0-0-0-0-0-0-0-6-5--|
          * * * * * * * * * * * * * *

Intro solo:
e|-[16]b17r16-[16]b17r16-[16]b17r16--|
B|-----------------------------------|
G|-----------------------------------|
D|-----------------------------------|
A|-----------------------------------|
E|-----------------------------------|

e|-12h15p12--12--10h13p10--10--9h11p9--9--7h9p7---7-|
B|---------15------------13----------12--------10---|
G|--------------------------------------------------|
D|--------------------------------------------------|
A|--------------------------------------------------|
E|--------------------------------------------------|

e|-5h7p5---5--3h5p3---3--2h4p2---2--1h3p1---1--0----|
B|-------8----------6----------5----------4---------|
G|--------------------------------------------------|
D|--------------------------------------------------|
A|--------------------------------------------------|
E|--------------------------------------------------|


Riff 1
e|-------------------------------------|
B|-------------------------------------|
G|-------------------------------------|
D|-------------------------------------|
A|----------------6-----------------5--|
E|-0-0-0-0-0-0-0--4--0-0-0-0-0-0-0--3--|
   * * * * * * *     * * * * * * *
  "What do ya mean I don't believe in God ?...."
e|-------------------------------------|
B|-------------------------------------|
G|-------------------------------------|
D|-------------------------------------|
A|----------------6---------------8--7-|
E|-0-0-0-0-0-0-0--4--0-0-0-0-0-0--6--5-|
   * * * * * * *     * * * * * *
  "Talk to him everyday..."


Riff 2
e|----------------------------------------|
B|----------------------------------------|
G|----------7--------------------7--------|
D|-9-9-7-9--5--7-9-9----9-9-7-9--5--------|
A|-7-7-5-7-----5-7-7----7-7-5-7-----4-5-5-|
E|----------------------------------2-3-3-|
             "If there's a new way..."
e|-----------------------------|
B|-----------------------------|
G|-----------------------------|
D|----------7--------------5---|
A|-5-5-4-5--5--4-5---5-4-3-3---|
E|-3-3-2-3-----2-3---3-2-1-----|
                     * * *
              "But it better work this time..."


Play Riff 1 with this solo:
e|-------------------------------------------------------------|
B|---------------------------12h13-12p11p10p9--------9h12p10---|
G|-14~~-13p12h13p12--12h13h14----------------10-9h10--------10-|
D|-----------------14------------------------------------------|
A|-------------------------------------------------------------|
E|-------------------------------------------------------------|

e|---------------------------------------------12---------------|
B|---10p9------9-------------------------15~~----15-12----------|
G|-9------10p9---10p9---------------------------------14-12b13\-|
D|--------------------10p9p7---7p6------------------------------|
A|---------------------------8-----8p7--------------------------|
E|--------------------------------------------------------------|

End solo

Play Riff 1   "What do ya mean I hurt your feelings ?"
Here are the solos:

#1
e|-----------------------------|
B|-----------------------------|
G|-----------------------------|
D|-[wah]-----------------------|
A|--5p3-6p3--0---*tremolo dive-|
E|----------(5)r3--------------|
  "...didn't know ya had any feelings..."

#2
e|-------18--------18~~--|
B|-17b18-----17b18-------|
G|-----------------------|
D|-----------------------|
A|-----------------------|
E|-----------------------|
  "...just not your kind..."

#3
e|------------------------------|
B|-14h15---------12-13b15~~~~~\-|
G|--a--------12~----------------|
D|-------14~--------------------|
A|------------------------------|
E|------------------------------|
  "...of the United States of America ?"

#4
e|-----------------------------------------------|
B|-15--------------------------------------------|
G|-14b15--14p12---15-14p12-----------------------|
D|-------------14---------14-12------------------|
A|------------------------------14-12-10-12-10~~-|
E|-----------------------------------------------|
  "...we, the people, right ?"

End solos


Play Riff 2   "If there's a new way..."


Riff 3
e|-----------------------------------------|
B|-----------------------------------------|
G|-----------------------------------------|
D|-----5p4h5-----4p2h4------2p0h2----------|
A|-----------------------------------5p4h5-|
E|-0-0-------0-0-------0-0-------0-0-------|
   * *       * *       * *       * *
e|-------------------------------------------|
B|-------------------------------------------|
G|-------------------------------------------|
D|-------------------------------------------|
A|-----4p2h4-----2p0h2-----------------------|
E|-0-0-------0-0-------0-0--5p3h5-0-0--3p2h3-|
   * *       * *       * *        * *


Riff 3a
Guitar 1
e|-----------------------------------------|
B|-----------------------------------------|
G|-----------------------------------------|
D|-----5p4h5-----4p2h4-----2p0h2-----------|
A|-----------------------------------5p4h5-|
E|-0-0-------0-0-------0-0-------0-0-------|
   * *       * *       * *       * *
e|-----------------------------------------|
B|-----------------------------------------|
G|-----------------------------------------|
D|-----------------------------------------|
A|-----4p2h4-----2p0h2----------------/6-5-|
E|-0-0-------0-0-------0-0--5p3h5-0-0-/4-3-|
   * *       * *       * *        * *

Guitar 2
e|-----------------------------------------|
B|-----------------------------------------|
G|-----4p2h4-----2p0h2---------------------|
D|-------------------------5p4h5-----4p2h4-|
A|-----------------------------------------|
E|-0-0-------0-0-------0-0-------0-0-------|
   * *       * *       * *       * *
e|-----------------------------------------|
B|-----------------------------------------|
G|-----------------------------------------|
D|-----2p0h2-------------------------------|
A|---------------5p4h5-----4p2h4------/6-5-|
E|-0-0-------0-0-------0-0--------0-0-/4-3-|
   * *       * *       * *        * *


Riff 4  (Solo Rhythm)
e|-----------------------------------------------------|
B|-----------------------------------------------------|
G|-----------------------------------------------------|
D|---------------------------------|         ----------|
A|-4-------------5-------4-----5-4-|                ---|
E|-2-2-2-2-2-2-2-3-3-3-3-2-2-2-3-2-|                ---|
     * * * * * *   * * *   * *                       |
Guitar 1                                             |
e|----------------------------------------|          |
B|----------------------------------------|          |
G|----------------------------------------|          |
D|-----5p4h5-----4p2h4-----2p0h2----------|          |--- Play 3x
A|-----------------------------------/6-5-|          |
E|-0-0-------0-0-------0-0-------0-0-/4-3-|          |
   * *       * *       * *       * *                 |
Guitar 2                                             |
e|----------------------------------------|         ---|
B|----------------------------------------|         ---|
G|-----4p2h4-----2p0h2--------------------|         ---|
D|-------------------------5p4h5----------|   ---------|
A|-----------------------------------/6-5--------------|
E|-0-0-------0-0-------0-0-------0-0-/4-3--------------|
   * *       * *       * *       * *

Final time
e|----------------------------------------------|
B|----------------------------------------------|
G|----------------------------------------------|
D|-----------------------------7-8-9------------|
A|-4-------------5-------4-----5-6-7-[let ring]-|
E|-2-2-2-2-2-2-2-3-3-3-3-2-2-2------------------|
     * * * * * *   * * *   * *

Solos:

#1
e|----10-------------------------------------------|
B|-12----12-12-10-----------8-10-12-8--------------|
G|----------------12---10-------------9--7---------|
D|-------------------9----9----------------9-7-5b6-|
A|-------------------------------------------------|
E|-------------------------------------------------|

#2
e|----------------------------------------------|
B|----------------------------------------------|
G|-------------------------------5\4p2h4p2------|
D|------------------2---4p2----------------4-2~-|
A|------2h4-2h4-2h4---4-----4-2-----------------|
E|-2--2-----------------------------------------|

#3
e|-14-15-19-14-15-19--15-15-16-16-15b16-16b17-|
B|--------------------------------------------|
G|--------------------------------------------|
D|--------------------------------------------|
A|--------------------------------------------|
E|--------------------------------------------|

e|-17-17b19~~-----15------------------------------------|
B|-------------17---14-15b17~~--15b17~~---15------------|
G|-------------------------------------------16-14-12~~-|
D|------------------------------------------------------|
A|------------------------------------------------------|
E|------------------------------------------------------|

#4
e|-------------19----------------19----------|
B|-19h22p19h22----22p19h22p19-22----22p19h22-|
G|-------------------------------------------|
D|-------------------------------------------|
A|-------------------------------------------|
E|-------------------------------------------|

e|-------19----------------19----------------------------------|
B|-19h22----22p19h22-19h22----22p19h22p19----------------------|
G|----------------------------------------21-19h21-18h19-16~~~-|
D|-------------------------------------------------------------|
A|-------------------------------------------------------------|
E|-------------------------------------------------------------|

End solos

"Can you put a price on peace ? "

Riff 5
Guitar 1           x12
e|-------------------|
B|-------------------|
G|-------------------|
D|--------5----------|
A|-7--5-7---0-7-5-00-|
E|-------------------|
            *     **

Guitar 2 (comes in after awhile)
e|-------------------------------|
B|-------------------------------|
G|-------------------------------|
D|--9-------12------11-----------|
A|--7----xx-10---xx--9---xx-9----|
E|--0----xx-10---xx--9---xx-7----|

e|---------------------------------|
B|---------------------------------|
G|---------------------------------|
D|----9-------12------11-----------|
A|-xx-7----xx-10---xx--9---xx-9----|
E|-xx-0----xx-10---xx--9---xx-7----|


Riff 6
e|-----------------------|
B|-----------------------|
G|-----------------------|
D|---------5-------7/8---|
A|-7~--5-7---0-7-5-------|
E|-----------------------|
             *
    "Peace....peace sells..."

Riff 7
Guitar 1
e|-----------------------|
B|-----------------------|
G|-----------------------|
D|---------5-------7/8---|
A|-7~--5-7---0-7-5-------|
E|-----------------------|
             *
  "Peace sells, but who's buying ?"

Guitar 2
e|-----------------------|
B|-----------------------|
G|---------7-------9/10--|
D|-9~--7-9---0-9-7-------|
A|-----------------------|
E|-----------------------|
             *

Play Riff 6   Solo Rhythm

Solo
e|-----------------------12-------------12----------------|
B|-8b9-10b11-12b13-15b16----15-12----12----15-12----------|
G|--------------------------------15-------------15-14-12-|
D|--------------------------------------------------------|
A|--------------------------------------------------------|
E|--------------------------------------------------------|

E|-15b16-15b16-15b16-15b16~-12--12h13p12--------12h13p12---------|
B|----------------------------15--------15-12-15--------15-12-15-|
G|---------------------------------------------------------------|
D|---------------------------------------------------------------|
A|---------------------------------------------------------------|
E|---------------------------------------------------------------|

E|-12h13p12----------------------------12-15b16-17b18-20b21-22b23~-|
B|----------15-13-12----------12-13-15-----------------------------|
G|-------------------14-12-14--------------------------------------|
D|-----------------------------------------------------------------|
A|-----------------------------------------------------------------|
E|-----------------------------------------------------------------|

E|-22-19-22-19----------------------------|
B|-------------22-20b21-20b21-20b21-20~~\-|
G|----------------------------------------|
D|----------------------------------------|
A|----------------------------------------|
E|----------------------------------------|

End Solo

Play Riff 7   "Peace sells, but who's buying?"
Play Riff 6   "Peace sells, but who's buying?"


Riff 8
e|---------------------------------------------|
B|---------------------------------------------|
G|---------------------------------------------|
D|----------------------12-12-12-12-1111-12-11-|
A|-6-5--4-3---3-4-3---3-10-10-10-10--9-9-10--9-|
E|-4-3--2-1-0-1-2-1-0-1------------------------|
   * *  * * * * * * * *
     "No....no no no no..."
e|------------------------------------|
B|------------------------------------|
G|------------------------------------|
D|---------5-------7/8----------5-----|
A|-7~--5-7---0-7-5------7~--5-7---0-7-|
E|------------------------------------|
             *                    *
Final time
e|------------------------------------------------|
B|------------------------------------------------|
G|------------------------------------------------|
D|----------------------12-12-12-12-1111-12-11-9\-|
A|-6-5--4-3---3-4-3---3-10-10-10-10--9-9-10--9-7\-|
E|-4-3--2-1-0-1-2-1-0-1---------------------------|
   * *  * * * * * * * *
      "Peace sells.....                  ....ahhh"


Ending solo
e|---------------------------------------------------------------|
B|------------------------------------------------------12-14-15-|
G|---------------------------------------------11-12-14----------|
D|-------------------9-11-12-11-12----11-12-14-------------------|
A|-7h9h10p7-7h9h10p7---------------14----------------------------|
E|---------------------------------------------------------------|

e|------------------------------------12h15-17p15h17---------|
B|-12b15r12-10--10----12-----9--12h14------------------------|
G|------------12----------------------------------------16---|
D|-----------------------------------------------------------|
A|-----------------------------------------------------------|
E|-----------------------------------------------------------|

e|----------------------------------------------------------------|
B|-15-17b18---17--17p15-17p15----17p15-----17p15----17p15-17p15---|
G|---------------------------16--------16-------16-------------16-|
D|----------------------------------------------------------------|
A|----------------------------------------------------------------|
E|----------------------------------------------------------------|

e|---------------------------------------------------------19--22--22b23~~-|
B|-15h17-20p17-20p17--17h20p17-17-20b21-20b21-20b21-20b21-20---------------|
G|------------------19-----------------------------------------------------|
D|-------------------------------------------------------------------------|
A|-------------------------------------------------------------------------|
E|-------------------------------------------------------------------------|

End solo


Notation:

10b12      = pick the 10th fret, then bend to the 12th fret.
10b12r10   = pick the 10th fret, then bend to the 12th fret,
             then release to the 10th fret.
[10]12r10  = bend to the 12th fret from the 10th fret, pick,
             then release to the 10th fret.
10b12 [14] = pick the 14th fret while holding the previous bend.

10b15*     = tremolo bar bend, from the 10th fret to the 15th fret.
7d2*       = tremolo bar dive, from the 7th fret to the 2nd fret.
12~*       = tremolo bar vibrato.

x   =  mute with fret-hand
*   =  palm mute
X\\ =  pick slide
h   =  hammer-on
p   =  pull-off
~   =  vibrato
t   =  finger tap
/   =  slide up
\   =  slide down
h   =  natural harmonics
a   =  artificial harmonics
(9) =  ghost note
tm  =  trem picking
tr  =  trill

============================================================================
4.Wake Up Dead
Wake Up Dead
                                  Megadeth
               (From The 1986 Peace Sells...But Who's Buying?)


Transcribed by Jonathan Casper (confinedforever)

Gtr 1 - Tuning Standard - (E A D G B E)


Im pretty sure this is more or less correct, enjoy!

Riff 1
e|---------------------------------------------|
B|---------------------------------------------|
G|---------------------------------------------|
D|---------2----------------5----------------7-|
A|----4----0-----------4----3-----------4----5-|
E|-02-2-02----------02-2-02----------02-2-02---|
   **   **          **   **          **   **
    "I sneak in my..."
e|-------------------------|
B|-------------------------|
G|-------------------------|
D|---------9\--------------|
A|----4----7\------4----3--|
E|-02-2-02------02-2-02-1--|
   **   **      **   **
    "...say I've been out..."


Solo (Mustaine)
e|----------------------------------2----------------|
B|-----------------------------------5p2-------------|
G|-4b6r4-4b6----(6)r4d*----4b6--4b6-----4h5p4p2-4p2--|
D|-a-----a-----------------------------------------4-|
A|---------------------------------------------------|
E|---------------------------------------------------|

e|---------------------7p5-9p7p5----------------------|
B|------------------------------8p7p5---8p7p5---------|
G|-2---------------------------------7p5-----7p5------|
D|--4p2--2-4p2----2-4~--------------------------7p6p4-|
A|-----4------2h4-------------------------------------|
E|----------------------------------------------------|

e|------------------------|
B|------------------------|
G|------------------------|
D|-6~----6--6/7~---9---\4-|
A|------------------------|
E|------------------------|

e|-----------------------------------------|
B|-----------------------------------------|
G|-4b6-[slow release and dive ]--(16)-16~~-|
D|-a---[with tremolo bar, then]------------|
A|-----[raise and slide to the]------------|
E|-----[      next note       ]------------|

e|---------------------------------------14h7p14-17-19b20--19b21~-|
B|-14h17p14-14-14-17p14-19p14-14-14-17p14-------------------------|
G|----------------------------------------------------------------|
D|----------------------------------------------------------------|
A|----------------------------------------------------------------|
E|----------------------------------------------------------------|

e|-19p17p14-14-14-19p17p14-14-14-|
B|-------------------------------|
G|-------------------------------|
D|-------------------------------|
A|-------------------------------|
E|-------------------------------|

e|-19p17p14--14-19p17p14--14-19p17p14--14-19p17p14--14-|
B|---------17-----------17-----------17-----------17---|
G|-----------------------------------------------------|
D|-----------------------------------------------------|
A|-----------------------------------------------------|
E|-----------------------------------------------------|

e|-19p17p14--14-19p17p14--14-19p17p14--14-19p17p14--14-|
B|---------17-----------17-----------17-----------17---|
G|-----------------------------------------------------|
D|-----------------------------------------------------|
A|-----------------------------------------------------|
E|-----------------------------------------------------|

e|-19p17p14--14-19p17p14--14-19p17p14--14-19p17p14--14-|
B|---------17-----------17-----------17-----------17---|
G|-----------------------------------------------------|
D|-----------------------------------------------------|
A|-----------------------------------------------------|
E|-----------------------------------------------------|

e|--------------------------------------------|
B|--17----------------------------------------|
G|--16b17---[long hold and then release]------|
D|----------[slowly with tremolo bar vibrato]-|
A|--------------------------------------------|
E|--------------------------------------------|

End Solo


Riff 2
Guitar 1                                   x3
e|------------------------------------------|
B|------------------------------------------|
G|------------------------------------------|
D|-12\11-------12\11------------------------|
A|-10\-9-11/12-10\-9--9-10----9-------11/12-|
E|--------9/10-------------12---10-12--9/10-|
                       * *  * *  *  *
e|------------------------------------|
B|------------------------------------|
G|------------------------------------|
D|-12\11-------12\11------------------|
A|-10\-9-11/12-10\-9--9-10----9-------|
E|--------9/10-------------12---10-12-|
                       * *  * *  *  *
e|--------------------|
B|--------------------|
G|--------------------|
D|--------------------|
A|-11/12-7/8----------|
E|--9/10-5/6--0-0-0-0-|
              * * * *

Guitar 2                                   x3
e|------------------------------------------|
B|------------------------------------------|
G|------------------------------------------|
D|-12\11-------12\11-----9------------------|
A|-10\-9-11/12-10\-9--12---10-12-9-10-11/12-|
E|--------9/10-------------------------9/10-|
                       * *  *  * *  *
e|------------------------------------|
B|------------------------------------|
G|------------------------------------|
D|-12\11-------12\11-----9------------|
A|-10\-9-11/12-10\-9--12---10-12-9-10-|
E|--------9/10------------------------|
                       * *  *  * *  *
e|--------------------|
B|--------------------|
G|--------------------|
D|--------------------|
A|-11/12-7/8----------|
E|--9/10-5/6--0-0-0-0-|
              * * * *


Riff 3 (Play 4x)
e|------------------------------|
B|------------------------------|
G|--------------------------7---|
D|--------------------------5---|
A|-10-9-8-----7-----8---7-------|
E|--8-7-6-0-0-5-0-0-6-0-5-0---0-|
          * *   * *   *   *   *
e|-----------------------------|
B|-----------------------------|
G|-------------7---------------|
D|-------------5---------------|
A|-8-----7---------------------|
E|-6-0-0-5-0-0---0-0-0-0-0-0-0-|
     * *   * *   * * * * * * *


Riff 3a (Play 1x)
e|------------------------------|
B|------------------------------|
G|--------------------------7---|
D|--------------------------5---|
A|-10-9-8-----7-----8---7-------|
E|--8-7-6-0-0-5-0-0-6-0-5-0---0-|
          * *   * *   *   *   *
e|------------------------------------|
B|------------------------------------|
G|-------------7----------------------|
D|-------------5---9----8-7-6---5-4-3-|
A|-8-----7---------7-10-6-5-4-7-3-2-1-|
E|-6-0-0-5-0-0---0----8-------5-------|
     * *   * *   *


Riff 3b (Play 3x)
e|-----------------------|
B|-----------------------|
G|-------------------7---|
D|-------------------5---|
A|-----7-----8---7-------|
E|-0-0-5-0-0-6-0-5-0---0-|
   * *   * *   *   *   *
e|------------------------------------|
B|------------------------------------|
G|-------------7----------------------|
D|-------------5---9----8-7-6---5-4-3-|
A|-8-----7---------7-10-6-5-4-7-3-2-1-|
E|-6-0-0-5-0-0---0----8-------5-------|
     * *   * *   *


Lead into next section:
e|---------------|
B|---------------|
G|---------------|
D|---------5\3---|
A|-3-3-3/5-3\1-3-|
E|-1-1-1/3-----1-|
     *


Riff 4 (Solo Rhythm)          x3
e|-----------------------------|
B|-----------------------------|
G|-------4-------------7--6-4--|
D|-------4-------------7--6-4--|
A|-6-----2--4-5--6-----5--4-2--|
E|-4-444----2-3--4-444---------|
     ***           ***
e|----------------------------|
B|----------------------------|
G|-------4-------------6------|
D|-------4-------------6------|
A|-6-----2--4-5--6-----4--6-7-|
E|-4-444----2-3--4-444----4-5-|
     ***           ***

Solo (Mustaine)
e|-------------------------------------|
B|-------------------------------------|
G|--6b7tm----[long hold, slow release]-|
D|-------------------------------------|
A|-------------------------------------|
E|-------------------------------------|

e|----------------------------------------------------|
B|------------------------------------------4-----4-4-|
G|-6p4---------4------------4-6-4-----4-6b7---6p4-----|
D|-----6-6-4-6---5-6--4-5-6-------6-6-----------------|
A|-------------------4--------------------------------|
E|----------------------------------------------------|

e|-------------------------------------------------------------|
B|-5-6-7-6-7-8-7-8-9-8-9-10-9-10-11-10-11-12-11-12-13-12-13-14-|
G|-------------------------------------------------------------|
D|-------------------------------------------------------------|
A|-------------------------------------------------------------|
E|-------------------------------------------------------------|

e|----------------------------------------|
B|-13-14-15-14-15-16-15-16-17-18-19-18-19-|
G|----------------------------------------|
D|----------------------------------------|
A|----------------------------------------|
E|----------------------------------------|

e|-16-19p16--16-19p16--16-21p16-19p16--16-21p16-21b23~~-|
B|---------19--------19--------------19-----------------|
G|------------------------------------------------------|
D|------------------------------------------------------|
A|------------------------------------------------------|
E|------------------------------------------------------|

End Solo


Riff 4a (Solo Rhythm)
e|----------------------------------|
B|----------------------------------|
G|----------------6---------------8-|
D|----------------6---------------8-|
A|-8--------8-6-8-4---------8-6-8-6-|
E|-6-666666-6-4-6----666666-6-4-6---|
     ****** * * *    ****** * * *
e|--------------------------|
B|--------------------------|
G|--------------9------9-8--|
D|--------------9------9-8--|
A|--------8-6-8-7------7-6--|
E|-666666-6-4-6----666------|
   ****** * * *    ***
e|-------|
B|-------|
G|-------|
D|-------|
A|-------|
E|--X\\--|


Solo (Poland)
e|---------------------------------------------6h9-9b11r9-|
B|-------------------------------------------6------------|
G|-------------------------------6-------6h8--------------|
D|---------------6-------6h8p6h8---8p6h8------------------|
A|-----8-6h8p6h8---8p6h8----------------------------------|
E|-/9-----------------------------------------------------|

e|-6------------6----------------------|
B|---9-6-9b11r9---9p6---6--------------|
G|--------------------8---8b10r8p6-6b8-|
D|-------------------------------------|
A|-------------------------------------|
E|-------------------------------------|

e|------------------------------------|
B|------------------------------------|
G|------------------------------------|
D|-8-6--------------------------------|
A|-----8-6----------------------------|
E|---------9-6--9~~--(9)b10--7b8--4~~-|

End Solo


Riff 5
e|---------------------------------|
B|---------------------------------|
G|---------------------------------|
D|---------6p4---------------------|
A|-------------------------6p4-----|
E|-4-4-4-4-----4-4-4-4-4-4-----4-4-|
   * * * *     * * * * * *     * *
e|-----------------------------|
B|-----------------------------|
G|-----------------------------|
D|-----------------------------|
A|-------------------------7-4-|
E|-4-4-4-4-7-4-4-4-4-4-4-4-5-2-|
   * * * * * * * * * * * *
e|----------------------------------------------|
B|----------------------------------------------|
G|----------------------------------------------|
D|---------6p4----------------------------4-5---|
A|-------------------------6p4-----7-9-6--2-3-5-|
E|-4-4-4-4-----4-4-4-4-4-4-----4-4-5-7-4------3-|
   * * * *     * * * * * *     * *


Riff 6
e|---------------------------------|
B|---------------------------------|
G|---------------------------------|
D|---------4p2---------------------|
A|-------------------------4p2-----|
E|-2-2-2-2-----2-2-2-2-2-2-----2-2-|
   * * * *     * * * * * *     * *
e|---------------------------------|
B|---------------------------------|
G|---------------------------------|
D|---------------------------------|
A|---------------------------------|
E|-2-2-2-2-5-2-2-2-2-2-2-2-0-2-2-2-|
   * * * * * * * * * * * * * * * *
e|-----------------------------------------------|
B|-----------------------------------------------|
G|-----------------------------------------------|
D|-4-2-----2----------------------------6--------|
A|-----4-3---4-3-2-4-3-2---3-2--------5----5---5-|
E|-----------------------5-----5-2--4--------4---|

Riff 7
e|---------------------------|
B|---------------------------|
G|---------------------------|
D|-------2------------5----3-|
A|-4---4-0--2-3-4---4-3--5-1-|
E|-2-0-2----0-1-2-0-2----3---|
     * *          * *
   "Well I wonder..."
e|---------------------------|
B|---------------------------|
G|-------7--6-4--------------|
D|-------5--4-2-------7----7-|
A|-4---4--------4---4-5--6-5-|
E|-2-0-2--------2-0-2----4---|
     * *          * *
   "...bout the other..."
e|---------------------------------------|
B|---------------------------------------|
G|---------------------------------------|
D|-------2------------7--9----6----------|
A|-4---4-0--2-3-4---4-5--7----4--------4-|
E|-2-0-2----0-1-2-0-2------------------2-|
     * *          * *
                          "...named Diana."

Guitar fill over Riff 7 (Mustaine)
e|----------------------------------|
B|----------------------------------|
G|-6p4p2p0--------------------------|
D|---------5p4p2p0-5p4p2p0----------|
A|------------------------4p2p0-----|
E|------------------------------0-2-|

Lead into next section:
e|--------|
B|--------|
G|--------|
D|--------|
A|--4--3--|
E|--2--1--|

Riff 8 (Solo Rhythm)
e|----------------------------------|
B|----------------------------------|
G|----------------------------------|
D|------9---------------------9--7--|
A|-2----7----3--5555---5h7-2--7--5--|
E|-0----0----1-------7-----0--0-----|

Solo (Mustaine)
e|-8p0h8p7p0h7h8p0h8p7p0h7h8p0h8p7p0h7h8p0h8p7-8/10-|
B|--------------------------------------------------|
G|--------------------------------------------------|
D|--------------------------------------------------|
A|--------------------------------------------------|
E|--------------------------------------------------|

e|-12-/24\-2h3p2h3-/14h15p14h15-|
B|------------------------------|
G|------------------------------|
D|------------------------------|
A|------------------------------|
E|------------------------------|

e|-8p0h8p7p0h7h8p0h8p7p0h7h8p0h8p7p0h7h8p0h8p7-8/10-|
B|--------------------------------------------------|
G|--------------------------------------------------|
D|--------------------------------------------------|
A|--------------------------------------------------|
E|--------------------------------------------------|

e|-12--11-10--9--8--/15---------------------------|
B|------------------------------------------------|
G|------------------------------------------------|
D|------------------------------------------------|
A|------------------------------------11----11-12-|
E|-----------------------12~----10-12----12-------|

e|-----------------------------------------|
B|-----------------------------------------|
G|-----------------------------------------|
D|-----------------------------------------|
A|-14-12-11-14-11h12p11----11--------------|
E|----------------------13----13-12-10-12~-|

e|------------------------------------------------|
B|------------------------------------------------|
G|-------------------------------------------13---|
D|----------------------------12--14-12-15-14--15-|
A|-------11--12-11-14-12-15-14--15----------------|
E|-13-12---13-------------------------------------|

e|---------------------12--13---|
B|------12--13-12-15-13--15--15-|
G|-14-13--14--------------------|
D|------------------------------|
A|------------------------------|
E|------------------------------|

e|--------------------------------------|
B|-17~~--15-17-17~~--15-17-17-----------|
G|-----------------------------14-16-16-|
D|--------------------------------------|
A|--------------------------------------|
E|--------------------------------------|

e|--------------------------------------------|
B|--------------------------------------------|
G|-13-14-14-----------------------------------|
D|-----------14-15-15--12-14-14~~--12-14-14~~-|
A|--------------------------------------------|
E|--------------------------------------------|

e|-----------------------------------------|
B|-----------------------------------------|
G|-----------------------------------------|
D|-12-14-14--------------------------------|
A|-----------14-15-15--12-14-14--11-12-12\-|
E|-----------------------------------------|

e|--------------------------------------------------|
B|--------------------------------------------------|
G|--------------------------------------------------|
D|--------------------------------------12-14-15p14-|
A|---------11-12-14p12p11-12-14-15p14p12------------|
E|-12--13-------------------------------------------|

e|----------------------------------------16h17-19p17p16-|
B|----------------------------15h17-18p17----------------|
G|-13h14-16p14p13-14h16-17p16----------------------------|
D|-------------------------------------------------------|
A|-------------------------------------------------------|
E|-------------------------------------------------------|

e|-20p19p17-19p17-16-19p17p16-17p16-----------------------------|
B|---------------------------------18p17p15-17p15---------------|
G|-----------------------------------------------17p16p14-16p14-|
D|--------------------------------------------------------------|
A|--------------------------------------------------------------|
E|--------------------------------------------------------------|

e|-------------------------------------------------------------------|
B|-------------------------------------------------------------------|
G|-16p14p13-14p13----------------------------------------------------|
D|---------------15p14p12-14p12---------------------------------14~~-|
A|-----------------------------16p14p12-14p12\11-12p11--11-----------|
E|----------------------------------------------------13--13p12------|

End Solo


Play Riff 8   "Wake up dead..."

Final time:
e|---------------------------------|
B|---------------------------------|
G|---------------------------------|
D|------9---------------------9--7-|
A|-2----7----3--5555---5h7-2--7--5-|
E|-0----0----1-------7-----0--0----|
      "You.......die....wake up dead!"

Notation:

10^        = bend a quarter step.
10b11      = bend a half step.
10b12      = bend a full step.
10b12r10   = bend and release.
[10]12     = pre-bend.
[10]12r10  = pre-bend and release.
{14}       = pick the 14th fret while holding the most
             previous bend.
<17>       = touch the string above the 17th fret while
             previous note(s) is(are) still ringing.

10b13*     = tremolo bar bend, from the 10th fret to the 13th fret.
7d4*       = tremolo bar dive, from the 7th fret to the 4th fret.
12~*       = tremolo bar vibrato.

x   =  mute with fret-hand
*   =  palm mute
X\\ =  pick slide
h   =  hammer-on
p   =  pull-off
~   =  vibrato
t   =  finger tap
/   =  slide up
\   =  slide down
h.  =  natural harmonics
a   =  artificial harmonics
(9) =  ghost note
tm  =  trem picking
tr  =  trill


==============================================================
5.Devils Island
Megadeth:  Devils Island

transcribed by: Russ Elton      (vicelton@yahoo.com)

Date last modified:  2/27/01


Tuning: Standard (slightly flat = 1/4 step down)

Riff 1
Guitar 1                  Ending
e|------------------------|-----|
B|------------------------|-----|
G|------------------------|-----|
D|------4----3------------|-----|
A|-2----2----1----2-0-----|--2--|
E|-0------------------2-3-|--0--|
                  * * * *

Guitar 2 (comes in towards the end)
                          Ending
e|------------------------|-----|
B|------------------------|-----|
G|------4~--/5~~----------|-----|
D|------------------------|-----|
A|-2--------------2-0-----|--2--|
E|-0------------------2-3-|--0--|
                  * * * *

Intro solo
e|-19t15p12-19t15p12-19t15p12-19t15p12------------|
B|------------------------------------------------|
G|------------------------------------------------|
D|-------------------------------------| ---------|
A|-------------------------------------|       ---|
E|-------------------------------------|       ---|
                                                |
e|-------------------------------------|        |
B|-20t15p12-20t15p12-20t15p12-20t15p12-|        |
G|-------------------------------------|        |
D|-------------------------------------|        |
A|-------------------------------------|        |
E|-------------------------------------|        |
                                                |---- Play 3x
e|-------------------------------------|        |
B|-19t15p12-19t15p12-19t15p12-19t15p12-|        |
G|-------------------------------------|        |
D|-------------------------------------|        |
A|-------------------------------------|        |
E|-------------------------------------|        |
                                                |
e|-------------------------------------|       ---|
B|-17t13p10-17t13p10-17t13p10-17t13p10-|       ---|
G|-------------------------------------|       ---|
D|-------------------------------------| ---------|
A|------------------------------------------------|
E|------------------------------------------------|

e|-19t15p12-19t15p12-------------------|
B|-------------------20t15p12-20t15p12-|
G|-------------------------------------|
D|-------------------------------------|
A|-------------------------------------|
E|-------------------------------------|

e|-------------------------------------|
B|-19t15p12-19t15p12-17t13p10-17t13p10-|
G|-------------------------------------|
D|-------------------------------------|
A|-------------------------------------|
E|-------------------------------------|

e|-----------------------------------------------|
B|-----------------------------------------------|
G|-----------------------------------------------|
D|-----------------------------------------------|
A|-----------------------------------------------|
E|-----------------------------------------------|

e|-----------------------------------------|
B|-----------------------------------------|
G|--7h9~~----------------------------------|
D|-----------------------------------------|
A|-----------------------------------------|
E|-----------------------------------------|

e|-----------------------------------------------|
B|-----------------------------------------------|
G|-----------------------------------------------|
D|-----------------------------------------------|
A|-----------------------------------------------|
E|-----------------------------------------------|

e|-----------------------------------------------|
B|-----------------------------------------------|
G|-----------------------------------------------|
D|-----------------------------------------------|
A|-----------------------------------------------|
E|-----------------------------------------------|


End solo

Lead into next section:
e|------------|
B|------------|
G|------------|
D|--9------9--|
A|--7------7--|
E|--0------0--|


Riff 2
e|-----------------------------------|
B|-----------------------------------|
G|-----------------------------------|
D|-----------------------------------|
A|-2----------------3----------------|
E|-0-000-000-000-00-1-111-111-111-11-|
     *** *** *** **   *** *** *** **
   "The light that fills..."
e|-----------------------------------|
B|-----------------------------------|
G|-----------------------------------|
D|-----------------------------------|
A|-4----------------5----------------|
E|-2-222-222-222-22-3-333-333-333-33-|
     *** *** *** **   *** *** *** **
   "That locks the door..."

Riff 3                          x4
e|-------------------------------|--------|
B|-------------------------------|--------|
G|-------------------------------|--------|
D|--------------------7-------9--|--------|
A|-2--5---------------5-------7--|--2--5--|
E|-0--3--0-000-000-00----0-00----|--0--3--|
         * *** *** **    * **
   "Devils Island..."

Play Riff 2   "Oh there's no escape..."
Play Riff 3   "Devils Island...."


Riff 4
e|--------------------------------------|
B|--------------------------------------|
G|--------------------------------------|
D|--------------------------------------|
A|------5--------6\5-------5--------6\5-|
E|-0-00-3-000-00-4\3--0-00-3-000-00-4\3-|
   * ** * *** **      * ** * *** **


Riff 5                                 x2
e|--------------------------------------|
B|--------------------------------------|
G|--------------------------------------|
D|--------------------------------------|
A|------5--------6\5-------5--------7/8-|
E|-0-00-3-000-00-4\3--0-00-3-000-00-5/6-|
   * **   *** **      * **   *** **
  "Oh hear the call..."

Riff 6
e|--------------------------------------|
B|--------------------------------------|
G|--------------------------------------|
D|--------------------------------------|
A|------5--------6\5-------5--------7/8-|
E|-0-00-3-000-00-4\3--0-00-3-000-00-5/6-|
   * **   *** **      * **   *** **
  "As there is no man..."
e|--------------------------------------|
B|--------------------------------------|
G|--------------------------------------|
D|--------------------------------------|
A|------5--------6\5-------5\4------4\3-|
E|-0-00-3-000-00-4\3--0-00-3\2-0-00-2\1-|
   * **   *** **      * **     * **
   "Able to terminate..."


Riff 7
e|--------------------------------------|
B|--------------------------------------|
G|--------------------------------------|
D|------------------------------7--6----|
A|------------2h3p2p0-----4-x-x-5--4--7-|
E|-2222222222---------2p0-2-x-x-------5-|
   **********
e|--------------------------------------|
B|--------------------------------------|
G|--------------------------------------|
D|--------------------------------------|
A|------------2h3p2p0-----4-x-x-5--4----|
E|-2222222222---------2p0-2-x-x-3--2--0-|
   **********                         *
                              "Final judgement..."

Solo Rhythm:

Play Riff 7    Play 4x
Play Riff 1    Play 2x

Solo
e|-----------------------------------------------|
B|-----------------------------------------------|
G|-----------------------------------------------|
D|-----------------------------------------------|
A|-----------------------------------------------|
E|-----------------------------------------------|

e|-----------------------------------------------|
B|-----------------------------------------------|
G|-----------------------------------------------|
D|-----------------------------------------------|
A|-----------------------------------------------|
E|-----------------------------------------------|

e|-----------------------------------------------|
B|-----------------------------------------------|
G|-----------------------------------------------|
D|-----------------------------------------------|
A|-----------------------------------------------|
E|-----------------------------------------------|

End solo

Play Riff 1   "Old, weak, and feeble..."
Play Riff 2   "Devils Island..."


Riff 8
e|--------------------------------------|
B|--------------------------------------|
G|--------------------------------------|
D|----------------------------------8/9-|
A|------5--------6\5-------5--------6/7-|
E|-0-00-3-000-00-4\3--0-00-3-000-00-----|
   * **   *** **      * **   *** **
e|------------------------------------|
B|------------------------------------|
G|------------------------------------|
D|----------------------9\8--------7--|
A|------5--------6\5----7\6----7-8-5--|
E|-0-00-3-000-00-4\3--0-----0--5-6----|
   * **   *** **      *     *  * *


Play Riff 8   Solo Rhythm

Solo
e|-----------------------------------------------|
B|-----------------------------------------------|
G|-----------------------------------------------|
D|-----------------------------------------------|
A|-----------------------------------------------|
E|-----------------------------------------------|

e|-----------------------------------------------|
B|-----------------------------------------------|
G|-----------------------------------------------|
D|-----------------------------------------------|
A|-----------------------------------------------|
E|-----------------------------------------------|

e|-----------------------------------------------|
B|-----------------------------------------------|
G|-----------------------------------------------|
D|-----------------------------------------------|
A|-----------------------------------------------|
E|-----------------------------------------------|

End solo

Play Riff 8   "Devils Island...."

Ending:
e|--------------------------------------|
B|--------------------------------------|
G|--------------------------------------|
D|----------------------------------8/9-|
A|------5--------6\5-------5--------6/7-|
E|-0-00-3-000-00-4\3--0-00-3-000-00-----|
   * **   *** **      * **   *** **
          "Devils Island..."
e|-----------------------------------------|
B|-----------------------------------------|
G|-----------------------------------------|
D|----------------------9\8--------7-9-9\--|
A|------5--------6\5----7\6----7-8-5-7-7\--|
E|-0-00-3-000-00-4\3--0-----0--5-6-----0---|
   * **   *** **      *     *  * *
          "Devils Island..."


Notation:

10b12      = pick the 10th fret, then bend to the 12th fret.
10b12r10   = pick the 10th fret, then bend to the 12th fret,
             then release to the 10th fret.
[10]12r10  = bend to the 12th fret from the 10th fret, pick,
             then release to the 10th fret.
10b12 [14] = pick the 14th fret while holding the previous bend.

10b15*     = tremolo bar bend, from the 10th fret to the 15th fret.
7d2*       = tremolo bar dive, from the 7th fret to the 2nd fret.
12~*       = tremolo bar vibrato.

x   =  mute with fret-hand
*   =  palm mute
X\\ =  pick slide
h   =  hammer-on
p   =  pull-off
~   =  vibrato
t   =  finger tap
/   =  slide up
\   =  slide down
h   =  natural harmonics
a   =  artificial harmonics
(9) =  ghost note
tm  =  trem picking
tr  =  trill

====================================================================
6.Anarchy in the UK
tabbed by: Andrew Zara
Band- Megadeth
Song- Anarchy In The UK

Tuning: Standard


Intro
e|-----------------------------|
B|-----------------------------|
G|-----------------------------|
D|-----------------------------|
A|-5---------------------------|
E|-3--3-3-3-3-3-3-3-3-33333333-|
      * * * * * * * * ********
e|---------------------------------|
B|---------------------------------|
G|---------------------------------|
D|-------------------------7---7---|
A|-3-----------------------5-0-5-0-|
E|-1--1-1-1-1-1-1-0000-0-0---------|
      * * * * * * **** * *   *   *
                               "Right now!"


Riff 1
e|-----------------------------------|
B|-----------------------------------|
G|-----------------------------------|
D|-5----------------------10\9--(9)\-|
A|-3--3-3-3-3-3-3-3-3-3-3--8\7--(7)\-|
E|-----------------------------------|
      * * * * * * * * * *
Final time:
e|--------------------------------|
B|--------------------------------|
G|--------------------------------|
D|-5------------------------------|
A|-3--3-3-3-3-3-3-3-3-3-3-3-3-3-0-|
E|--------------------------------|
      * * * * * * * * * * * * * *
   "I want to destroy..."


Riff 2 (Guitar 2 just lets chords ring)
e|--------------------------------|
B|--------------------------------|
G|--------------------------------|
D|--------------------------------|
A|-5------------------------------|
E|-3--3-3-3-3-3-3-3-3-3-3-3-3-3-3-|
      * * * * * * * * * * * * * *
   "Cause I want to..."
e|------------------------------|
B|------------------------------|
G|------------------------------|
D|-----------------------7------|
A|-3--------------2------5--5-5-|
E|-1--1-1-1-1-1-1-0--0-0--------|
      * * * * * *    * *    * *
   "...be, anarchy!"


Riff 2a
e|-----------------------------------|
B|-----------------------------------|
G|-----------------------------------|
D|-5----------------------10\9--(9)\-|
A|-3--3-3-3-3-3-3-3-3-3-3--8\7--(7)\-|
E|-----------------------------------|
      * * * * * * * * * *
e|--------------------------------|
B|--------------------------------|
G|--------------------------------|
D|-5------------------------------|
A|-3--3-3-3-3-3-3-3---------------|
E|------------------3-3-3-3-3-3-3-|
      * * * * * * * * * * * * * *

Play Riff 1   "Anarchy for the..."
Play Riff 2   "I want to be..."


Riff 2b
Guitar 1
e|-----------------------------------|
B|-----------------------------------|
G|-----------------------------------|
D|-5----------------------10\9--(9)\-|
A|-3--3-3-3-3-3-3-3-3-3-3--8\7--(7)\-|
E|-----------------------------------|
      * * * * * * * * * *
e|--------------------------------|
B|--------------------------------|
G|--------------------------------|
D|-5------------------------------|
A|-3--3-3-3-3-3-3-3-3-3-3-3-3-3-3-|
E|--------------------------------|
      * * * * * * * * * * * * * *
                 "...in the city..."
Guitar 2
e|------------------------------------|
B|------------------------------------|
G|------------------------------------|
D|-5--------(5)--------(5)--------(5)-|
A|-3--------(3)--------(3)--------(3)-|
E|------------------------------------|

Riff 3 (Solo Rhythm)             x3
e|--------------------------------|
B|--------------------------------|
G|--------------------------------|
D|-7---------------9--------------|
A|-5--555555555555-7-777777777777-|
E|--------------------------------|
      ************   ************
e|-----------------|
B|-----------------|
G|-----------------|
D|-7---------------|
A|-5--555555555555-|
E|-----------------|
      ************     x2
e|----------------------|
B|----------------------|
G|----------------------|
D|----------------------|
A|-5----5--5--5----5--5-|
E|-3--3-3--3--3--3-3--3-|
      *    *     *    *
e|---------------------------|
B|---------------------------|
G|---------------------------|
D|---------------------------|
A|-5----5--5--5--------------|
E|-3--3-3--3--3--3-3-3-3-3-3-|
      *    *     * * * * * *


Solo (Mustaine)                  x3
e|---------------12---------------|
B|-----14--------12-14------------|
G|-----14-----------14--12~-------|
D|-/16-----16~\--------------14\--|
A|--------------------------------|
E|--------------------------------|

e|----------------------15------------15-----------|
B|-----14-----------------18p15---------18p15------|
G|-----14--------17b19---------17b19---------17b19-|
D|-/16-----16~\------------------------------------|
A|-------------------------------------------------|
E|-------------------------------------------------|

e|-15-----------15------------------------|
B|---18p15--------18p15-18b20~--[18]20r18-|
G|--------17b19---------------------------|
D|----------------------------------------|
A|----------------------------------------|
E|----------------------------------------|

e|-15h19p15--15-15h19p15--15-15h19p15--15-15h19p15--15-|
B|---------19-----------19-----------19-----------19---|
G|-----------------------------------------------------|
D|-----------------------------------------------------|
A|-----------------------------------------------------|
E|-----------------------------------------------------|

e|-15h19p15--15-15h19p15--15-20b22~--|
B|---------19-----------19-----------|
G|-----------------------------------|
D|-----------------------------------|
A|-----------------------------------|
E|-----------------------------------|

End Solo


Riff 1a
Guitar 1                            x3
e|-----------------------------------|
B|-----------------------------------|
G|-----------------------------------|
D|-5----------------------10\9--(9)\-|
A|-3--3-3-3-3-3-3-3-3-3-3--8\7--(7)\-|
E|-----------------------------------|
      * * * * * * * * * *
   "A million..."
e|--------------------------------|
B|--------------------------------|
G|--------------------------------|
D|-5------------------------------|
A|-3--3-3-3-3-3-3-3-3-3-3-3-3-3-3-|
E|--------------------------------|
      * * * * * * * * * * * * * *
   "I use anarchy..."

Guitar 2
e|------------------------------------|
B|------------------------------------|
G|------------------------------------|
D|-5--------(5)--------(5)--------(5)-|
A|-3--------(3)--------(3)--------(3)-|
E|------------------------------------|

e|-------------------------|
B|-------------------------|
G|-------------------------|
D|-(5)------(5)------------|
A|-(3)------(3)------------|
E|---------------------X\\-|


Play Riff 2    "Cause I want to be..."
Play Riff 2b

Riff 4 (Solo Rhythm)
e|---------------------------------|
B|---------------------------------|
G|---------------------------------|
D|-7-------------------------------|
A|-5--5555555555555555555555555555-|
E|---------------------------------|
      ****************************


Solo (Jones)
e|-----5-5-5-5-5/5-5---5-5-5\5-5/5-5-5-|
B|-1/--7-7-7-5-5/7-7-8-7-7-7\5-5/7-7-7-|
G|-------------------------------------|
D|-------------------------------------|
A|-------------------------------------|
E|-------------------------------------|

e|-5-5-5-5-5/5-5---5-5-5\5-5/5-5-5-|
B|-7-7-7-5-5/7-7-8-7-7-7\5-5/7-7-7-|
G|---------------------------------|
D|---------------------------------|
A|---------------------------------|
E|---------------------------------|

e|-5-5-5-5-5/5-5---5-5-5\5-5/5-5-5-|
B|-7-7-7-5-5/7-7-8-7-7-7\5-5/7-7-7-|
G|---------------------------------|
D|---------------------------------|
A|---------------------------------|
E|---------------------------------|

e|-------10-10-------10-10--------10-------10-------10----|
B|-------10-10-------10-10--------10-------10-------10----|
G|-12b14-------12b14-------12b14-----12b14----12b14-------|
D|--------------------------------------------------------|
A|--------------------------------------------------------|
E|-----------------------------------------------------\\-|

End Solo

Play Riff 1a   "Is this the M.P.L.A?"
Play Riff 2    "But just another..."
Play Riff 2b   "...country..."
Play Riff 2    "Cause I want to..."
Play Riff 2b
Play Riff 2    "Cause I want to..."
Play Riff 2b
Play Riff 2    "Cause I want to..."

Ending
e|-----------------------------------|
B|-----------------------------------|
G|-----------------------------------|
D|-5----------------------10\9--(9)\-|
A|-3--3-3-3-3-3-3-3-3-3-3--8\7--(7)\-|
E|-----------------------------------|
      * * * * * * * * * *
                       "Again I'm pissed..."
e|---------------------------|
B|---------------------------|
G|---------------------------|
D|-5--------------5--------5-|
A|-3--3-3-3-3-3-3-3--------3-|
E|---------------------------|
      * * * * * *
        "Destroy!"


Ending Solos (Young)

This lead is played over the chorus:
e|--------------------------------------|
B|--------------------------------------|
G|-12~--------10~--------9~----7~----5~-|
D|--------------------------------------|
A|--------------------------------------|
E|--------------------------------------|

The final time another guitar is added:
e|----------------------------------|
B|----------------------------------|
G|----------------------------------|
D|--5~---------3~--------2~---------|
A|-----------------------------5~---|
E|----------------------------------|


Here are the solos inbetween the choruses:
#1
e|-----------------------------------------------|
B|-----------------------------------------------|
G|--------7-9p7----7-----------------------------|
D|-----10-------10---10~------------12b14r12-10~-|
A|-------------------------7-8-10~---a-----------|
E|-X\\--------------------------a----------------|
                           * *

#2
e|----------------------------------------------|
B|-------13-------13-------13-------13-------13-|
G|-15b17----15b17----15b17----15b17----15b17----|
D|----------------------------------------------|
A|----------------------------------------------|
E|----------------------------------------------|

e|-----------------------------------------------|
B|-------13-------13-16b18~----13-16-13----13----|
G|-15b17----15b17-----------------------15----15-|
D|-----------------------------------------------|
A|-----------------------------------------------|
E|-----------------------------------------------|

e|-------------------------------------|
B|-------------13----------------------|
G|-12-15-12-15----15-12-15-------------|
D|-------------------------16b17~--13~-|
A|-------------------------------------|
E|-------------------------------------|


#3
e|-------------------------------------|
B|-------------------------------------|
G|-----5-5~----5-5-5-----5-5~----5-5-5-|
D|-4h5---------------4h5---------------|
A|-------------------------------------|
E|-------------------------------------|

e|---------------------------|
B|---------------------------|
G|-----5-5-----5-5-----5-5~--|
D|-4h5-----4h5-----4h5-------|
A|---------------------------|
E|---------------------------|

End Solos


Notation:

10^        = bend a quarter step.
10b11      = bend a half step.
10b12      = bend a full step.
10b12r10   = bend and release.
[10]12     = pre-bend.
[10]12r10  = pre-bend and release.
{14}       = pick the 14th fret while holding the most
             previous bend.
<17>       = touch the string above the 17th fret while
             previous note(s) is(are) still ringing.

10b13*     = tremolo bar bend, from the 10th fret to the 13th fret.
7d4*       = tremolo bar dive, from the 7th fret to the 4th fret.
12~*       = tremolo bar vibrato.

x   =  mute with fret-hand
*   =  palm mute
X\\ =  pick slide
h   =  hammer-on
p   =  pull-off
~   =  vibrato
t   =  finger tap
/   =  slide up
\   =  slide down
h.  =  natural harmonics
a   =  artificial harmonics
(9) =  ghost note
tm  =  trem picking
tr  =  trill

===================================================================
7.Set the World Afire
tabbed by: Andrew Zara
Band- Megadeth
Song- Set The World Afire

Tuning: Standard


Riff 1
Guitar 1                               x3
e|--------------------------------------|
B|--------------------------------------|
G|--------------------------------------|
D|--------------------10\9-10\9-10-10\9-|
A|---------------------8\7--8\7--8--8\7-|
E|-0-0-0-0-0-0-0-0-...------------------|
   * * * * * * * *
e|-------------------------|
B|-------------------------|
G|-------------------------|
D|---------------------7-8-|
A|---------------------5-6-|
E|-0-0-0-0-0-0-0-0-...-----|
   * * * * * * * *

Guitar 2               x3
e|----------------------|
B|----------------------|
G|----------------------|
D|----------------------|
A|----------------------|
E|-0-0-0-0-0-0-0-0-...--|
   * * * * * * * *
e|-------------------------|
B|-------------------------|
G|-------------------------|
D|---------------------7-8-|
A|---------------------5-6-|
E|-0-0-0-0-0-0-0-0-...-----|
   * * * * * * * *


Riff 2
e|---------------------------------|
B|---------------------------------|
G|---------------------------------|
D|-9------------------10\9-10\9-10-|
A|-7------2------------8\7--8\7--8-|
E|---0000-0-000000000--------------|
     ****   *********
e|----------------------------|
B|----------------------------|
G|----------------------------|
D|-10\9-------------------7-8-|
A|--8\7------2------------5-6-|
E|------0000-0-0000000000-----|
        ****   **********


Riff 3                                           x3
e|------------------------------------------------|
B|------------------------------------------------|
G|------------------------------------------------|
D|-------------------9-9--------------------12-12-|
A|-------------------7-7--------------------10-10-|
E|-0-0-0-5-6-7-0-0-0------0-0-0-5-6-7-0-0-0-------|
   * * * * * * * * *      * * * * * * * * *
e|-----------------------------------------------|
B|-----------------------------------------------|
G|-----------------------------------------------|
D|-------------------9-9--------12-12--------7-7-|
A|-------------------7-7--------10-10--------5-5-|
E|-0-0-0-5-6-7-0-0-0------0-0-0--------0-0-0-----|
   * * * * * * * * *      * * *        * * *

Final time
e|---------------------------------------------|
B|---------------------------------------------|
G|---------------------------------------------|
D|-------------------9-9--------12-12--------7-|
A|-------------------7-7--------10-10--------5-|
E|-0-0-0-5-6-7-0-0-0------0-0-0--------0-0-0---|
   * * * * * * * * *      * * *        * * *


Riff 4                         x3
e|------------------------------|
B|------------------------------|
G|------------------------------|
D|-9----------------------------|
A|-7------10------9------8------|
E|----000--8--000-7--000-6--000-|
      ***     ***    ***    ***
e|--------------------------|
B|--------------------------|
G|--------------------------|
D|-9---------------------9--|
A|-7------10------9------7--|
E|----000--8--000-7--000----|
      ***     ***    ***

Riff 5
e|------------------------------------|
B|------------------------------------|
G|-7-----------------10-9---7---------|
D|-5-----9-----7------8-7---5---2p0---|
A|-------7-----5--------------------0-|
E|---0-0---0-0---0-0------0---0-------|
     * *   * *   * *      *   *     *
e|----------------------------|
B|----------------------------|
G|-7--------------------------|
D|-5-----9-----7-----4--3--2--|
A|-------7-----5-----2--1--0--|
E|---0-0---0-0---0-0----------|
     * *   * *   * *

Play Riff 5  "Red flash..."


Riff 6
e|---------------------------------|
B|---------------------------------|
G|---------------------------------|
D|-5-5-5-4-4-4---------------------|
A|-3-3-3-2-2-2-5-5-5-4-4-4-4-4-4-4-|
E|-------------3-3-3-2-2-2-2-2-2-2-|
   * * * * * * * * * * * * * * * *
e|---------------------------------|
B|---------------------------------|
G|---------------------------------|
D|-7-7-7-------------9-9-9-5-5-4-4-|
A|-5-5-5-8-8-8-7-7-7-7-7-7-3-3-2-2-|
E|-------6-6-6-5-5-5---------------|
   * * * * * * * * * * * * * * * *
e|--------------------------------|
B|--------------------------------|
G|--------------------------------|
D|-5-5-5-4-4-4--------------------|
A|-3-3-3-2-2-2-5-5-5-4-4-4-4-4-4\-|
E|-------------3-3-3-2-2-2-2-2-2\-|
   * * * * * * * * * * * * * *


Riff 7                          x3
e|-------------------------------|
B|-------------------------------|
G|-------------------------------|
D|-----3-----2h3-2-----3-----3-3-|
A|-----3-----2h3-2-----3-----3-3-|
E|-0-0---0-0-------0-0---0-0-----|
   * *   * *       * *   * *
   "Distored figures..."
e|-----------------|
B|-----------------|
G|-----------------|
D|-----3-----2h3-2-|
A|-----3-----2h3-2-|
E|-0-0---0-0-------|
   * *   * *
   "...have grown to vines..."
e|--------------12-16-12--------------|

B|------------12--------12------------|
G|----------13------------13----------|
D|--------14----------------14--------|
A|------14--------------------14------|
E|-12-16------------------------16-12-|
                                x3
e|-------------------------------|
B|-------------------------------|
G|-------------------------------|
D|-----3-----2h3-2-----3-----3-3-|
A|-----3-----2h3-2-----3-----3-3-|
E|-0-0---0-0-------0-0---0-0-----|
   * *   * *       * *   * *
   "Bodies melted..."
e|----------------------|
B|----------------------|
G|----------------------|
D|-----3-----2h3-2------|
A|-----3-----2h3-2------|
E|-0-0---0-0--------X\\-|
   * *   * *
   "...it's too late..."


Riff 8
e|---------------------------------|
B|---------------------------------|
G|--------------------6-5----------|
D|--------------------4-3-6--9-7-6-|
A|-22222222-55555555------4--7-5-4-|
E|---------------------------------|
   ******** ********
   "The arsenal of megadeath..."
e|---------------------------------|
B|---------------------------------|
G|---------------------------------|
D|--------------------4-2----2-4-5-|
A|-00000000-33333333--2-0-4--0-2-3-|
E|------------------------2--------|
   ******** ********
   "...if it comes the living..."
e|-------------------------------|
B|-------------------------------|
G|-------------------------------|
D|-------------------------3-2-0-|
A|--------------5/8--4--7--3-2-0-|
E|-333333333333-3/6--2--5--------|
   ************
   "Racing for power..."


Riff 9
e|-------------------------------------|
B|-------------------------------------|
G|-------------------------------------|
D|-4----4p2----4-----5--4--------2---5-|
A|-2-22----5p2-2-222-3--2-222222-0-2-3-|
E|---------------------------------0---|
     **          ***      ******
   "...last..."
e|-------------------------------------|
B|-------------------------------------|
G|-------------------5-----------------|
D|-4----4p2----4-----3--4--------2---5-|
A|-2-22----5p2-2-222-3--2-222222-0-2-3-|
E|---------------------------------0---|
     **          ***      ******
   "...first stone cast..."


Play Riff 8   "No one will be left..."


Interlude:
Guitar 1
e|----------------------------------------|
B|----------------------------------------|
G|----------------------------------------|
D|--4--------4--------4--------4----4-3-2-|
A|--2--------2--------2--------2----2-1-0-|
E|----------------------------------------|

Guitar 2
e|--------------------------|
B|-[5]6r5-5p3---3-----------|
G|------------4---4p2---2-4-|
D|--------------------4-----|
A|--------------------------|
E|--------------------------|

e|-------------------------------------------|
B|-------------------------------------------|
G|-2h4p2-------------------------------------|
D|-------4-3-2-0------------------4----4-3-2-|
A|---------------2-5-2-1-0--------2----2-1-0-|
E|-------------------------3^-0-3------------|

Riff 10
e|---------------------------------|
B|---------------------------------|
G|---------------------------------|
D|-------------------------2---5-4-|
A|------4-------5-------4--0-2-3-2-|
E|-2222-2--3333-3--2222-2----0-----|
   ****    ****    ****
   "Too bad we couldn't..."
e|--------------------------------|
B|--------------------------------|
G|--------------------------------|
D|-------------------------2---5--|
A|------4-------5-------4--0-2-3--|
E|-2222-2--3333-3--2222-2----0----|
   ****    ****    ****
   "This lethal..."

Riff 11 (Solo Rhythm)
e|---------------------------------|
B|---------------------------------|
G|---------------------------------|
D|-------------------------5---8-7-|
A|------7-------8-------7--3-5-6-5-|
E|-5555-5--6666-6--5555-5----3-----|
   ****    ****    ****
e|--------------------------------|
B|--------------------------------|
G|--------------------------------|
D|-------------------------5---8--|
A|------7-------8-------7--3-5-6--|
E|-5555-5--6666-6--5555-5----3----|
   ****    ****    ****


Riff 12 (Solo Rhythm)                    x3
e|----------------------------------------|
B|----------------------------------------|
G|----------------------------------------|
D|----------------------------------------|
A|----------------------------00-11-22-33-|
E|-22222222-33333333-22222222-------------|
   ******** ******** ******** ** ** ** **
e|-------------------------------------|
B|-------------------------------------|
G|-------------------------------------|
D|-------------------------------------|
A|-------------------------------------|
E|-22222222-33333333-44444444-55555555-|
   ******** ******** ******** ********


Play Riff 5   Solo Rhythm


Solo (Mustaine)
e|-------------------------------------|
B|-------------------------------------|
G|-------------------------------------|
D|-------------------------------------|
A|-------------------------------------|
E|-------------------------------------|

e|-------------------------------------|
B|-------------------------------------|
G|-------------------------------------|
D|-------------------------------------|
A|-------------------------------------|
E|-------------------------------------|

e|-------------------------------------|
B|-------------------------------------|
G|-------------------------------------|
D|-------------------------------------|
A|-------------------------------------|
E|-------------------------------------|

e|-------------------------------------|
B|-------------------------------------|
G|-------------------------------------|
D|-------------------------------------|
A|-------------------------------------|
E|-------------------------------------|

End Solo


Play Riff 5   "Dig deep..."

Riff 6a
e|--------------------------------|
B|--------------------------------|
G|--------------------------------|
D|-5-5-5-4-4-4--------------------|
A|-3-3-3-2-2-2-5-5-5-4-4-4-4-4-4\-|
E|-------------3-3-3-2-2-2-2-2-2\-|
   * * * * * * * * * * * * * *
               "No survivors..."


Riff 7a (Solo Rhythm)           x3
e|-------------------------------|
B|-------------------------------|
G|-------------------------------|
D|-----3-----2h3-2-----3-----3-3-|
A|-----3-----2h3-2-----3-----3-3-|
E|-0-0---0-0-------0-0---0-0-----|
   * *   * *       * *   * *
e|------------------|
B|------------------|
G|------------------|
D|-----3-----2h3-2--|
A|-----3-----2h3-2--|
E|-0-0---0-0--------|
   * *   * *
                 "Set the world..."

Solo (Mustaine)
e|-------------------------------------|
B|-------------------------------------|
G|-------------------------------------|
D|-------------------------------------|
A|-------------------------------------|
E|-------------------------------------|

e|-------------------------------------|
B|-------------------------------------|
G|-------------------------------------|
D|-------------------------------------|
A|-------------------------------------|
E|-------------------------------------|

e|-------------------------------------|
B|-------------------------------------|
G|-------------------------------------|
D|-------------------------------------|
A|-------------------------------------|
E|-------------------------------------|

e|-------------------------------------|
B|-------------------------------------|
G|-------------------------------------|
D|-------------------------------------|
A|-------------------------------------|
E|-------------------------------------|

End Solo


RIff 7b (Solo Rhythm)           x8
e|-------------------------------|
B|-------------------------------|
G|-------------------------------|
D|-----3-----2h3-2-----3-----3-3-|
A|-----3-----2h3-2-----3-----3-3-|
E|-0-0---0-0-------0-0---0-0-----|
   * *   * *       * *   * *
  "...afire!"


Riff 6a (Solo Rhythm)             x2
e|---------------------------------|
B|---------------------------------|
G|---------------------------------|
D|-5-5-5-4-4-4---------------------|
A|-3-3-3-2-2-2-5-5-5-4-4-4-4-4-4-4-|
E|-------------3-3-3-2-2-2-2-2-2-2-|
   * * * * * * * * * * * * * * * *
                      "No survivors..."


Solo (Young)
e|-------------------------------------|
B|-------------------------------------|
G|-------------------------------------|
D|-------------------------------------|
A|-------------------------------------|
E|-------------------------------------|

e|-------------------------------------|
B|-------------------------------------|
G|-------------------------------------|
D|-------------------------------------|
A|-------------------------------------|
E|-------------------------------------|

e|-------------------------------------|
B|-------------------------------------|
G|-------------------------------------|
D|-------------------------------------|
A|-------------------------------------|
E|-------------------------------------|

e|-------------------------------------|
B|-------------------------------------|
G|-------------------------------------|
D|-------------------------------------|
A|-------------------------------------|
E|-------------------------------------|

End Solo


Ending:
e|---------------------------------|
B|---------------------------------|
G|-7-------------------------------|
D|-5-----9-----7-----------7/9-----|
A|-------7-----5-----9-----5/7-----|
E|---0-0---0-0---0-0-7-0-0-----0-0-|
     * *   * *   * *   * *     * *
  "...afire!"
e|-----------------------------------|
B|-----------------------------------|
G|-7---------------------------------|
D|-5-----9---7-9----9----9----9----9-|
A|-------7---5-7----7----7----7----7-|
E|---0-0---0-------------------------|
     * *   *
e|-------------------------------------|
B|-------------------------------------|
G|-------------------------------------|
D|-----------------9--------(9)----9\--|
A|-777777777777...-7--------(7)----7\--|
E|---------------------------------7\--|

Notation:

10^        = bend a quarter step.
10b11      = bend a half step.
10b12      = bend a full step.
10b12r10   = bend and release.
[10]12     = pre-bend.
[10]12r10  = pre-bend and release.
{14}       = pick the 14th fret while holding the most
             previous bend.
<17>       = touch the string above the 17th fret while
             previous note(s) is(are) still ringing.

10b13*     = tremolo bar bend, from the 10th fret to the 13th fret.
7d4*       = tremolo bar dive, from the 7th fret to the 4th fret.
12~*       = tremolo bar vibrato.

x   =  mute with fret-hand
*   =  palm mute
X\\ =  pick slide
h   =  hammer-on
p   =  pull-off
~   =  vibrato
t   =  finger tap
/   =  slide up
\   =  slide down
h.  =  natural harmonics
a   =  artificial harmonics
(9) =  ghost note
tm  =  trem picking
tr  =  trill

================================================================
8.Into the Lungs of Hell
tabbed by: Andrew Zara
Band- Megadeth
Song- Into The Lungs Of Hell

Tuning: Standard


Riff 1
Guitar 1 (12-string Acoustic)
e|---------------------------|
B|-2------2------------------|
G|-2--------2---1------1-----|
D|-2----2-----2-2--------2---|
A|-0------------2----2-----2-|
E|--------------0------------|

e|-------------------------------|
B|-------------------------------|
G|-------------------------------|
D|-1------1----------------------|
A|-2--------2---1------1---1---1-|
E|-2----2-----2-2--222-2-2-2-2-2-|
                   ***   *   *
e|---------------------------|
B|-5------5------------------|
G|-5--------5----------4-----|
D|-5----5-----5-5--------5---|
A|-3------------5----5-----5-|
E|--------------3------------|

e|-------------------------------|
B|-------------------------------|
G|-------------------------------|
D|-4------4----------------------|
A|-5--------5---4------4---4---4-|
E|-5----5-----5-5--555-5-5-5-5-5-|
                   ***   *   *

Guitar 2 (Distortion)
e|-----------------------|
B|-----------------------|
G|-----------------------|
D|-2---------------------|
A|-0----x-x-x-2----x-x-x-|
E|------x-x-x-0----x-x-x-|

e|-----------------------------|
B|-----------------------------|
G|-----------------------------|
D|-----------------------------|
A|-2----x-x-x-1--xxx-1-x-1-x-1-|
E|-2----x-x-x-2--xxx-2-x-2-x-2-|
                     *   *   *
e|-----------------------|
B|-----------------------|
G|-----------------------|
D|-5---------------------|
A|-3----x-x-x-5----x-x-x-|
E|------x-x-x-3----x-x-x-|

e|-----------------------------|
B|-----------------------------|
G|-----------------------------|
D|-----------------------------|
A|-5----x-x-x-4--xxx-4-x-4-x-4-|
E|-5----x-x-x-5--xxx-5-x-5-x-5-|
                     *   *   *


Riff 2 (Distortion, flange)
e|---------------------------------|
B|---------------------------------|
G|---------------------------------|
D|-8--------8-10-8-----------------|
A|-6--6-6-6-6--8-6--8--------8-7-6-|
E|------------------6--6-6-6-6-5-4-|
      * * *            * * *
e|--------------------------------|
B|--------------------------------|
G|--------------------------------|
D|-6--------6-8-6-----------------|
A|-4--4-4-4-4-6-4--6--------6-5-4-|
E|-----------------4--4-4-4-4-3-2-|
      * * *           * * *
e|--------------------------------|
B|--------------------------------|
G|--------------------------------|
D|-4--------4-6-4-----------------|
A|-2--2-2-2-2-4-2--4--------4-3-2-|
E|-----------------2--2-2-2-2-1-0-|
      * * *           * * *
e|---------------------------------------|
B|---------------------------------------|
G|---------------------------------------|
D|-2--------2-4-2-----------2-1-0--------|
A|-0--0-0-0-0-2-0--2--------2-1-0--7-6-5-|
E|-----------------0--0-0-0--------5-4-3-|
      * * *           * * *


Riff 3 (Solo Rhythm)       x3
e|--------------------------|
B|--------------------------|
G|--------------------------|
D|--------------------------|
A|--------------------------|
E|-000000000000000000000000-|
   ************************
e|--------------------------|
B|--------------------------|
G|--------------------------|
D|--------------------------|
A|--------------------------|
E|-111111111111111111111111-|
   ************************
e|--------------------------|
B|--------------------------|
G|--------------------------|
D|--------------------------|
A|--------------------------|
E|-000000000000000000000000-|
   ************************
e|--------------------------|
B|--------------------------|
G|--------------------------|
D|--------------------------|
A|--------------------------|
E|-111111111111111111111111-|
   ************************
e|--------------------------|
B|--------------------------|
G|--------------------------|
D|--------------------------|
A|--------------------------|
E|-000000000000000000000000-|
   ************************
e|--------------------------|
B|--------------------------|
G|--------------------------|
D|--------------------------|
A|--------------------------|
E|-111111111111111111111111-|
   ************************


Solo (Mustaine)
e|-------------------------------------|
B|-------------------------------------|
G|-------------------------------------|
D|-------------------------------------|
A|----------12----------------12-------|
E|-12-16-12----16-13-12-16-12----16-13-|

e|----------------------------------|
B|----------------------------------|
G|----------------------------------|
D|----------------------------------|
A|----------12----------------12----|
E|-12-16-12----16-13-12-16-12----16-|

e|-------------------------------------|
B|-------------------------------------|
G|-------------------------------------|
D|-------------------------------------|
A|-14-12-15-14-17-15-14-12-15-14-17-15-|
E|-------------------------------------|

e|-------------------------------------|
B|-------------------------------------|
G|-------------------------------------|
D|-------------------------------------|
A|-14-12-15-14-17-15-14-12-15-14-17-15-|
E|-------------------------------------|

e|-------------------------------------|
B|-------------------------------------|
G|-------------13----14-13-16-14-17-16-|
D|-14-12-15-14----15-------------------|
A|-------------------------------------|
E|-------------------------------------|

e|-------------------------17-16-19-17-19b21-19b21~-|
B|-15-13-17-15-18-13-15-18--------------------------|
G|--------------------------------------------------|
D|--------------------------------------------------|
A|--------------------------------------------------|
E|--------------------------------------------------|

e|-20-20p19p17-19p17\13p12p10--------------------------|
B|---------------------------13p12p10\-----------------|
G|-------------------------------------10p9p7-------9~-|
D|-------------------------------------------10p9p7----|
A|-----------------------------------------------------|
E|-----------------------------------------------------|

e|-----------------------------------------|
B|--------9-10-12-10-9---------------------|
G|-7-9-10--------------10-7-9-10-7-9-10-10-|
D|-----------------------------------------|
A|-----------------------------------------|
E|-----------------------------------------|

e|--------------------------------------|
B|--------------------------------------|
G|--------------------------------------|
D|-------6-7-6---6-7-9-7-6-----6--------|
A|-5-7-8-------8-----------8-7---8-5-7--|
E|--------------------------------------|

e|----------------------------|
B|----------------------------|
G|----------------------------|
D|----------------------------|
A|----------------------------|
E|-7-8--8-7-5-7-5--4--5--7--8-|

e|---------------------------------------|
B|---------------------------------------|
G|---------------------------------------|
D|-6-7-8-7-6-----------------------------|
A|-----------8-7-----------2-------------|
E|---------------5-4-7-5-4-0-[long hold]-|

End Solo


Riff 4
e|--------------------3----------|
B|--------------------3----------|
G|--------------------0----------|
D|-9-----------------------------|
A|-7----2----5-------------5-4-3-|
E|------0----3----333------3-2-1-|
                  ***      * * *

Play Riff 4   Solo Rhythm

Solo (Mustaine, starts with a pick slide)

(Remix/Remaster edition solo)
                              x2
e|-24p0---24p0---24p0---24p0---|
B|------0------0------0------0-|
G|-----------------------------|
D|-----------------------------|
A|-----------------------------|
E|-----------------------------|
                              x2
e|-22p0---22p0---22p0---22p0---|
B|------0------0------0------0-|
G|-----------------------------|
D|-----------------------------|
A|-----------------------------|
E|-----------------------------|

e|-20p0---19p0---17p0---20p0---|
B|------0------0------0------0-|
G|-----------------------------|
D|-----------------------------|
A|-----------------------------|
E|-----------------------------|

e|-19p0---17p0---15p0---14p0---|
B|------0------0------0------0-|
G|-----------------------------|
D|-----------------------------|
A|-----------------------------|
E|-----------------------------|
                              x2
e|-12p0---12p0---12p0---12p0---|
B|------0------0------0------0-|
G|-----------------------------|
D|-----------------------------|
A|-----------------------------|
E|-----------------------------|


(Original studio CD solo)
                                  x2
e|-24t12p7-24t12p7-24t12p7-24t12p7-|
B|---------------------------------|
G|---------------------------------|
D|---------------------------------|
A|---------------------------------|
E|---------------------------------|
                                  x2
e|-22t12p7-22t12p7-22t12p7-22t12p7-|
B|---------------------------------|
G|---------------------------------|
D|---------------------------------|
A|---------------------------------|
E|---------------------------------|

e|-20t12p7-19t12p7-17t12p7-20t12p7-|
B|---------------------------------|
G|---------------------------------|
D|---------------------------------|
A|---------------------------------|
E|---------------------------------|

e|-19t12p7-17t12p7---------------|
B|-----------------20t5p0-19t5p0-|
G|-------------------------------|
D|-------------------------------|
A|-------------------------------|
E|-------------------------------|
                              x2
e|-----------------------------|
B|-17t5p0-17t5p0-17t5p0-17t5p0-|
G|-----------------------------|
D|-----------------------------|
A|-----------------------------|
E|-----------------------------|


End Solo


Riff 5
Guitar 1                  x2
e|-------------------------|
B|-------------------------|
G|-------------------------|
D|----------------5----4-5-|
A|-7----3----7----3----2-3-|
E|-5----1----5-------------|

e|------------------------------------|
B|------------------------------------|
G|------------------------------------|
D|------5------5------5-7-5-4-5-| ----|
A|-7----3-5----3-4----3-5-3-2-3-|  ---|
E|-5------3------2--------------|  ---|
                                    |
e|----------------------------|     |--> Play--| 2x
B|----------------------------|    ------------|
G|----------------------------|    ------------|
D|------5------5------5-7--9--| ---------------|
A|-7----3-5----3-4----3-5--7-------------------|
E|-5------3------2------5--7-------------------|

Guitar 2                  x2
e|-------------------------|
B|-------------------------|
G|----------------5----4-5-|
D|-7---------7-------------|
A|------8------------------|
E|-------------------------|

e|------------------------------------|
B|------------------------------------|
G|------5------5------5-7-5-4-5-------|
D|-7------5------4--------------| ----|
A|------------------------------|  ---|
E|------------------------------|  ---|
                                    |
e|----------------------------|     |--> Play--| 2x
B|----------------------------|    ------------|
G|------5------5------5-------|    ------------|
D|-7------5------4------0--2--| ---------------|
A|---------------------------------------------|
E|---------------------------------------------|


Guitar 3                                         x12
e|-8t5p0-7t5p0-8t5p0-7t5p0-8t5p0-7t5p0-8t5p0-7t5p0-|
B|-------------------------------------------------|
G|-------------------------------------------------|
D|-------------------------------------------------|
A|-------------------------------------------------|
E|-------------------------------------------------|

Riff 5a
Guitar 1
e|--------------------------------|
B|--------------------------------|
G|--------------------------------|
D|------7------7------7-9-7-6-7---|
A|-9----5-7----5-6----5-7-5-4-5---|
E|-7------5------4----------------|
e|--------------------------------|
B|--------------------------------|
G|--------------------------------|
D|------7------7------7-9--11-----|
A|-9----5-7----5-6----5-7---9-----|
E|-7------5------4------7---9-----|

Guitar 2
e|------------------------------|
B|------------------------------|
G|------7------7------7-9-7-6-7-|
D|-9------7------6--------------|
A|------------------------------|
E|------------------------------|

e|-----------------------------|
B|-----------------------------|
G|------7------7------7--------|
D|-9------7------6-------------|
A|----------------------7---9--|
E|-----------------------------|

Guitar 3                                              x4
e|-10t7p0-9t7p0-10t7p0-9t7p0-10t7p0-9t7p0-10t7p0-9t7p0-|
B|-----------------------------------------------------|
G|-----------------------------------------------------|
D|-----------------------------------------------------|
A|-----------------------------------------------------|
E|-----------------------------------------------------|

End Solo


Riff 6
Guitar 1
e|-------------------------------|
B|-------------------------------|
G|-------------------------------|
D|-12------11------12------11----|
A|-10-------9------10-------9----|
E|-------------------------------|

e|-------------------------------|
B|-------------------------------|
G|-------------------------------|
D|-------------------------------|
A|-8--------7-------8-------7----|
E|-6--------5-------6-------6----|

e|-------------------------------|
B|-------------------------------|
G|-------------------------------|
D|-------------------------------|
A|-11------10------11------10----|
E|--9-------8-------9-------8----|

e|-------------------------------------------------|
B|-------------------------------------------------|
G|-------------------------------------------------|
D|-------------------------------------------------|
A|-11----10----11----10----11-10-11-10-11-10-11-10-|
E|--9-----8-----9-----8-----9--8--9--8--9--8--9--8-|


Guitar 2
e|--------------------------------------|
B|--------------------------------------|
G|-12------11------12------14--12-11----|
D|--------------------------------------|
A|--------------------------------------|
E|--------------------------------------|

e|--------------------------------------|
B|--------------------------------------|
G|-15------14------15------17--15-14----|
D|--------------------------------------|
A|--------------------------------------|
E|--------------------------------------|

e|-------------------------------|
B|-14------13------14------13----|
G|-------------------------------|
D|-------------------------------|
A|-------------------------------|
E|-------------------------------|

e|-------------------------------------------------|
B|-14----13----14----13----14-13-14-13-14-13-14-13-|
G|-------------------------------------------------|
D|-------------------------------------------------|
A|-------------------------------------------------|
E|-------------------------------------------------|


Guitar 3 (Original studio version only)
                              x4
e|-12t9p6-12t9p6-12t9p6-12t9p6-|
B|-----------------------------|
G|-----------------------------|
D|-----------------------------|
A|-----------------------------|
E|-----------------------------|
                                  x4
e|-15t12p9-15t12p9-15t12p9-15t12p9-|
B|---------------------------------|
G|---------------------------------|
D|---------------------------------|
A|---------------------------------|
E|---------------------------------|
                                      x8
e|-18t15p12-18t15p12-18t15p12-18t15p12-|
B|-------------------------------------|
G|-------------------------------------|
D|-------------------------------------|
A|-------------------------------------|
E|-------------------------------------|

Guitar 4 (Remix/Remaster edition only)
                                  x4
e|-15t12p0-15t12p0-15t12p0-15t12p0-|
B|---------------------------------|
G|---------------------------------|
D|---------------------------------|
A|---------------------------------|
E|---------------------------------|
                                  x4
e|-18t15p0-18t15p0-18t15p0-18t15p0-|
B|---------------------------------|
G|---------------------------------|
D|---------------------------------|
A|---------------------------------|
E|---------------------------------|
                                  x8
e|-21t18p0-21t18p0-21t18p0-21t18p0-|
B|---------------------------------|
G|---------------------------------|
D|---------------------------------|
A|---------------------------------|
E|---------------------------------|

Ending
e|------------------------|
B|------------------------|
G|------------------------|
D|----------------8----7--|
A|-4----3----2----6----5--|
E|-2----1----0----6----5--|

Notation:

10^        = bend a quarter step.
10b11      = bend a half step.
10b12      = bend a full step.
10b12r10   = bend and release.
[10]12     = pre-bend.
[10]12r10  = pre-bend and release.
{14}       = pick the 14th fret while holding the most
             previous bend.
<17>       = touch the string above the 17th fret while
             previous note(s) is(are) still ringing.

10b13*     = tremolo bar bend, from the 10th fret to the 13th fret.
7d4*       = tremolo bar dive, from the 7th fret to the 4th fret.
12~*       = tremolo bar vibrato.

x   =  mute with fret-hand
*   =  palm mute
X\\ =  pick slide
h   =  hammer-on
p   =  pull-off
~   =  vibrato
t   =  finger tap
/   =  slide up
\   =  slide down
h.  =  natural harmonics
a   =  artificial harmonics
(9) =  ghost note
tm  =  trem picking
tr  =  trill

=================================================================
9.In My Darkest Hour
Megadeth - In My Darkest Hour

 Guitar 1 - Rhythm electric w/distortion
 Guitar 2 - Rhythm electric w/distortion
 Guitar 3 - Acoustic
 Guitar 4 - Lead rhythm electric w/distortion (lead rhythm basicly means Dave Mustaine.)
 Guitar 5 - Lead electric w/distortion & (So I guess we'll say this is Jeff Young.)

bpm = 110

Intro:

 Guitar 3
|-----------0-----|---------0-------|-----------------|-----------------|
|---------0---0---|-------0---0-----|-----------------|-----------------|
|-------7-------7-|-----7-----------|------rest-------|------rest-------|
|-----5-----------|---5-------------|-----------------|-----------------|
|---9-------------|-9---------------|-----------------|-----------------|
|-0---------------|-----------------|-----------------|-----------------|
|                                                                       |
|Guitar 1                                                               |
|-----------0-----|---------0-------|-----------------|-----------------|
|---------0---0---|-------0---0-----|-----------------|-----------------|
|-------7-------7-|-----7-----------|-----------------|-----------------| x2
|-----5-----------|---5-------------|-2---------------|-(2)-------------|
|---9-------------|-9---------------|-2---------------|-(2)-------------|
|-0---------------|-------------0-0-|-0---------------|-(0)-------------|
|pm......           ...         ...                                     |
|Guitar 2                                                               |
|-----------------|-----------------|-----------------|-----------------|
|-----------------|-----------------|-----------------|-----------------|
|-----------------|-----------------|-----------------|-----------------|
|-9---------------|-(9)-------------|---0-4-0-2-0-----|-----------0-4-0-|
|-7---------------|-(7)-------------|-2-----------2-0-|-------0-2-------|
|-0---------------|-(0)---------0-0-|-----------------|-3-2-3-----------|
                              pm...


|-----------0-----|---------5-------|-----------9------|-----------------|
|---------0---0---|-----------5-----|-------------10---|-----------------|
|-------7---------|-------7-----7---|---------9------9-|-------7---------|
|-----5-----------|-5---5---------5-|------11----------|-5---5-----------|
|---9-----------9-|---9-------------|---12-------------|---9-------------|
|-0---------------|-----------------|-9----------------|-----------------|
|                                                                        |
|                                                                        |
|-----------0-----|---------5-------|-----------9------|-----------------|
|---------0---0---|-----------5-----|-------------10---|-----------------|
|-------7---------|-------7-----7---|---------9------9-|-------7---------| x2
|-----5-----------|-5---5---------5-|------11----------|-5---5---2-0-----|
|---9-----------9-|---9-------------|---12-------------|---9---------3-2-|
|-0---------------|-----------------|-9----------------|-----------------|
|pm......       ...........           ..........         .......         |
|                                                                        |
|-----------------|-----------------|------------------|-----------------|
|-----------------|-----------------|------------------|-----------------|
|-----------------|-----------------|------------------|-----------------|
|-9-------------4-|-5-------------5-|-7--------------7-|-5-------2-0-----|
|-7-------------2-|-3-------------3-|-4--------------4-|-3-----------3-2-|
|-0---------------|-----------------|------------------|-----------------|
             pm..              pm..                pm..

 Guitars 1 & 2
|-----------------|-----------------|-----------------|-----------------|
|-----------------|-----------------|-----------------|-----------------|
|-----------------|-----------------|-----------------|-----------------|
|-2-------2-0-----|-3-------2-0-----|-2-------2-0-----|-3-------2-0-----|
|-2-----------3-2-|-3-----------3-2-|-2-----------3-2-|-3-----------3-2-|
|-0---------------|-1---------------|-0---------------|-1---------------|


Pre-verse:

|-----------------|-----------------|-----------------|-----------------|
|-----------------|-----------------|-----------------|-----------------|
|-----------------|-----------------|-----------------|-----------------|
|-2-------2-------|-2-------2-------|-2-------2-------|-2-------2-------|
|-2-------2-------|-2-------2-------|-2-------2-------|-2-------2-------|
|-0-0-0-0-0-0-0-0-|-0-0-0-0-0-0-0-0-|-0-0-0-0-0-0-0-0-|-0-0-0-0-0-0-0-0-|
  pm.....   .....     .....   .....     .....   .....     .....   .....

 Guitars 1 & 2*
|-----------------|-------------------------|
|-----------------|-8-7-6-5-----------------|
|-----------------|---------8-7-6-5---------|
|-2-------5-------|-----------------9-8-7-6-|
|-2-------5-------|-------------------------|
|-0-0-0-0-3-3-3-3-|-------------------------|
| pm.....   .....                           | x 4
|                                           |
|-----------------|-------------------------|
|-----------------|-------8-7-6-5-----------|
|-----------------|---------------8-7-6-5---|
|-2-------5-------|-----------------------9-|
|-2-------5-------|-------------------------|
|-0-0-0-0-3-3-3-3-|-------------------------|
  pm.....   .....

*on this section, both guitars play the top passage, but the tabbed bottom passage shows
the notes caused by the delay affect. So, guitar 2 can play the bottom passage instead.

Verse:

 Guitars 1 & 2
|-----------------|-----------------|-----------------|-----------------|
|-----------------|-----------------|-----------------|-----------------|
|-----------------|-----------------|-----------------|-----------------|
|-2-------2-----4-|-5-------5-----0-|-2-------2-----4-|-5-------5-----0-|
|-2-------2-----2-|-3-------3---2---|-2-------2-----2-|-3-------3---2---|
|-0-0-0-0-0-0-0---|---0-0-0---0-----|-0-0-0-0-0-0-0---|---0-0-0---0-----|
  pm.....   ...       .....   ..        .....   ...       .....   ..


|-----------------|-----------------|-----------------|-----------------|
|-----------------|-----------------|-----------------|-----------------|
|-----------------|-----------------|-----------------|-----------------|
|-2-------2-----8-|-7-------7---9---|-4-------4-------|---------4-------|
|-2-------2---7-6-|-5-------5---7---|-2-------2-------|-5---0-1-2-------|
|-0-0-0-0-0-0-----|---0-0-0---0-----|---0-0-0---0-0-2-|-3-0-------0-3-2-|
  pm.....   ..        .....   ..        .....   .....     ......  .....

Pre-chorus:

 Guitars 1 & 2
|-----------------|-------------------------|
|-----------------|-------------------------|
|-----------------|-------------------------| x2
|-2-------2-----4-|-5-------5---4-2h4p2p0---|
|-2-------2-----2-|-3-----3---3-----------4-|
|-0-0-0-0-0-0-0---|---0-0-------------------|
  pm.....   ...       ......  ..


|-----------------|-----------------------|-----------------------|
|-----------------|-----------------------|-----------------------|
|-2-------2-------|---------4---2-0h2p0---|-2-------4---2-0h2p0---|
|-2-------2-------|-4-------------------4-|-2-------------------4-|
|-0-0-0-0-0-0-3-0-|-2-0-0-2---0-----------|-0-0-0-0---0-----------|
|-----------------|-----------------------|-----------------------|
  pm.....   .....     .....   ..              .....   ..


|-------------------------|-------------------------|
|-------------------------|-------------------------|
|-------------------------|-------------------------|
|-------------------------|-------------7-----------|
|-5-5-5-5-5-5-5-5-5-5-5-5-|-5-5-5-5-5-5-5---8---7---|
|-------------------------|-----------------6---5---|
pm.....................................

Chorus:

 Guitars 1 & 2
|-----------------|-----------------|-----------------|-----------------|
|-----------------|-----------------|-----------------|-----------------|
|-----------------|-----------------|-----------------|-----------------|
|-2-------2-----4-|-5-------5-----5-|-7-------7-----7-|-5-------5-------|
|-2-------2-----2-|-3-------3-----3-|-4-------4-----4-|-3-------3-------|
|-0-0-0-0-0-0-0---|---0-0-0---0-0---|---0-0-0---0-0---|---0-0-0---0-0-0-|
  pm.....   ...       .....   ...       .....   ...       .....   .....


|-----------------|-----------------|-----------------|-----------------|
|-----------------|-----------------|-----------------|-----------------|
|-----------------|-----------------|-----------------|-----------------|
|-2-------2-----4-|-5-------5-----5-|-7-------7-----7-|-5-------5-----0-|
|-2-------2-----2-|-3-------3-----3-|-4-------4-----4-|-3-------3---2---|
|-0-0-0-0-0-0-0---|---0-0-0---0-0---|---0-0-0---0-0---|---0-0-0---0-----|
  pm.....   ...       .....   ...       .....   ...       .....   ..

Interlude:

 Guitars 1 & 2
|---------------------------------|---------------------------|
|---------------------------------|---------------------------|
|---------------------------------|---------------------------|
|-----------------0---------------|-------0-----3----2--------|
|-------------0-1---1-0-----------|---0-1---1-0-1----0----5---|
|-0---0-0-0-3-----------0---0-0-0-|-3---------------------3---|
pm.........             .........

Verse:

 Guitar 4
|-----------------|-----------------|-----------------|-----------------|
|-----------------|-----------------|-----------------|-----------------|
|-------rest------|-------rest------|-------rest------|-----------------|
|-----------------|-----------------|-----------------|-------------0-2-|
|-----------------|-----------------|-----------------|-----------------|
|-----------------|-----------------|-----------------|-----------------|
|                                                                       |
|Guitars 1 & 2                                                          |
|-----------------|-----------------|-----------------|-----------------|
|-----------------|-----------------|-----------------|-----------------|
|-----------------|-----------------|-----------------|-----------------|
|-2-------2-----4-|-5-------5-----5-|-7-------7-----7-|-5-------5-------|
|-2-------2-----2-|-3-------3-----3-|-4-------4-----4-|-3-------3-------|
|-0-0-0-0-0-0-0---|---0-0-0---0-0---|---0-0-0---0-0---|---0-0-0---0-0-0-|
  pm.....   ...       .....   ...       .....   ...       .....   .....


|-------------------------|-------------------------|
|-------------------------|-------------------------|
|-------------------------|-------------------------|
|-------2-0-2-------2-0-2-|-------2-0-2-------2-0-2-|
|-2-----------2-----------|-3-----------3-----------|
|---3-0---------3-0-------|---3-0---------3-0-------|
|                         |                         |
|                         |                         |
|-------------------------|-------------------------|
|-------------------------|-------------------------|
|-------------------------|-------------------------|
|-2-----------2--------4--|-5-----------5--------5--|
|-2-----------2--------2--|-3-----------3--------3--|
|-0--0--0--0--0--0--0-----|----0--0--0-----0--0-----|
   pm.......     ....          .......     ....
                                                        x2

|-------------------------|-------------------------|
|-------------------------|-------------------------|
|-------------------------|-------------------------|
|-------2-0-2-------2-0-2-|-------2-0-2-------2-0-2-|
|-4-----------4-----------|-3-----------3-----------|
|---3-0---------3-0-------|---3-0---------3-0-------|
|                         |                         |
|                         |                         |
|-------------------------|-------------------------|
|-------------------------|-------------------------|
|-------------------------|-------------------------|
|-7-----------7--------7--|-5-----------5-----------|
|-4-----------4--------4--|-3-----------3-----------|
|----0--0--0-----0--0-----|----0--0--0----0--0--0---|
   pm.......     ....          .......    .......

Breakdown:

 Guitars 1 & 2
|-----------------------|---------------------------|
|-----------------------|---------------------------|
|-----------------------|---------------------------|
|-2---------------(2)-4-|-5---------5---4-2h4p2p0---|
|-2---------------(2)-2-|-3-------3---3-----------4-|
|-0---------------(0)---|---------------------------|
                                pm..  ..


|-----------------------|---------------------------|
|-----------------------|---------------------------|
|-----------------------|---------------------------|
|-2-------------------4-|-5---------5---4-2h4p2p0---|
|-2-------------------2-|-3-------3---3-----------4-|
|-0---0-0-0-0-0-0-0-0---|-----0-0-------------------|
    pm...............         ......  ..


|-----------------------|---------------------------|
|-----------------------|---------------------------|
|-----------------------|---------------------------|
|-2---------------(2)-4-|-5---------5---4-2h4p2p0---|
|-2---------------(2)-2-|-3-------3---3-----------4-|
|-0---------------(0)---|---------------------------|
                                pm..  ..

|-----------------------|-------------------------|
|-----------------------|-------------------------|
|-----------------------|-------------------------|
|-7---------------(7)---|-------------------------|
|-4---------------(4)-5-|-5-5-5-5-5-5-5-5-5-5-5-5-|
|-----------------------|-------------------------|
                    pm...........................


|-----------------------|
|-----------------------|
|-----------------------|
|-------------7---------|
|-5-5-5-5-5-5-5---8---7-|
|-----------------6---5-|
pm...........

bpm = 210

Breakdown:

 Guitar 4
|-------------------------|-------------------------|-------------------------|
|-------------------------|-------------------------|-------------------------|
|-----------0h2p1p0-------|-----------0h2p1p0-------|-----------0h2p1p0-------|
|-----0h1h2---------2p1p0-|-----0h1h2---------2p1p0-|-----0h1h2---------2p1p0-|
|-------------------------|-------------------------|-------------------------|
|-------------------------|-------------------------|-------------------------|
|                                                                             |
|Guitars 1 & 2                                                                |
|-------------------------|-------------------------|-------------------------|
|-------------------------|-------------------------|-------------------------|
|-------------------------|-------------------------|-------------------------|
|-2-2---------------------|-3-3---------------------|-4-4---------------------|
|-2-2---------------------|-3-3---------------------|-4-4---------------------|
|-0-0---------------------|-1-1---------------------|-2-2---------------------|


|-------------------------|-------------------------|-------------------------|
|-------------------------|-------------------------|-------------------------|
|-----------0h2p1p0-------|-----------0h2p1p0-------|-----------0h2p1p0-------|
|-----0h1h2---------2p1p0-|-----0h1h2---------2p1p0-|-----0h1h2---------2p1p0-|
|-------------------------|-------------------------|-------------------------|
|-------------------------|-------------------------|-------------------------|
|                                                                             |
|                                                                             |
|-------------------------|-------------------------|-------------------------|
|-------------------------|-------------------------|-------------------------|
|-------------------------|-------------------------|-------------------------|
|-5-5---------------------|-2-2---------------------|-3-3---------------------|
|-5-5---------------------|-2-2---------------------|-3-3---------------------|
|-3-3---------------------|-0-0---------------------|-1-1---------------------|

|-------------------------|-------------------------|-------------------------|
|-------------------------|-------------------------|-------------------------|
|-----------0h2p1p0-------|-----------0h2p1p0-------|---------rest------------|
|-----0h1h2---------2p1p0-|-----0h1h2---------2p1p0-|-------------------------|
|-------------------------|-------------------------|-------------------------|
|-------------------------|-------------------------|-------------------------|
|                                                                             |
|                                                                             |
|-------------------------|-------------------------|-------------------------|
|-------------------------|-------------------------|-------------------------|
|-------------------------|-------------------------|-------------------------|
|-4-4---------------------|-5-5-------------------2-|-(2)-------------------3-|
|-4-4---------------------|-5-5-------------------2-|-(2)-------------------3-|
|-2-2---------------------|-3-3-------------------0-|-(0)-0--0--0--0--0--0--1-|
                                                        pm................


|-------------------------|-------------------------|-------------------------|
|-------------------------|-------------------------|-------------------------|
|---------rest------------|---------rest------------|----------rest-----------|
|-------------------------|-------------------------|-------------------------|
|-------------------------|-------------------------|-------------------------|
|-------------------------|-------------------------|-------------------------|
|                                                                             |
|                                                                             |
|-------------------------|-------------------------|-------------------------|
|-------------------------|-------------------------|-------------------------|
|-------------------------|-------------------------|-------------------------|
|-(3)-------------------4-|-(4)-------------------5-|-(5)-------------------2-|
|-(3)-------------------4-|-(4)-------------------5-|-(5)-------------------2-|
|-(1)-1--1--1--1--1--1--2-|-(2)-2--2--2--2--2--2--3-|-(3)-3--3--3--3--3--3--0-|
    pm................          ................          ................


|-------------------------|-------------------------|-------------------------|
|-------------------------|-------------------------|-------------------------|
|-------------------------|-------------------------|-------------------------|
|-(2)-------------------3-|-(3)-------------------4-|-(4)-------------------5-|
|-(2)-------------------3-|-(3)-------------------4-|-(4)-------------------5-|
|-(0)-0--0--0--0--0--0--1-|-(1)-1--1--1--1--1--1--2-|-(2)-2--2--2--2--2--2--3-|
    pm................          ................          ................

Guitar solo 1:
                      pb17
|----------------------19-|-(19)r(17)-12h17p12----12----12-------------|
|-------------------------|--------------------15----17----15p12----12-|
|-------------------------|--------------------------------------15----|
|-------------------------|--------------------------------------------|
|-------------------------|--------------------------------------------|
|-------------------------|--------------------------------------------|
|                                                                      |
|                                                                      |
|-------------------------|--------------------------------------------|
|-------------------------|--------------------------------------------|
|-------------------------|--------------------------------------------|
|-(5)-------------------2-|-(2)--------------------------------------3-|
|-(5)-------------------2-|-(2)--------------------------------------3-|
|-(3)-3--3--3--3--3--3--0-|-(0)---0-----0-----0-----0-----0-----0----1-|
    pm................            ...............................


|----------------------------------------|
|-17p15p12-15p12-------------------12----|
|----------------14p12-15p14p12-14----15-|
|----------------------------------------|
|----------------------------------------|
|----------------------------------------|
|                                        |
|                                        |
|----------------------------------------|
|----------------------------------------|
|----------------------------------------|
|-(3)----------------------------------4-|
|-(3)----------------------------------4-|
|-(1)----1----1----1----1----1----1----2-|
       pm..........................


|------------------------------------------------|
|-------------------12h14------------------------|
|-14p12-14p12-14h15-------0h15p14p12-14h15p14p12-|
|------------------------------------------------|
|------------------------------------------------|
|------------------------------------------------|
|                                                |
|                                                |
|------------------------------------------------|
|------------------------------------------------|
|------------------------------------------------|
|-(4)-----------------------------------------5--|
|-(4)-----------------------------------------5--|
|-(2)-----2-----2-----2-----2-----2-----2-----3--|
        pm...............................


|-------------------------------------------------|
|-------------------------------------------------|
|-13p12-------------------------------------------|
|-------14-13-12-12-14-13-12-12-13-13-14-13-12-13-|
|-------------------------------------------------|
|-------------------------------------------------|
|                                                 |
|                                                 |
|-------------------------------------------------|
|-------------------------------------------------|
|-------------------------------------------------|
|-(5)-------------------------------------------2-|
|-(5)-------------------------------------------2-|
|-(3)----3-----3-----3-----3------3------3------0-|
       pm.................................


|-------------------------------------------------|
|-------------------------------------------------|
|----------12h13-12h13-12h14p13p12----12h14h15h16-|
|-12g13----------------------------14-------------|
|-------14----------------------------------------|
|-------------------------------------------------|
|                                                 |
|                                                 |
|-------------------------------------------------|
|-------------------------------------------------|
|-------------------------------------------------|
|-(2)-------------------------------------------3-|
|-(2)-------------------------------------------3-|
|-(0)---0------0------0------0------0------0----1-|
      pm....................................


|-------------------------------12h15-12----------|
|-14p12-15-17p15p12----12h15h16------------12h15--|
|-------------------15----------------------------|
|-------------------------------------------------|
|-------------------------------------------------|
|-------------------------------------------------|
|                                                 |
|                                                 |
|-------------------------------------------------|
|-------------------------------------------------|
|-------------------------------------------------|
|-(3)-------------------------------------------4-|
|-(3)-------------------------------------------4-|
|-(1)---1------1------1------1------1------1----2-|
      pm....................................


|----12----------------12---15p12---15p12-15-|
|-15----15p12-15p12-15------------0----------|
|--------------------------------------------|
|--------------------------------------------|
|--------------------------------------------|
|--------------------------------------------|
|                                            |
|                                            |
|--------------------------------------------|
|--------------------------------------------|
|--------------------------------------------|
|-(4)--------------------------------------5-|
|-(4)--------------------------------------5-|
|-(2)---2-----2-----2-----2-----2-----2----3-|
      pm...............................


|-17p15p12----------12h15h17-------12-17b(19)~|
|----------12h15h17----------12h15------------|
|---------------------------------------------|
|---------------------------------------------|
|---------------------------------------------|
|---------------------------------------------|
|                                             |
|                                             |
|---------------------------------------------|
|---------------------------------------------|
|---------------------------------------------|
|-(5)---------------------------------------2-|
|-(5)---------------------------------------2-|
|-(3)----3-----3-----3-----3-----3-----3----0-|
       pm...............................


|-(19)~~~~~~~~~~~~~~~~~~~~|~(19)~~~~~~~~~~~~~~~~~~~~|~(19)~~~~~~~~~~~~~~~~~~~~|
|-------------------------|-------------------------|----------fade-----------|
|-------------------------|-------------------------|-------------------------|
|-------------------------|-------------------------|-------------------------|
|-------------------------|-------------------------|-------------------------|
|-------------------------|-------------------------|-------------------------|
|                                                                             |
|                                                                             |
|-------------------------|-------------------------|-------------------------|
|-------------------------|-------------------------|-------------------------|
|-------------------------|-------------------------|-------------------------|
|-(2)----------------4--5-|-(5)-------------------2-|-(2)----------------5--4-|
|-(2)----------------2--3-|-(3)-3--3--3--3--2--1--0-|-(0)-0--0--0--0--0--3--2-|
|-(0)-0--0--0--0--0-------|-------------------------|-------------------------|
    pm.............             ................          .............


|-------------------------|-------------------------|-------------------------|
|-------------------------|-------------------------|-------------------------|
|-------------------------|-------------------------|-------------------------|
|-(4)-------------------9-|-(9)-------------------5-|-(5)-------------------2-|
|-(2)-2--2--2--2--5--6--7-|-(7)-7--7--7--7--6--5--3-|-(3)-3--3--3--3--2--1--0-|
|-------------------------|-------------------------|-------------------------|
    pm................          ................          ................


|-------------------------|-------------------------|
|-------------------------|-------------------------|
|-------------------------|-------------------------|
|-(2)-------------------4-|-(4)---------------------|
|-(0)-0--0--0--0--2--3--2-|-(2)-2--2--2--2--1--0--2-|
|-------------------------|-----------------------0-|
    pm................          ................

 Guitar 4
|-------------------------|-------------------------|-------------------------|
|-----------14b(15)----\--|-----------14b(15)----\--|-----------14b(15)---14--|
|-----------14b(16)----\--|-----------14b(16)----\--|-----------14b(16)---14--|
|-------------------------|-------------------------|-------------------------|
|-------------------------|-------------------------|-------------------------|
|-------------------------|-------------------------|-------------------------|
|                                                                             |
|Guitars 1 & 2                                                                |
|-------------------------|-------------------------|-------------------------|
|-------------------------|-------------------------|-------------------------|
|-------------------------|-------------------------|-------------------------|
|-(2)----------------4--5-|-(5)-------------------2-|-(2)----------------5--4-|
|-(2)----------------2--3-|-(3)-3--3--3--3--2--1--0-|-(0)-0--0--0--0--0--3--2-|
|-(0)-0--0--0--0--0-------|-------------------------|-------------------------|
    pm.............             ................          .............


|-------------------------|-------------------------|-------------------------|
|--------------14\----15--|-(15)-\------------------|---------------------12/-|
|--------------14\----14b-|-(16)-\------------------|-------------------------|
|-------------------------|-------------------------|-------------------------|
|-------------------------|-------------------------|-------------------------|
|-------------------------|-------------------------|-------------------------|
|                                                                             |
|                                                                             |
|-------------------------|-------------------------|-------------------------|
|-------------------------|-------------------------|-------------------------|
|-------------------------|-------------------------|-------------------------|
|-(4)-------------------9-|-(9)-------------------5-|-(5)-------------------2-|
|-(2)-2--2--2--2--5--6--7-|-(7)-7--7--7--7--6--5--3-|-(3)-3--3--3--3--2--1--0-|
|-------------------------|-------------------------|-------------------------|
    pm................          ................          ................

  *-3       -2      -1      -1   -1   -1   -1   -1        *(w/whammy bar)
   \/       \/      \/      \/   \/   \/   \/   \/
|-------------------------|-------------------------|
|-/24-------23------22----|-19---18---15---14---12--|
|-------------------------|-------------------------|
|-------------------------|-------------------------|
|-------------------------|-------------------------|
|-------------------------|-------------------------|
|                         |                         |
|                         |                         |
|-------------------------|-------------------------|
|-------------------------|-------------------------|
|-------------------------|-------------------------|
|-(2)-------------------4-|-(4)---------------------|
|-(0)-0--0--0--0--2--3--2-|-(2)-2--2--2--2--1--0--2-|
|-------------------------|-----------------------0-|
    pm................          ................

  \
   \-3/
|-------------------------|-------------------------|-------------------------|
|-14----------------------|-------------------------|-------------------------|
|-------------------------|---------rest------------|---------rest------------|
|-------------------------|-------------------------|-------------------------|
|-------------------------|-------------------------|-------------------------|
|-------------------------|-------------------------|-------------------------|
|                                                                             |
|                                                                             |
|-------------------------|-------------------------|-------------------------|
|-------------------------|-------------------------|-------------------------|
|-------------------------|-------------------------|-------------------------|
|-(2)----------------4--5-|-(5)-------------------2-|-(2)----------------5--4-|
|-(2)----------------2--3-|-(3)-3--3--3--3--2--1--0-|-(0)-0--0--0--0--0--3--2-|
|-(0)-0--0--0--0--0-------|-------------------------|-------------------------|
    pm.............             ................          .............


|-------------------------|-------------------------|-------------------------|
|-------------------------|-------------------------|-------------------------|
|-------------------------|-------------------------|-------------------------|
|-(4)-------------------9-|-(9)-------------------5-|-(5)-------------------2-|
|-(2)-2--2--2--2--5--6--7-|-(7)-7--7--7--7--6--5--3-|-(3)-3--3--3--3--2--1--0-|
|-------------------------|-------------------------|-------------------------|
    pm................          ................          ................

Guitar solo 2:

 Guitar 5 (w/delay)
|-------------------------|-------------------------|
|-------------------------|-------------------------|
|---------rest------------|-------------------------|
|-------------------------|-------------------------|
|-------------------------|-------------------------|
|-------------------------|-----------------3h4p3h4-|
|                         |                         |
|Guitars 1 & 2            |                         |
|-------------------------|-------------------------|
|-------------------------|-------------------------|
|-------------------------|-------------------------|
|-(2)-------------------4-|-(4)-------------------2-|
|-(0)-0--0--0--0--2--3--2-|-(2)-2--2--2--2--1--0--0-|
|-------------------------|-------------------------|
    pm................          ................


|---------------------------------|---------------------------------|
|---------------------------------|----------------------8h9h10p9p8-|
|---------------------------------|-----5h6h7/8h9p8h9h10------------|
|-----------------------5h6h7p6p5h|-6h7-----------------------------|
|---3h4h5/4h5h6/7p5h6h7-----------|---------------------------------|
|-5-------------------------------|---------------------------------|
|                                 |                                 |
|                                 |                                 |
|---------------------------------|---------------------------------|
|---------------------------------|---------------------------------|
|---------------------------------|---------------------------------|
|-(2)---------------------------3-|-(3)---------------------------5-|
|-(0)---0---0---0---0---0---0---1-|-(1)---0---0---0---0---0---0---3-|
|---------------------------------|---------------------------------|
      pm.....................             .....................
                                        -1
                                        \/
|---------------------------------|---------------------------------|
|-9\6h8p5h6h7h8/10~~~~~~~~~~~~~~~-|-(10)-8/12h15~~~~~~~~~~~~~-------|
|---------------------------------|-----------------------------<3>-|
|---------------------------------|---------------------------------|
|---------------------------------|---------------------------------|
|---------------------------------|---------------------------------|
|                                 |                                 |
|                                 |                                 |
|---------------------------------|---------------------------------|
|---------------------------------|---------------------------------|
|---------------------------------|---------------------------------|
|-(5)--------------------------10-|-(10)----------9--(9)----------2-|
|-(3)---0---0---0---0---0---0--8--|-(8)---0---0---7--(7)--0---0---0-|
|---------------------------------|---------------------------------|
      pm.....................             .....           .....

                           +3
                 -1       /  \
\*  -3    -2     / \     /    \
 \  / \   / \   /   \   /      \
-5\/ -5\ / -4\ /   -3\------------------------------------------------|        \
|---------------------------------|-----------------------------------|
|---------------------------------|-----------------------------------|
|*(3)-(3)--(3)-----(3)--------(3)-|-----5-5-5-7-7-7-5-5-4-4-----------|
|---------------------------------|-------------------------7-7-5-5---|
|---------------------------------|-----------------------------------|
|---------------------------------|-----------------------------------|
|                                 |   pm............................|
|                                 |                                 |
|---------------------------------|---------------------------------|
|---------------------------------|---------------------------------|
|---------------------------------|---------------------------------|
|-(2)---------------------------3-|-(3)---------------------------5-|
|-(0)---0---0---0---0---0---0---1-|-(1)---0---0---0---0---0---0---3-|
|---------------------------------|---------------------------------|
      pm.....................             .....................

*(whammy bar dives, listen to record for exact articulation)


|---------------------------------|---------------------------------|
|---------------------------------|---------------------------------|
|---------------------------------|---------------------------------|
|-3-3-----------------------------|-------------------------10-9h10-|
|-----7-7-5-5-3-3-----------------|---------------------------------|
|-----------------7-7-3-3-3-3-5---|-(5)~~~~~~~~~~(5)~~~~~~~---------|
|pm..........                     |                                 |
|                                 |                                 |
|---------------------------------|---------------------------------|
|---------------------------------|---------------------------------|
|---------------------------------|---------------------------------|
|-(5)--------------------------10-|-(10)----------9--(9)----------2-|
|-(3)---0---0---0---0---0---0--8--|-(8)---0---0---7--(7)--0---0---0-|
|---------------------------------|---------------------------------|
      pm.....................             .....           .....


|--------------------------------------------------|
|--------------------------------------------------|
|-9-12p9------------9-12p9----------11-14p11-11----|
|--------10-10-9h10--------12-11h12-------------12-|
|--------------------------------------------------|
|--------------------------------------------------|
|                                                  |
|                                                  |
|--------------------------------------------------|
|--------------------------------------------------|
|--------------------------------------------------|
|-(2)--------------------------------------------3-|
|-(0)----0------0------0------0------0------0----1-|
|--------------------------------------------------|
       pm....................................

                                             ph
|------------------------------------------------|
|------------------------------------------------|
|----12-16p12-12-------12-16-17-14-----------17--|
|-14-------------14-14-------------15-14-15------|
|------------------------------------------------|
|------------------------------------------------|
|                                                |
|                                                |
|------------------------------------------------|
|------------------------------------------------|
|------------------------------------------------|
|-(3)-----------------------------------------5--|
|-(1)-----0-----0-----0-----0-----0-----0-----3--|
|------------------------------------------------|
        pm...............................

                                                            ph
|---------------------------------|---------------------------------|
|---------------------------------|---------------------------------|
|-(17)~~~~~~~~~~~~~~~~~-----------|---------------------------------|
|-----------------------15-15-14--|----------------14---15--14b(15)-|
|---------------------------------|-17---15---17--------------------|
|---------------------------------|---------------------------------|
|                                 |                                 |
|                                 |                                 |
|---------------------------------|---------------------------------|
|---------------------------------|---------------------------------|
|---------------------------------|---------------------------------|
|-(5)--------------------------10-|-(10)----------9--(9)----------2-|
|-(3)---0---0---0---0---0---0--8--|-(8)---0---0---7--(7)--0---0---0-|
|---------------------------------|---------------------------------|
      pm.....................             .....           .....


|---------------------------------|---------------------------------|
|---------------------------------|---------------------------------|
|---------------------------------|-12~~~~~-------------------------|
|-(14)~~~~---------------12-14-14-|---------------------------15-17-|
|---------------12-14-15----------|------------------15-17-19-------|
|---------13-15-------------------|---------15-17-19----------------|
|       pm....................... |       pm........................|
|                                 |                                 |
|---------------------------------|---------------------------------|
|---------------------------------|---------------------------------|
|---------------------------------|---------------------------------|
|-(2)---------------------------3-|-(3)---------------------------5-|
|-(0)---0---0---0---0---0---0---1-|-(1)---0---0---0---0---0---0---3-|
|---------------------------------|---------------------------------|
      pm.....................             .....................


|----------------------------------------17-20b(22)-|
|----------------------------16-17-19-20------------|
|-------------------16-17-19------------------------|
|-17p15----15-17-19---------------------------------|
|-------19------------------------------------------|
|---------------------------------------------------|
|                                                   |
|                                                   |
|---------------------------------------------------|
|---------------------------------------------------|
|---------------------------------------------------|
|-(5)--------------------------------------------10-|
|-(3)----0------0------0------0------0-----0-----8--|
|---------------------------------------------------|
       pm...................................


|-(22)---20----19----17--------------|
|--------------------------20----17--|
|------------------------------------|
|------------------------------------|
|------------------------------------|
|------------------------------------|
|                                    |
|                                    |
|------------------------------------|
|------------------------------------|
|------------------------------------|
|-(10)----------9---(9)------------2-|
|-(8)---0---0---7---(7)---0---0----0-|
|------------------------------------|
      pm.....             .....


|---------------------------------|---------------------------------|
|-20b----------(22)-------r(20)---|-(20b)--------(23)----------(20)-|
|---------------------------------|---------------------------------|
|---------------------------------|---------------------------------|
|---------------------------------|---------------------------------|
|---------------------------------|---------------------------------|
|                                 |                                 |
|Guitar 4                         |                                 |
|---------------------------------|---------------------------------|
|---------------------------------|---------------------------------|
|---------------------------------|---------------------------------|
|-[7]--[6]--[5]-------------------|-[7]--[6]--[5]-------------------|
|------------------[7]--[6]--[5]--|------------------[7]--[6]--[5]--|
|---------------------------------|---------------------------------|
|                                 |                                 |
|                                 |                                 |
|---------------------------------|---------------------------------|
|---------------------------------|---------------------------------|
|---------------------------------|---------------------------------|
|-(2)---------------------------3-|-(3)---------------------------5-|
|-(0)---0---0---0---0---0---0---1-|-(1)---0---0---0---0---0---0---3-|
|---------------------------------|---------------------------------|
      pm.....................             .....................


|---------------------------------|---------------------------------|
|-(20b)--------(24)-------r(23)---|-r(22)-------r(21)---------r(20)-|
|---------------------------------|---------------------------------|
|---------------------------------|---------------------------------|
|---------------------------------|---------------------------------|
|---------------------------------|---------------------------------|
|                                 |                                 |
|                                 |                                 |
|---------------------------------|---------------------------------|
|---------------------------------|---------------------------------|
|---------------------------------|-----------------[5]-------------|
|-[7]--[6]--[5]-------------------|-[7]--[5]-------------[7]--[5]---|
|------------------[7]--[6]--[5]--|-----------[7]-------------------|
|---------------------------------|---------------------------------|
|                                 |                                 |
|                                 |                                 |
|---------------------------------|---------------------------------|
|---------------------------------|---------------------------------|
|---------------------------------|---------------------------------|
|-(5)--------------------------10-|-(10)----------9--(9)----------2-|
|-(3)---0---0---0---0---0---0--8--|-(8)---0---0---7--(7)--0---0---0-|
|---------------------------------|---------------------------------|
      pm.....................             .....           .....

**\                        **\
   \2                         \3
|---------------------------------|---------------------------------|
|-(20)*w/feedback-------------<7>-|-(7)-----------(7)-----------(7)-|
|---------------------------------|---------------------------------|
|---------------------------------|---------------------------------|
|---------------------------------|---------------------------------|
|---------------------------------|---------------------------------|
|                                 |                                 |
|                                 |                                 |
|---------------------------------|---------------------------------|
|---------------------------------|---------------------------------|
|---------------------------------|---------------------------------|
|-[7]--[6]--[5]-------------------|-[7]--[6]--[5]-------------------|
|------------------[7]--[6]--[5]--|------------------[7]--[6]--[5]--|
|---------------------------------|---------------------------------|
|                                 |                                 |
|---------------------------------|---------------------------------|
|---------------------------------|---------------------------------|
|---------------------------------|---------------------------------|
|-(2)---------------------------3-|-(3)---------------------------5-|
|-(0)---0---0---0---0---0---0---1-|-(1)---0---0---0---0---0---0---3-|
|---------------------------------|---------------------------------|
      pm.....................             .....................

                           **\
                              \6
|---------------------------------|---------------------------------|
|-(7)-----------------------------|---------------------------------|
|----------------------------<3>--|--(3)-----------(3)---------(3)--|
|---------------------------------|---------------------------------|
|---------------------------------|---------------------------------|
|---------------------------------|---------------------------------|
|                                 |                                 |
|                                 |                                 |
|---------------------------------|---------------------------------|
|---------------------------------|---------------------------------|
|---------------------------------|---------------------------------|
|-[7]--[6]--[5]-------------------|---------------------------------|
|------------------[7]--[6]--[5]--|-----------[5]--------------[5]--|
|---------------------------------|-[8]--[5]---------[8]--[5]-------|
|                                 |                                 |
|                                 |                                 |
|---------------------------------|---------------------------------|
|---------------------------------|---------------------------------|
|---------------------------------|---------------------------------|
|-(5)--------------------------10-|-(10)----------9--(9)----------2-|
|-(3)---0---0---0---0---0---0--8--|-(8)---0---0---7--(7)--0---0---0-|
|---------------------------------|---------------------------------|
      pm.....................             .....           .....

(** indicates gradual dives over notated duration)


|---------------------------------|---------------------------------|
|---------------------------------|---------------------------------|
|---------------------------------|---------------------------------|
|-[7]--[6]--[5]-------------------|-[7]--[6]--[5]-------------------|
|------------------[7]--[6]--[5]--|------------------[7]--[6]--[5]--|
|---------------------------------|---------------------------------|
|                                 |                                 |
|                                 |                                 |
|---------------------------------|---------------------------------|
|---------------------------------|---------------------------------|
|---------------------------------|---------------------------------|
|-(2)---------------------------3-|-(3)---------------------------5-|
|-(0)---0---0---0---0---0---0---1-|-(1)---0---0---0---0---0---0---3-|
|---------------------------------|---------------------------------|
      pm.....................             .....................


|---------------------------------|---------------------------------|
|---------------------------------|---------------------------------|
|---------------------------------|-----------------[5]-------------|
|-[7]--[6]--[5]-------------------|-[7]--[5]-------------[7]--[5]---|
|------------------[7]--[6]--[5]--|-----------[7]-------------------|
|---------------------------------|---------------------------------|
|                                 |                                 |
|                                 |                                 |
|---------------------------------|---------------------------------|
|---------------------------------|---------------------------------|
|---------------------------------|---------------------------------|
|-(5)--------------------------10-|-(10)----------9--(9)----------2-|
|-(3)---0---0---0---0---0---0--8--|-(8)---0---0---7--(7)--0---0---0-|
|---------------------------------|---------------------------------|
      pm.....................             .....           .....


|---------------------------------|---------------------------------|
|---------------------------------|---------------------------------|
|---------------------------------|---------------------------------|
|-[7]--[6]--[5]-------------------|-[7]--[6]--[5]-------------------|
|------------------[7]--[6]--[5]--|------------------[7]--[6]--[5]--|
|---------------------------------|---------------------------------|
|                                 |                                 |
|                                 |                                 |
|---------------------------------|---------------------------------|
|---------------------------------|---------------------------------|
|---------------------------------|---------------------------------|
|-(2)---------------------------3-|-(3)---------------------------5-|
|-(0)---0---0---0---0---0---0---1-|-(1)---0---0---0---0---0---0---3-|
|---------------------------------|---------------------------------|
      pm.....................             .....................


|---------------------------------|---------------------------------|
|---------------------------------|---------------------------------|
|---------------------------------|---------------------------------|
|-[7]--[6]--[5]-------------------|---------------------------------|
|------------------[7]--[6]--[5]--|-----------[5]--------------[5]--|
|---------------------------------|-[8]--[5]---------[8]--[5]-------|
|                                 |                                 |
|                                 |                                 |
|---------------------------------|---------------------------------|
|---------------------------------|---------------------------------|
|---------------------------------|---------------------------------|
|-(5)--------------------------10-|-(10)----------9--(9)----------2-|
|-(3)---0---0---0---0---0---0--8--|-(8)---0---0---7--(7)--0---0---0-|
|---------------------------------|---------------------------------|
      pm.....................             .....           .....


|-----------------|-------------------|-------------------|-------------------|
|-----------------|-------------------|-------------------|-------------------|
|-----------------|-------rest--------|-------rest--------|-------rest--------|
|-----------------|-------------------|-------------------|-------------------|
|-[5]-------------|-------------------|-------------------|-------------------|
|-----------------|-------------------|-------------------|-------------------|
|                                                                             |
|                                                                             |
|-----------------|-------------------|-------------------|-------------------|
|-----------------|-------------------|-------------------|-------------------|
|-----------------|-------------------|-------------------|-------------------|
|-2-------------3-|-(3)-------------4-|-(4)-------------5-|-(5)-------------2-|
|-2-------------3-|-(3)-------------4-|-(4)-------------5-|-(5)-------------2-|
|-0-0-0-0-0-0-0-1-|-(1)-1-1-1-1-1-1-2-|-(2)-2-2-2-2-2-2-3-|-(3)-3-3-3-3-3-3-0-|
  pm...........         ...........         ...........         ...........


|-------------------|-------------------|-------------------|-------------------|
|-------------------|-------------------|-------------------|-------------------|
|-------rest--------|-------rest--------|-------rest--------|-------rest--------|
|-------------------|-------------------|-------------------|-------------------|
|-------------------|-------------------|-------------------|-------------------|
|-------------------|-------------------|-------------------|-------------------|
|                                                                               |
|                                                                               |
|-------------------|-------------------|-------------------|-------------------|
|-------------------|-------------------|-------------------|-------------------|
|-------------------|-------------------|-------------------|-------------------|
|-(2)-------------3-|-(3)-------------4-|-(4)-------------5-|-(5)-------------2-|
|-(2)-------------3-|-(3)-------------4-|-(4)-------------5-|-(5)-------------2-|
|-(0)-0-0-0-0-0-0-1-|-(1)-1-1-1-1-1-1-2-|-(2)-2-2-2-2-2-2-3-|-(3)-3-3-3-3-3-3-0-|
    pm...........         ...........         ...........         ...........


|-------------------|-------------------|-------------------|-------------------|
|-----5-5-5-5-------|------6-6-6-6-6----|------7-7-7-7-7-7--|------8-8-8-8-8-8--|
|-----4-4-4-4-------|------5-5-5-5-5----|------6-6-6-6-6-6--|------7-7-7-7-7-7--|
|-------------------|-------------------|-------------------|-------------------|
|-------------------|-------------------|-------------------|-------------------|
|-------------------|-------------------|-------------------|-------------------|
|                                                                               |
|                                                                               |
|-------------------|-------------------|-------------------|-------------------|
|-------------------|-------------------|-------------------|-------------------|
|-------------------|-------------------|-------------------|-------------------|
|-(2)-------------3-|-(3)-------------4-|-(4)-------------5-|-(5)-------------6-|
|-(2)-------------3-|-(3)-------------4-|-(4)-------------5-|-(5)-------------6-|
|-(0)-0-0-0-0-0-0-1-|-(1)-1-1-1-1-1-1-2-|-(2)-2-2-2-2-2-2-3-|-(3)-3-3-3-3-3-3-4-|
    pm...........         ...........         ...........         ...........


|-------------------|-------------------|-------------------|-------------------|
|-----9-9-9-9-9-9---|-----10-10-10-10---|------11---11-11---|---12--------------|
|-----8-8-8-8-8-8---|------9--9--9--9---|------10---10-10---|---11--------------|
|-------------------|-------------------|-------------------|-------------------|
|-------------------|-------------------|-------------------|-------------------|
|-------------------|-------------------|-------------------|-------------------|
|                                                                               |
|                                                                               |
|-------------------|-------------------|-------------------|-------------------|
|-------------------|-------------------|-------------------|-------------------|
|-------------------|-------------------|-------------------|-------------------|
|-(6)-------------7-|-(7)-------------8-|-(8)-------------9-|-(9)---------------|
|-(6)-------------7-|-(7)-------------8-|-(8)-------------9-|-(9)-------2---0---|
|-(4)-4-4-4-4-4-4-5-|-(5)-5-5-5-5-5-5-6-|-(6)-6-6-6-6-6-6-7-|-(7)-7-7-7---3---0-|
    pm...........         ...........         ...........         ...........

bpm = 110

Outro:

 Guitar 3
|-----------0-----|---------0-------|-----------------|-----------------|
|---------0---0---|-------0---0-----|-----------------|-----------------|
|-------7-------0-|-----7-----------|------rest-------|------rest-------|
|-----5-----------|---5-------------|-----------------|-----------------|
|---9-------------|-9---------------|-----------------|-----------------|
|-0---------------|-----------------|-----------------|-----------------|
|                                                                       |
|Guitar 1                                                               |
|-----------0-----|---------0-------|-----------------|-----------------|
|---------0---0---|-------0---0-----|-----------------|-----------------|
|-------7-------0-|-----7-----------|-----------------|-----------------| x2
|-----5-----------|---5-------------|-2---------------|-(2)-------------|
|---9-------------|-9---------------|-2---------------|-(2)-------------|
|-0---------------|-------------0-0-|-0---------------|-(0)-------------|
|pm......           ...         ...                                     |
|Guitar 2                                                               |
|-----------------|-----------------|-----------------|-----------------|
|-----------------|-----------------|-----------------|-----------------|
|-----------------|-----------------|-----------------|-----------------|
|-9---------------|-(9)-------------|---0-4-0-2-0-----|-----------0-4-0-|
|-7---------------|-(7)-------------|-2-----------2-0-|-------0-2-------|
|-0---------------|-(0)---------0-0-|-----------------|-3-2-3-----------|
                              pm...

                                   slight rit.--------------------------|
|-----------0-----|---------0-------|-----------------|-----------------|
|---------0---0---|-------0---0-----|-----------------|-----------------|
|-------7-------7-|-----7-----------|------rest-------|------rest-------|
|-----5-----------|---5-------------|-----------------|-----------------|
|---9-------------|-9---------------|-----------------|-----------------|
|-0---------------|-----------------|-----------------|-----------------|
|                                                                       |
|                                                                       |
|-----------0-----|---------0-------|-----------------|-----------------|
|---------0---0---|-------0---0-----|-----------------|-----------------|
|-------7-------7-|-----7-----------|-----------------|-----------------|
|-----5-----------|---5-------------|-2---------------|-(2)-------------|
|---9-------------|-9---------------|-2---------------|-(2)-------------|
|-0---------------|-------------0-0-|-0---------------|-(0)-------------|
|pm......           ...         ...                                     |
|                                                                       |
|-----------------|-----------------|-----------------|-----------------|
|-----------------|-----------------|-----------------|-----------------|
|-----------------|-----------------|-----------------|-----------------|
|-9---------------|-(9)-------------|---0-4-0-2-0-----|-----------0-4-0-|
|-7---------------|-(7)-------------|-2-----------2-0-|-------0-2-------|
|-0---------------|-(0)---------0-0-|-----------------|-3-2-3-----------|
                              pm...

 Guitars 1 & 3
|-0---------------|-(0)-------------|-(0)-------------|-0------(0)------|
|-0---------------|-(0)-------------|-(0)-------------|-3------(3)------|
|-x---------------|-----------------|-----------------|-0------(0)------|
|-2---------------|-(2)-------------|-(2)-------------|-2------(2)------|
|-2---------------|-(2)-------------|-(2)-------------|-2------(2)------|
|-0---------------|-(0)-------------|-(0)-------------|-0------(0)------|
|                                                                       |
|Guitars 2                                                              |
|-----------------|-----------------|-----------------|-----------------|
|-----------------|-----------------|-----------------|-----------------|
|-9---------------|-(9)-------------|-(9)-------------|-9------(9)\-----|
|-9---------------|-(9)-------------|-(9)-------------|-9------(9)\-----|
|-7---------------|-(7)-------------|-(7)-------------|-7------(7)\-----|
|-0---------------|-(0)-------------|-(0)-------------|-0------(0)------|


Legend:

pm = palm mute
h  = hammer-on
p  = pull-off
pb = pre bend (bent from fret number indicated)
r  = release bend
b  = bend
~  = vibrato
\/ = slides
<> = natural harmonic
ph = pinch harmonic
[] = slight pinch harmonics


In regards to the whammy bar articulation shown, it's impossible
to tab those parts exactly, so use the tab as a suggestion. That
sort of stuff is personal preferance anyway.


-Olly Wharton (born2mesmerise@hotmail.com)

========================================================================
10.Holy Wars... the Punishment Due
                     HOLY WARS...THE PUNISHMENT DUE
                                 Megadeth
                  (From The 1990 Album Rust In Peace)


Transcribed by Jonathan Casper (confinedforever)

Gtr 1 - Tuning Standard - (E A D G B E)

This might be the most correct verison on the site, i dont know
tell me what u think

Riff 1 (slightly palm muted)
e|-----------------------------------|
B|-----------------------------------|
G|-----------------------------------|
D|-----------------------------------|
A|-5-6-7---------------------------2-|
E|--------5-6-7--7-6-5--5-4-3--5-5-0-|

e|-----------------------------------|
B|-----------------------------------|
G|-----------------------------------|
D|-----------------------------------|
A|-5-6-7---------------------------4-|
E|--------5-6-7--7-6-5--5-4-3--3-2-2-|

e|----------------------------|
B|----------------------------|
G|----------------------------|
D|----------------------------|
A|-5-6-7----------------------|
E|--------5-6-7--7-6-5--5-4-3-|

e|----------------------------|
B|----------------------------|
G|----------------------------|
D|-2-3-4----------------------|
A|--------3-4-5--5-4-3--4-3-2-|
E|----------------------------|

e|--------------------------------|
B|--------------------------------|
G|--------------------------------|
D|--------------------------------|
A|-5-6-7-----------------------05-|
E|--------5-6-7--7-6-5--5-4-3-----|
                               **

Riff 2
e|--------------------------------------------|
B|--------------------------------------------|
G|--------------------------------------------|
D|--------------------------------------------|
A|-5h7-----10p7----------5h7-----5h7------7-8-|
E|-----000------00000000-----000-----0000-5-6-|
       ***      ********     ***     ****
e|---------------------------------------------|
B|---------------------------------------------|
G|---------------------------------------------|
D|----------------------------------------10---|
A|-5h7-----10p7----------5h7-----5h7-------8-9-|
E|-----000------00000000-----000-----0000----7-|
       ***      ********     ***     ****
e|--------------------------------------------|
B|--------------------------------------------|
G|--------------------------------------------|
D|----------------------------------------4---|
A|-5h7-----10p7----------5h7-----5h7------2-5-|
E|-----000------00000000-----000-----0000---3-|
       ***      ********     ***     ****
e|------------------------------------------------|
B|------------------------------------------------|
G|------------------------------------------------|
D|---------------------------------------4------4-|
A|-5h7-----10p7--------9-------8-----7---2------2-|
E|-----000------000000-7--0000-6--00-5-0------0---|
       ***      ******    ****    **   *      *

e|----------|
B|----------|
G|----------|
D|-4--------|
A|-2--5--4--|
E|----3--2--|


Riff 3
e|--------------------------------------------|
B|--------------------------------------------|
G|--------------------------------------------|
D|--------------------------------------------|
A|-5h7-----10p7----------5h7-----5h7------7-8-|
E|-----000------00000000-----000-----0000-5-6-|
       ***      ********     ***     ****
e|---------------------------------------------|
B|---------------------------------------------|
G|---------------------------------------------|
D|----------------------------------------10---|
A|-5h7-----10p7----------5h7-----5h7-------8-9-|
E|-----000------00000000-----000-----0000----7-|
       ***      ********     ***     ****
e|--------------------------------------------|
B|--------------------------------------------|
G|--------------------------------------------|
D|----------------------------------------4---|
A|-5h7-----10p7----------5h7-----5h7------2-5-|
E|-----000------00000000-----000-----0000---3-|
       ***      ********     ***     ****

Riff 3a
Guitar 1                                  x4
e|-----------------------------------------|
B|-----------------------------------------|
G|-----------------------------------------|
D|-----------------------------------------|
A|-5h7-----10p7--------9~-------8~-----7---|
E|-----000------000000-----0000-----00---8-|
       ***      ******     ****     **

Guitar 2
e|-----------------------------------------|
B|-----------------------------------------|
G|-----------------------------------------|
D|-----------------------------------------|
A|-5h7-----10p7----------------------------|
E|-----000------000000-7~--0000-6~--00-5-0-|
       ***      ******     ****     **   *
e|-----------------------------------------|
B|-----------------------------------------|
G|-----------------------------------------|
D|-----------------------------------------|
A|-5h7-----10p7--------6~-------5~-----4---|
E|-----000------000000-----0000-----00---5-|
       ***      ******     ****     **
e|-----------------------------------------|
B|-----------------------------------------|
G|-----------------------------------------|
D|-----------------------------------------|
A|-5h7-----10p7--------9~-------8~-----7---|
E|-----000------000000-----0000-----00---8-|
       ***      ******     ****     **
e|--------------------------------------------|
B|--------------------------------------------|
G|--------------------------------------------|
D|--------------------------------------------|
A|-5h7-----10p7--------14~------13~----12-----|
E|-----000------000000-----0000-----00----13\-|
       ***      ******     ****     **


Riff 4
Guitar 1                                   x7
e|------------------------------------------|
B|------------------------------------------|
G|------------------------------------------|
D|------------------------------------------|
A|-5h7-----10p7----------5h7-----5h7------9-|
E|-----000------00000000-----000-----0000-7-|
       ***      ********     ***     ****
e|----------------------------------------|
B|----------------------------------------|
G|----------------------------------------|
D|----------------------------------------|
A|-5h7-----10p7----------5h7-----5h7------|
E|-----000------00000000-----000-----0000-|
       ***      ********     ***     ****

Guitar 2 (Mustaine)
e|----------------------------------------|
B|----------------------------------------|
G|----------------------------------------|
D|----12----------12----14------9---------|
A|-10----10----10----12-----7-6---9-5/7~--|
E|----------12----------------------------|

e|----------------------------------------|
B|----------------------------------------|
G|------------------------8------7--------|
D|----12----------12----------------------|
A|-10----10----10-----6-9----5-8----5/7~~-|
E|----------12----------------------------|


Riff 5
e|-------------------------------------|
B|-------------------------------------|
G|-------------------------------------|
D|-------------------------------------|
A|-5---4-5---4-----4-5-----5-4-----4-5-|
E|-3-0-2-3-0-2-0-0-2-3-0-0-3-2-0-0-2-3-|
     *     *   * *     * *     * *
e|----------------------------------------|
B|----------------------------------------|
G|----------------------------------------|
D|----------------------------------------|
A|-5h7-----10p7----------5h7-----5h7------|
E|-----000------00000000-----000-----0000-|
       ***      ********     ***     ****
e|-------------------------------------|
B|-------------------------------------|
G|-------------------------------------|
D|-------------------------------------|
A|-2---1-2---1-----1-2-----2-1-----1-2-|
E|-3-0-2-3-0-2-0-0-2-3-0-0-3-2-0-0-2-3-|
     *     *   * *     * *     * *
e|----------------------------------------|
B|----------------------------------------|
G|----------------------------------------|
D|----------------------------------------|
A|-5h7-----10p7----------5h7-----5h7------|
E|-----000------00000000-----000-----0000-|
       ***      ********     ***     ****
e|-------------------------------------|
B|-------------------------------------|
G|-------------------------------------|
D|-------------------------------------|
A|-5---4-5---4-----4-5-----5-4-----4-5-|
E|-3-0-2-3-0-2-0-0-2-3-0-0-3-2-0-0-2-3-|
     *     *   * *     * *     * *
e|----------------------------------------|
B|----------------------------------------|
G|----------------------------------------|
D|----------------------------------------|
A|-5h7-----10p7----------5h7-----5h7------|
E|-----000------00000000-----000-----0000-|
       ***      ********     ***     ****
e|-----------------------------------|
B|-----------------------------------|
G|-----------------------------------|
D|-----------------------------------|
A|-2---1-2---1-----1-2-----2-1-----1-|
E|-3-0-2-3-0-2-0-0-2-3-0-0-3-2-0-0-2-|
     *     *   * *     * *     * *

Riff 6
e|---------------------------------------|
B|---------------------------------------|
G|------------4---3----------------------|
D|------------5---4----------------------|
A|-5-6-7--------0---0--5-6-7------5--6-5-|
E|-------000-----------------0000-6--7-6-|
         ***    *   *        ****
  "Brother will kill brother..."
e|------------------------------------------|
B|------------------------------------------|
G|------------------------------------------|
D|-----------5---4--------------------------|
A|-5-6-7-----7---6----5-6-7-------------1-2-|
E|-------000---0---0---------0000-2~--0-2-3-|
         ***   *   *         ****     *
  "Spilling blood across the land..."
e|-------------------------------|
B|-------------------------------|
G|-------------------------------|
D|-------------------------------|
A|-4-----4----2-4-5-----5--4-2---|
E|-5-0-0-5--0-3-5-6-0-0-6--5-3-5-|
     * *      * *   * *      *
  "Killing for religion..."
e|------------------------------------|
B|------------------------------------|
G|------------------------------------|
D|------------------------------------|
A|----------5--4-2-------------8--7-5-|
E|-3p0-0000-6--5-3-5--3p0-0000-6--5-3-|
       ****               ****
  "Something I don't understand..."


Lead into next section:
e|-----------------------------------|
B|-----------------------------------|
G|-----------------------------------|
D|-----------------------------------|
A|-5-6-7---------------------------2-|
E|--------5-6-7--7-6-5--5-4-3--5-5-0-|
   "Holy Wars..."


Solo (Acoustic, Friedman)
e|---------------------11-12p11----11-|
B|------12----10-12-13----------13----|
G|-9h10-------------------------------|
D|------------------------------------|
A|------------------------------------|
E|------------------------------------|

e|-12----12-10----10-8----8-7---7-5---|
B|----13-------12------10-----9-----6-|
G|------------------------------------|
D|------------------------------------|
A|------------------------------------|
E|------------------------------------|

e|-5-4---4-5---5--7-7/10--7--5h6p5-----|
B|-----5-----6---------------------6---|
G|-----------------------------------7-|
D|-------------------------------------|
A|-------------------------------------|
E|-------------------------------------|

e|------------------------------------------0-|
B|-4-5---4-5-4------------------------------0-|
G|-----6-------7-6-5-4---5-4----------------x-|
D|---------------------7-----7-6-5-4-3-2----2-|
A|------------------------------------------2-|
E|------------------------------------------0-|

End solo


Riff 6a
e|--------------------------------|
B|--------------------------------|
G|--------------------------------|
D|--------------------------------|
A|-3-2---2-----3-2---2-----2-3-5~-|
E|-0-0-0-0-0-0-0-0-0-0-0-0-0-0-0--|
       *   * *     *   * * * *
  "Up on my podium..."

Riff 7
e|-----------------------------|
B|-----------------------------|
G|-----------------------------|
D|-----0h2---4-----5------(5)\-|
A|---------2-----3-3------(3)\-|
E|-0-0---------0---------------|
   * *
e|-----------------0--------0-------|
B|-------------------0--------0-----|
G|----------------------------------|
D|---0h2---4------------------------|
A|-------2-----2-1------1-0-----0-2-|
E|-0---------0-3-2------2-1-----1-0-|

e|-----------------------------|
B|-----------------------------|
G|-----------------------------|
D|-----0h2---4-----5------(5)\-|
A|-(2)-----2-----3-3------(3)\-|
E|-(0)---------0---------------|

e|-----------------0--------0-------|
B|-------------------0--------0-----|
G|----------------------------------|
D|---0h2---4------------------------|
A|-------2-----2-1------1-0-----0-2-|
E|-0---------0-3-2------2-1-----1-0-|

Riff 7a
e|----------------------------------|
B|----------------------------------|
G|----------------------------------|
D|-----0h2---4-----5--5-5-5-5-5-5-5-|
A|---------2-----3-3--3-3-3-3-3-3-3-|
E|-0-0---------0--------------------|
   * *                * * * * * * *
  "Wage the war..."
e|-------------------0--------0--------|
B|---------------------0--------0------|
G|-------------------------------------|
D|-----0h2---4-------------------------|
A|---------2-----2-1------1-0----------|
E|-0-0---------0-3-2------2-1-----0-/3-|
   * *
  "...on organized crime..."


Riff 8 (Solo Rhythm)
e|---------------------------------|
B|-----3-0-------------1-----------|
G|---------0---------3---3---------|
D|---0-------3-0---3-------3-------|
A|-2-------------1-------------3-4-|
E|---------------------------0-1-2-|
   * *     * * * * * *       * * *
                                  x2
e|---------------------------------|
B|-----3-0-------------1-----------|
G|---------0---------3---3---------|
D|-----------3-0---3-------3-------|
A|---2-----------1-------------3-4-|
E|-3-------------------------0-1-2-|
   * *     * * * * * *       * * *
e|------------------0--------0--------|
B|-----3-0------------0--------0------|
G|---------0--------------------------|
D|-----------3------------------------|
A|---2----------2-1------1-0------0-2-|
E|-3------------3-2------2-1------1-0-|
   * *     * *


Solo (Friedman)
e|---------------7-10p7-----------6-10p6-|
B|-------------8--------8-------8--------|
G|-----------7------------7---7----------|
D|-------5-9----------------9------------|
A|-----5---------------------------------|
E|-3h7-----------------------------------|

e|---------------10-13p10----10-----13-18p13----13-|
B|-6----------11----------11----/15----------15----|
G|---7-----10--------------------------------------|
D|-----/12-----------------------------------------|
A|-------------------------------------------------|
E|-------------------------------------------------|

e|-18-18b19~--15----------------------20b22r21^-[20]22r21-[20]22~-|
B|---------------15-17b18r17b18r17p15-----------------------------|
G|----------------------------------------------------------------|
D|----------------------------------------------------------------|
A|----------------------------------------------------------------|
E|----------------------------------------------------------------|

e|---[24]25b27-[24]25b27-[24]25b27-[24]25b27-[24]25~~-|
B|-x--------------------------------------------------|
G|-x--------------------------------------------------|
D|----------------------------------------------------|
A|----------------------------------------------------|
E|----------------------------------------------------|

e|-22-18--------------------------|
B|-------20-----------------------|
G|----------19--------------------|
D|-------------20\19-15-----------|
A|----------------------17\15-13~-|
E|--------------------------------|

e|----------------------------------------------|
B|-8--8--8--8/10-10-10-10/11-11-11-11/13--(13)\-|
G|----------------------------------------------|
D|-5--5--5--5/7---7--7--7/-8--8--8--8/10--(10)\-|
A|----------------------------------------------|
E|----------------------------------------------|

e|-------------18------------------------------|
B|-/18--15h18-----18p15----15-18p15-15---------|
G|----------------------18------------18p17p15-|
D|---------------------------------------------|
A|---------------------------------------------|
E|---------------------------------------------|

e|-------------------------------18b22-|
B|-18p15-15-15-------------------------|
G|-------------18p15----17-15-16-------|
D|-------------------17----------------|
A|-------------------------------------|
E|-------------------------------------|

End solo


Riff 7b
e|--------------------------------------|
B|------------------------------5-------|
G|------------------------------h-5-----|
D|-----0h2---4-----5--5-5-5-5-5---h-5---|
A|-2-------2-----3-3--3-3-3-3-3-----h-5-|
E|-0-----------0----------------------h-|
               *      * * * * *
e|-------------------0--------0-------|
B|---------------------0--------0-----|
G|------------------------------------|
D|-----0h2---4------------------------|
A|-2-------2-----2-1------1-0-----0-2-|
E|-0-----------0-3-2------2-1-----1-0-|


Play Riff 7a  "They killed my wife..."
Play Riff 8   Solo Rhythm

Solo (Friedman)
e|------------------------------|
B|------------------------------|
G|-5b7--(7)r5p3-----------------|
D|--------------5/8\5p3---------|
A|----------------------5p3-----|
E|--------------------------6~~-|

e|-----------------------------------------------------|
B|--------------------------6-8-6h8p6---6-7b8r7--------|
G|-3/5-5-5-5/7\5~~------5-7-----------7---------7-10~~-|
D|------------------(0)--------------------------------|
A|-----------------------------------------------------|
E|-----------------------------------------------------|

e|----------------------------------------|
B|-------------------------18b20~~--15-18-|
G|-------------------15-18----------------|
D|-------------15-17----------------------|
A|------/14-17----------------------------|
E|-(6)/-----------------------------------|

e|-----22p18-------------18p15-----------------|
B|-18/-------22-18\15h18-------18p15-----------|
G|-----------------------------------18-18b19~-|
D|---------------------------------------------|
A|---------------------------------------------|
E|---------------------------------------------|

e|-18-[20]22r20-------------------------------------|
B|--------------20-18-20~---------------------------|
G|-------------------------15/17-17/18-18\17-(17)~\-|
D|--------------------------------------------------|
A|--------------------------------------------------|
E|--------------------------------------------------|

End solo


Riff 9 (Play 2x)
e|-------------------------|
B|-------------------------|
G|-------------------------|
D|-------------------------|
A|-------------------------|
E|-3-3-3-3-333-3-3-333-333-|
   h h h h hhh h h hhh hhh
e|---------------------------------------|
B|---------------------------------------|
G|---------------------------------------|
D|---------------------------------------|
A|-5---4-5---4-----4-5-----5-4-----4-5-2-|
E|-3-0-2-3-0-2-0-0-2-3-0-0-3-2-0-0-2-3-0-|
     *     *   * *     * *     * *
e|-------------------------|
B|-------------------------|
G|-------------------------|
D|-------------------------|
A|-------------------------|
E|-3-3-3-3-333-3-3-333-333-|
   h h h h hhh h h hhh hhh
e|---------------------------------------|
B|---------------------------------------|
G|---------------------------------------|
D|---------------------------------------|
A|-2---1-2---1-----1-2-----2-1-----1-2-2-|
E|-3-0-2-3-0-2-0-0-2-3-0-0-3-2-0-0-2-3-0-|
     *     *   * *     * *     * *


Riff 10 (Solo Rhythm)
e|-------------------------|
B|-------------------------|
G|-------------------------|
D|-------------------------|
A|-------------------------|
E|-0-0-0-0-000-0-0-000-000-|
   * * * * *** * * *** ***
e|---------------------------------------|
B|---------------------------------------|
G|---------------------------------------|
D|---------------------------------------|
A|-5---4-5---4-----4-5-----5-4-----4-5-2-|
E|-3-0-2-3-0-2-0-0-2-3-0-0-3-2-0-0-2-3-0-|
     *     *   * *     * *     * *
e|-------------------------|
B|-------------------------|
G|-------------------------|
D|-------------------------|
A|-------------------------|
E|-0-0-0-0-000-0-0-000-000-|
   * * * * *** * * *** ***
e|---------------------------------------|
B|---------------------------------------|
G|---------------------------------------|
D|---------------------------------------|
A|-2---1-2---1-----1-2-----2-1-----1-2-2-|
E|-3-0-2-3-0-2-0-0-2-3-0-0-3-2-0-0-2-3-0-|
     *     *   * *     * *     * *

Final time:
e|-------------------------------------|
B|-------------------------------------|
G|-------------------------------------|
D|-------------------------------------|
A|-2---1-2---1-----1-2-----2-1-----1-2-|
E|-3-0-2-3-0-2-0-0-2-3-0-0-3-2-0-0-2-3-|
     *     *   * *     * *     * *

Solo (Mustaine)
e|-17^b18-----17^b18-----17^b18--17^b18--17^b18--17^b18-|
B|------------------------------------------------------|
G|------------------------------------------------------|
D|------------------------------------------------------|
A|------------------------------------------------------|
E|------------------------------------------------------|

e|-17-15-12-12----12--------------------|
B|-------------17----17-15-12--17-15-12-|
G|--------------------------------------|
D|--------------------------------------|
A|--------------------------------------|
E|--------------------------------------|

e|----------------------------------|
B|-17-15-12----12-------------------|
G|----------15----15-14-12-15-14-12-|
D|----------------------------------|
A|----------------------------------|
E|----------------------------------|

e|--------------------------|
B|--------------------------|
G|-15-14-12-----12----------|
D|----------14-----14-13-12-|
A|--------------------------|
E|--------------------------|

e|-------------------------------------|
B|-------------------------------------|
G|-------------------------------------|
D|-14p13p12----13p12-------12----------|
A|----------14-------14p13----14p13p12-|
E|-------------------------------------|

e|------------------------------------------|
B|------------------------------------------|
G|------------------------------------------|
D|------------------------------------------|
A|-14p13p12----13p12----12----12----12-12---|
E|----------14-------14----15----15-------0-|

e|--------------------------|
B|--------------------------|
G|--------------------------|
D|--------------------------|
A|--------------------------|
E|-/5-8-5-8-5-8-5-8-4\3-5/--|

e|-------------------------------------------------|
B|-------------------------------------------------|
G|-------------------------------------------------|
D|----------------------12h13p12----12h13h14-12-12-|
A|-12h13p12----12h13h14----------14----------------|
E|----------14-------------------------------------|

e|----------------------------------------------------------------|
B|----------------------------------------12h15p12-15-15-17p15p12-|
G|-------12h14-12-14-15h16-15p12-14-12-14-------------------------|
D|-12h14----------------------------------------------------------|
A|----------------------------------------------------------------|
E|----------------------------------------------------------------|

e|-------------12h15h17----------12h15h17----------|
B|-17-12h15h17----------12h15h17----------12h15h17-|
G|-------------------------------------------------|
D|-------------------------------------------------|
A|-------------------------------------------------|
E|-------------------------------------------------|

e|-12h15h17----------12h15h17----------12h15h17--12h15h17-|
B|----------12h15h17----------12h15h17--------------------|
G|--------------------------------------------------------|
D|--------------------------------------------------------|
A|--------------------------------------------------------|
E|--------------------------------------------------------|

e|-17b18r17--12-17p15p12-------------------------|
B|-----------------------17-17p15p12-12-17p14p12-|
G|-----------------------------------------------|
D|-----------------------------------------------|
A|-----------------------------------------------|
E|-----------------------------------------------|

e|-------------------------------------------|
B|-------------------------------------15-12-|
G|-15-15-12----------------------12-12-------|
D|----------15-15-12-14-14-14-14-------------|
A|-------------------------------------------|
E|-------------------------------------------|

e|-------------------------------------------|
B|-15p12--12-15p12-17p12--12-15p12-17p12--12-|
G|------15--------------15--------------15---|
D|-------------------------------------------|
A|-------------------------------------------|
E|-------------------------------------------|

e|-------------------------------------------|
B|-17p12--12-15p12-17p12--12-15p12-17p12--12-|
G|------15--------------15--------------15---|
D|-------------------------------------------|
A|-------------------------------------------|
E|-------------------------------------------|

e|-------------------------------------------|
B|-17p12--12-15p12-17p12--12-15p12-17p12--12-|
G|------15--------------15--------------15---|
D|-------------------------------------------|
A|-------------------------------------------|
E|-------------------------------------------|

e|-------------------------------------------|
B|-17p12--12-15p12-17p12--12-15p12-17p12--12-|
G|------15--------------15--------------15---|
D|-------------------------------------------|
A|-------------------------------------------|
E|-------------------------------------------|

e|-------------------------------------------------|
B|-15p12----12-17p12----12-15p12----12-17p12----12-|
G|-------15----------15----------15----------15----|
D|-------------------------------------------------|
A|-------------------------------------------------|
E|-------------------------------------------------|

e|-------------------------------------------------|
B|-15p12----12-17p12----12-15p12----12-17p12----12-|
G|-------15----------15----------15----------15----|
D|-------------------------------------------------|
A|-------------------------------------------------|
E|-------------------------------------------------|

e|----------------------------------------|
B|-17p15p12--12-17p15p12--12-17p15p12--12-|
G|---------15-----------15-----------15---|
D|----------------------------------------|
A|----------------------------------------|
E|----------------------------------------|

e|--------------------------------------|
B|-17p15p12--12-17p15p12-----x-12-12-17-|
G|---------15-----------15-x------------|
D|--------------------------------------|
A|--------------------------------------|
E|--------------------------------------|

e|---------------------------------------------|
B|-17p15p12---17p15p12---17p15p12---17p15p12---|
G|---------12---------12---------12---------12-|
D|---------------------------------------------|
A|---------------------------------------------|
E|---------------------------------------------|

e|---------------------------------------------|
B|-18p16p13---18p16p13---18p16p13---18p16p13---|
G|---------13---------13---------13---------13-|
D|---------------------------------------------|
A|---------------------------------------------|
E|---------------------------------------------|

e|---------------------------------------------|
B|-19p17p14---19p17p14---19p17p14---19p17p14---|
G|---------14---------14---------14---------14-|
D|---------------------------------------------|
A|---------------------------------------------|
E|---------------------------------------------|

e|---------------------------------------------|
B|-20p18p15---20p18p15---20p18p15---20p18p15---|
G|---------15---------15---------15---------15-|
D|---------------------------------------------|
A|---------------------------------------------|
E|---------------------------------------------|

e|---------------------------------------------|
B|-21p19p16---21p19p16---22p20p17---22p20p17---|
G|---------16---------16---------17---------17-|
D|---------------------------------------------|
A|---------------------------------------------|
E|---------------------------------------------|

e|-------------------------------------------|
B|-23p21p18---23p21p18---24p22p19---24p22p19-|
G|---------18---------18---------19----------|
D|-------------------------------------------|
A|-------------------------------------------|
E|-------------------------------------------|

e|-22b24----22b24--|
B|-----------------|
G|-----------------|
D|-----------------|
A|-----------------|
E|-----------------|

e|-22b24--22b25--22b24--22b24----|
B|-------------------------------|
G|-------------------------------|
D|-------------------------------|
A|-------------------------------|
E|-----------------------------0-|

e|--------------------------------------------------|
B|--------------------------------------------------|
G|--------------------------------------------------|
D|--[Let note ring and depress with whammy bar]-----|
A|--[        then raise back up to E          ]-----|
E|--(0)----------------(0)*d----------------(raise)-|

End Solo


Riff 11 (Play 4x)
e|----------------------------------------|
B|----------------------------------------|
G|----------------------------------------|
D|----------------------------------------|
A|-5h7-----10p7---------5h7-----5h7-----9-|
E|-----000------0-0-0-0-----000-----0-0-7-|
       ***      * * * *     ***     * *
  "Fill the cracks in ..."


Riff 11a
Guitar 1                                x10
e|----------------------------------------|
B|----------------------------------------|
G|----------------------------------------|
D|----------------------------------------|
A|-5h7-----10p7---------5h7-----5h7-----9-|
E|-----000------0-0-0-0-----000-----0-0-7-|
       ***      * * * *     ***     * *
  "Next thing you know..."

e|------------------------------------|
B|------------------------------------|
G|--------------------------8------7--|
D|------------------------------------|
A|-5h7-----10p7---------6-9----5-8----|
E|-----000------0-0-0-0---------------|
       ***      * * * *
                    "...mercy..."

Guitar 2 (Mustaine)
e|----------------------------------------|
B|----------------------------------------|
G|----------------------------------------|
D|----12----------12----14------9---------|
A|-10----10----10----12-----7-6---9-5/7~--|
E|----------12----------------------------|

e|----------------------------------------|
B|----------------------------------------|
G|------------------------8------7--------|
D|----12----------12----------------------|
A|-10----10----10-----6-9----5-8----5/7~~-|
E|----------12----------------------------|

Riff 12
e|----------------------------------------|
B|----------------------------------------|
G|----------------------------------------|
D|----------------------------------------|
A|-5h7-----10p7---------5h7-----5h7-----9-|
E|-----000------0-0-0-0-----000-----0-0-7-|
       ***      * * * *     ***     * *
   "Killings...                    ...mercy..."
e|----------------------------------------|
B|----------------------------------------|
G|----------------------------------------|
D|----------------------------------------|
A|-5h7-----10p7---------5h7-----5h7-----9-|
E|-----000------0-0-0-0-----000-----0-0-7-|
       ***      * * * *     ***     * *
   "...killings...                  ...mercy..."


Riff 13
e|--------------------------------------------|
B|--------------------------------------------|
G|--------------------------------------------|
D|--------------------------------------------|
A|-5h7-----10p7----------5h7-----10p7---------|
E|-----000------0000000------000------0000000-|
       ***      *******      ***      *******
  "...killings...     ...killings..."
e|-----------------------------------------|
B|-----------------------------------------|
G|-----------------------------------------|
D|-----------------------------------------|
A|-5h7-----10p7----------5h7-----10p7------|
E|-----000------00000000-----000------0000-|
       ***      ********     ***      ****
  "...killings...     ...killings..."


Riff 14
e|---------------------------------|
B|---------------------------------|
G|---------------------------------|
D|---------------------------------|
A|-5---4-5---4-----4-5-----5-4-----|
E|-3-0-2-3-0-2-0-0-2-3-0-0-3-2-0-0-|
     *     *   * *     * *     * *
e|---------------------------------|
B|---------------------------------|
G|---------------------------------|
D|---------------------------------|
A|-2---1-2---1-----1-2-----2-1-----|
E|-3-0-2-3-0-2-0-0-2-3-0-0-3-2-0-0-|
     *     *   * *     * *     * *
e|-----------------------------------|
B|-----------------------------------|
G|-----------------------------------|
D|-----------------------------------|
A|-5---4-5---4-----4-5-----5-4-----4-|
E|-3-0-2-3-0-2-0-0-2-3-0-0-3-2-0-0-2-|
     *     *   * *     * *     * *
   "Next thing you know, they'll take..."

e|--------------|
B|--------------|
G|--------------|
D|--------------|
A|-5-6-7-----2--|
E|-------0-0-0--|
         * *
  "...away!"


Notation:

10^        = bend a quarter step.
10b11      = bend a half step.
10b12      = bend a full step.
10b12r10   = bend and release.
[10]12     = pre-bend.
[10]12r10  = pre-bend and release.
{14}       = pick the 14th fret while holding the most
             previous bend.
<17>       = touch the string above the 17th fret while
             previous note(s) is(are) still ringing.

10b13*     = tremolo bar bend, from the 10th fret to the 13th fret.
7d4*       = tremolo bar dive, from the 7th fret to the 4th fret.
12~*       = tremolo bar vibrato.

x   =  mute with fret-hand
*   =  palm mute
X\\ =  pick slide
h   =  hammer-on
p   =  pull-off
~   =  vibrato
t   =  finger tap
/   =  slide up
\   =  slide down
h.  =  natural harmonics
a   =  artificial harmonics
(9) =  ghost note
tm  =  trem picking
tr  =  trill

================================================================
11.Tornado of Souls
tabbed by: Andrew Zara
Band- Megadeth
Song- Tornado Of Souls

Tuning: Standard

Riff 1
NOTE: Slight palm mute during harmonics)
e|--------------------------|
B|--------------------------|
G|----------------------7---|
D|----------------7---------|
A|-9------------------------|
E|-7--7-7-7-7-7-7---7-7---7-|
      h.h.h.h.h.h.h.h.h.h.h.
e|----------------------------------|
B|----------------------------------|
G|--------------------------7-------|
D|--------------------7-----------7-|
A|-9-9-9----------------------------|
E|-7-7-7--7-7-7-7-7-7---7-7---7-7---|
          h.h.h.h.h.h.h.h.h.h.h.h.h.

Riff 2
e|-----------------------------------|
B|-----------------------------------|
G|---------------------------------7-|
D|-------------------------7---9p7---|
A|-----------7h8p7---7-8h9---9-------|
E|-7--7-9-10------10-----------------|

e|-----------------------------------|
B|-----------------------------------|
G|-----------------------------------|
D|-------------------------7---9p7---|
A|-----------7h8p7---7-8h9---9-----9-|
E|-7--7-9-10------10-----------------|

e|-----------------------------------|
B|-----------------------------------|
G|---------------------------------7-|
D|-------------------------7---9p7---|
A|-----------7h8p7---7-8h9---9-------|
E|-7--7-9-10------10-----------------|

e|--------------------------------|
B|--------------------------------|
G|--------------------------------|
D|-/7----5------------------------|
A|-/5----3----7h8p7-5h7p5-4h5p4-3-|
E|--------------------------------|


Riff 3                          x6
e|-------------------------------|
B|-------------------------------|
G|-------------------------------|
D|-4-----------------------------|
A|-2---2-2-2---------------------|
E|-----------2-2-3-3-0-0-2-2-3-0-|
       * * * * * * * * * * * * *
   "This morning I made the call..."

                                x2
e|-------------------------------|
B|-------------------------------|
G|-------------------------------|
D|-2--------------------2--/5--5-|
A|-0---0-0-0-2---3------0--/3--3-|
E|-----------0-0-1--3-0----------|
       * * *   *    * *
   "Not for the money..."
                                x2
e|-------------------------------|
B|-------------------------------|
G|-------------------------------|
D|-4-----------------------------|
A|-2---2-2-2---------------------|
E|-----------2-2-3-3-0-0-2-2-3-0-|
       * * * * * * * * * * * * *
   "Not for the power..."


Riff 4                                         x3
e|----------------------------------------------|
B|----------------------------------------------|
G|----------------------------------------------|
D|-4---------------------------------------/7-7-|
A|-2----4-5--------------2----1/2--2-1~----/5-5-|
E|----0-2-3--0-2-3-3-2-1-0--0-2/3--3-2~--0------|
      * *    * * * * * *    *            *
   "But now I'm safe...."
e|---------------------------------------------------|
B|---------------------------------------------------|
G|---------------------------------------------------|
D|-4-------------------------------------------------|
A|-2----4-5--------------2----1/2--2-1~--4h5p4-4-0-1-|
E|----0-2-3--0-2-3-3-2-1-0--0-2/3--3-2~--------------|
      * *    * * * * * *    *
   "In the eye of the tornado, blow me away..."


Play Riff 3    "You've grown to loathe my name..."
Play Riff 4    "But now I'm safe..."

Riff 5                           x2
e|--------------------------------|
B|--------------------------------|
G|--------------------------------|
D|-4-x-x----------4-x-x---------7-|
A|-2-x-x-4-5-x----2-x-x-4-5-x-x-5-|
E|-------2-3-x----------2-3-x-x---|
  "Who's to say...."
e|--------------------------------|
B|--------------------------------|
G|--------------------------------|
D|-2-x-x----------2-x-x---------5-|
A|-0-x-x-2-3-x----0-x-x-2-3-x-x-3-|
E|-------0-1-x----------0-1-x-x---|
  "Who's to say, what's for me to do..."
e|----------------------------------|
B|----------------------------------|
G|----------------------------------|
D|-4-x-x----------4-x-x---------7-4-|
A|-2-x-x-4-5-x----2-x-x-4-5-x-x-5-2-|
E|-------2-3-x----------2-3-x-x-----|
  "Cause a big nothing..."


Riff 6
e|-----------------------------------|
B|-----------------------------------|
G|---------------------------------7-|
D|-------------------------7---9p7---|
A|-----------7h8p7---7-8h9---9-------|
E|-7--7-9-10------10-----------------|
  "The land of opportunity..."
e|-----------------------------------|
B|-----------------------------------|
G|-----------------------------------|
D|-------------------------7---9p7---|
A|-----------7h8p7---7-8h9---9-----9-|
E|-7--7-9-10------10-----------------|
  "...the golden chance for me..."


Riff 7
Guitar 1
e|-------------------------------|
B|-------------------------------|
G|-------------------------------|
D|-------------------------------|
A|------5---7-5--------7-----5h7-|
E|-7--7---7-----5-7--7---7-7-----|
      *   *          *   * *

Guitar 2 (Comes in 4th time on last two notes of above)
e|-------------------------------|
B|-------------------------------|
G|-------------------------------|
D|------4---5-4--------5-----4h5-|
A|-5--5---5-----4-5--5---5-5-----|
E|-------------------------------|
      *   *          *   * *

Riff 8  (Solo Rhythm)
e|---------------------------------|
B|---------------------------------|
G|---------------------------------|
D|---------------------------------|
A|-9----------------------9-9-(9)\-|
E|-7--7-7-7-7-7-7-7-7-7-7-7-7-(7)\-|
      * * * * * * * * * *
e|------------------------------|
B|------------------------------|
G|------------------------------|
D|------------------------------|
A|-5----------------------5-5---|
E|-3--3-3-3-3-3-3-3-3-3-3-3-3-3-|
      * * * * * * * * * *     *
e|------------------------------|
B|------------------------------|
G|------------------------------|
D|------------------------------|
A|-2----------------------2-2---|
E|-0--0-0-0-0-0-0-0-0-0-0-0-0-0-|
      * * * * * * * * * *     *
e|---------------------------|
B|---------------------------|
G|---------------------------|
D|---------------------------|
A|-4------------7--------8---|
E|-2--2-2-2-2-2-5--5-5-5-6-6-|
      * * * * *    * * *   *


Solo (Friedman)
e|----------------------------------------|
B|----------------------------------------|
G|-3b5^r3b4~~--------4------6--7--(7)/9~~-|
D|-----------------x------x---------------|
A|---------------x------x-----------------|
E|----------------------------------------|

e|-------------------------------|
B|-------------------------------|
G|-9/11-11-9~----9-7-8b10^r8b9~~-|
D|-------------------------------|
A|-------------------------------|
E|-------------------------------|

e|-----------------------------|
B|-----10-7--------------------|
G|-7-9------9-7-6-7----6h7-6~~-|
D|------------------9----------|
A|-----------------------------|
E|-----------------------------|

e|----------------------------|
B|----------------------------|
G|-6b7-6-6h7-6----------------|
D|-------------9-7---7-9------|
A|-----------------9-----9~~--|
E|----------------------------|

e|--------------------------------------|
B|-----------------12-14-12-14-14-12-14-|
G|--------------11----------------------|
D|------9h11h12-------------------------|
A|-9h10---------------------------------|
E|--------------------------------------|

e|--------------------------------------------------------|
B|-13b15--[14]15r14-12-[13]14r13b14-(14)r13--12-12-14-----|
G|----------------------------------------------------12~-|
D|--------------------------------------------------------|
A|--------------------------------------------------------|
E|--------------------------------------------------------|

e|-------14-14/15\14-10-14p10h14-10----10----|
B|----------------------------------14----14-|
G|-12-12-------------------------------------|
D|-------------------------------------------|
A|-------------------------------------------|
E|-------------------------------------------|

e|---------------------------------|
B|-12------------------------------|
G|----11\9-11-9\7-9b11--7-6~~-/15\-|
D|---------------------------------|
A|---------------------------------|
E|---------------------------------|

e|-/14-10h14p10------------10-/19p14------------14-|
B|-------------14-12--12-14---------15-14--14h15---|
G|------------------11-------------------16--------|
D|-------------------------------------------------|
A|-------------------------------------------------|
E|-------------------------------------------------|

e|-19-15h19p15----------15-19-19b22r19-19p18-19~~-|
B|------------17------17--------------------------|
G|--------------16--16----------------------------|
D|----------------17------------------------------|
A|------------------------------------------------|
E|------------------------------------------------|

e|-0-19-16h19p16----------------12-16p12-----------------|
B|--------------17---------------------------------------|
G|----------------16\13---13h16----------16-13--13\9-9~~-|
D|----------------------14--------------------15---------|
A|-------------------------------------------------------|
E|-------------------------------------------------------|

e|--------------------------------------------|
B|--------------------------------------------|
G|-11-11-11/12-12-12/15-15-15\7-7-7/9-9-9\6~~-|
D|--------------------------------------------|
A|--------------------------------------------|
E|--------------------------------------------|

e|-----------------------------------------------------|
B|-----------------------------------------------------|
G|-7~----------------7-9-8b10---(10)r8-7~-------7------|
D|-------9-------7h9-------------------------/9---9-9~-|
A|---------9~------------------------------------------|
E|-----------------------------------------------------|

e|------------------------------------|
B|------------------------------------|
G|-7---9-7----------------------------|
D|---9-----9-7--9b12r9--7-------------|
A|-------------------------9\7~----\5-|
E|------------------------------------|

e|------------------------------------|
B|--------------8h11/14p11------------|
G|------------9------------12---------|
D|----8h11-11----------------14-12----|
A|-/9------------------------------14-|
E|------------------------------------|

e|-------------------------------------|
B|----------10h14/19\14p10----10h14p10-|
G|-------------------------12----------|
D|----11h14----------------------------|
A|-12----------------------------------|
E|-------------------------------------|

e|-/14p10--10--14p10-14p10--10--14p10-14p10--10-|
B|-------12---------------12---------------12---|
G|----------------------------------------------|
D|----------------------------------------------|
A|----------------------------------------------|
E|----------------------------------------------|

e|-15p10--10-14p10--10-15p10--10-14p10--10-|
B|------12--------12--------12--------12---|
G|-----------------------------------------|
D|-----------------------------------------|
A|-----------------------------------------|
E|-----------------------------------------|

e|-15p10--10--15p10-15p10--10--15p10-15p10--10-|
B|------12---------------12---------------12---|
G|---------------------------------------------|
D|---------------------------------------------|
A|---------------------------------------------|
E|---------------------------------------------|

e|-17p10--10-15p10--10-17p10--10-15p10--10-|
B|------12--------12--------12--------12---|
G|-----------------------------------------|
D|-----------------------------------------|
A|-----------------------------------------|
E|-----------------------------------------|

e|-16p10--10--16p10-16p10--10--16p10-16p10--10-|
B|------12---------------12---------------12---|
G|---------------------------------------------|
D|---------------------------------------------|
A|---------------------------------------------|
E|---------------------------------------------|

e|-17p10--10-16p10--10-17p0--10-16p10----14-|
B|------12--------12-------12--------12/----|
G|------------------------------------------|
D|------------------------------------------|
A|------------------------------------------|
E|------------------------------------------|

e|-18p14--14--18p14-18p14--14--18p14-18p14--14-|
B|------14---------------14---------------14---|
G|---------------------------------------------|
D|---------------------------------------------|
A|---------------------------------------------|
E|---------------------------------------------|

e|-17p12--12-17p12-17p12--12-17p12-12-12-|
B|------14--------------14---------------|
G|---------------------------------------|
D|---------------------------------------|
A|---------------------------------------|
E|---------------------------------------|

e|-17b19~~----(19)r17\--2/13-10-|
B|------------------------------|
G|------------------------------|
D|------------------------------|
A|------------------------------|
E|------------------------------|

e|-14-10----------10h14-10-/17-14/17-21-17-|
B|-------14p12-----------------------------|
G|-------------12--------------------------|
D|-----------------------------------------|
A|-----------------------------------------|
E|-----------------------------------------|

e|----------19-24p19----19-------------22-------------|
B|-19----19----------22----22-22p19h22----22p19\18h20-|
G|----19----------------------------------------------|
D|----------------------------------------------------|
A|----------------------------------------------------|
E|----------------------------------------------------|

e|-19----------17----------15----------14------------------------|
B|----18\15h17----15\14h15----14\12h14----12\10-12p10-12p10\8h10-|
G|---------------------------------------------------------------|
D|---------------------------------------------------------------|
A|---------------------------------------------------------------|
E|---------------------------------------------------------------|

e|--------------------------------------|
B|-10p8\7-8p7-10p7h8p7------------------|
G|---------------------9p7-10p9p7-9p7~~-|
D|--------------------------------------|
A|--------------------------------------|
E|--------------------------------------|

e|--------7----------------|
B|----------10p7-10b12~~\--|
G|-9b10^-------------------|
D|-------------------------|
A|-------------------------|
E|-------------------------|

e|-------------------------------------|
B|-------4-5p4---------------8p7-------|
G|-4h5h7-------7/10-7h8h10p7-----10/12-|
D|-------------------------------------|
A|-------------------------------------|
E|-------------------------------------|

e|---------------------------------------------|
B|----------12p11----11-12p11----11-12-11-12~~-|
G|-11h12h14-------14----------14---------------|
D|---------------------------------------------|
A|---------------------------------------------|
E|---------------------------------------------|

End Solo


Riff 9
e|--------------------------------|
B|--------------------------------|
G|------4-----------4-----2---2h4-|
D|------4-----4-----4-----2---2h4-|
A|-2--2---2-2-4-2-2---2-2---2-----|
E|--------------------------------|
      *   * *   * *   * *   *
e|--------------------------------|
B|--------------------------------|
G|------4-----------4-----2---2h4-|
D|------4-----4-----4-----2---2h4-|
A|------------4-------------------|
E|-3--3---3-3---3-3---3-3---3-----|
      *   * *   * *   * *   *
e|--------------------------------|
B|--------------------------------|
G|------4-----------4-----2---2h4-|
D|------4-----4-----4-----2---2h4-|
A|------------4-------------------|
E|-0--0---0-0---0-0---0-0---0-----|
      *   * *   * *   * *   *
e|------------------------------|
B|------------------------------|
G|------4--------------4--------|
D|------4-----4--------4--------|
A|------------4---0--0---0-0-1--|
E|-2--2---2-2---2---------------|
      *   * *   *    *   * *


Riff 10
Guitar 1
e|-------------------------------|
B|-------------------------------|
G|-------------------------------|
D|-----------0-----------------0-|
A|-2-----0-2---2-0-2~------0-2---|
E|---0-2---------------0-2-------|
     * * * *           * * * *

Guitar 2
e|-------------------------------|
B|-------------------------------|
G|-------------------------------|
D|-----------7-----------------7-|
A|-2-----7-9---9-7-9~------7-9---|
E|---7-9---------------7-9-------|
     * * * *           * * * *
                                x3
e|-------------------------------|
B|-------------------------------|
G|-------------------------------|
D|-----------7-----------------7-|
A|-9-----7-9---9-7-9~------7-9---|
E|---7-9---------------7-9-------|
     * * * *           * * * *

Riff 11
e|-------------------------------|
B|-------------------------------|
G|-------------------------------|
D|-----------0-----------------0-|
A|-2-----0-2---2-0-2~------0-2---|
E|---0-2---------------0-2-------|
     * * * *           * * * *
  "I warn you of the fate..."


Riff 12
e|--------------------------------|
B|--------------------------------|
G|--------------------------------|
D|------------0-----------------0-|
A|-3------0-3---3-0-3~------0-3---|
E|----0-3---------------0-3-------|
      * * * *           * * * *
  "You feel my fingertips..."
e|--------------------------------|
B|--------------------------------|
G|--------------------------------|
D|------------0-----------------0-|
A|-2------0-2---2-0-2~------0-2---|
E|----0-2---------------0-2-------|
      * * * *           * * * *
  "You won't forget my lips..."
e|--------------------------------|
B|--------------------------------|
G|--------------------------------|
D|------------0-----------------0-|
A|-3------0-3---3-0-3~------0-3---|
E|----0-3---------------0-3-------|
      * * * *           * * * *
  "You feel my cold breath..."
e|--------------------------------|
B|--------------------------------|
G|--------------------------------|
D|------------0-----------------0-|
A|-2------0-2---2-0-2~------0-2---|
E|----0-2---------------0-2-------|
      * * * *           * * * *
  "It's the kiss of death..."


Riff 13
e|--------------------------------------|
B|--------------------------------------|
G|--------------------------------------|
D|-4--x-x----------2---------------2--x-|
A|-2--x-x-4-5--x-x-0-2--x-x-4-5--x-0--x-|
E|--------2-3--x-x---0--x-x-2-3--x------|

e|-------------------------------------------------|
B|-------------------------------------------------|
G|-------------------------------------------------|
D|-4--x-x----------2--/7--5----------------------4-|
A|-2--x-x-4-5--x-x-0--/5--3--7h8p7-5h7p5-4h5p4-3-2-|
E|--------2-3--x-x---------------------------------|


Notation:

10^        = bend a quarter step.
10b11      = bend a half step.
10b12      = bend a full step.
10b12r10   = bend and release.
[10]12     = pre-bend.
[10]12r10  = pre-bend and release.
{14}       = pick the 14th fret while holding the most
             previous bend.
<17>       = touch the string above the 17th fret while
             previous note(s) is(are) still ringing.

10b13*     = tremolo bar bend, from the 10th fret to the 13th fret.
7d4*       = tremolo bar dive, from the 7th fret to the 4th fret.
12~*       = tremolo bar vibrato.

x   =  mute with fret-hand
*   =  palm mute
X\\ =  pick slide
h   =  hammer-on
p   =  pull-off
~   =  vibrato
t   =  finger tap
/   =  slide up
\   =  slide down
h.  =  natural harmonics
a   =  artificial harmonics
(9) =  ghost note
tm  =  trem picking
tr  =  trill

=====================================================================
12.Hangar 18
tabbed by:samuelscd

Tuning: Standard

Riff 1
e|-1--1--1--1--1--1--1--1--1--1--1--1--1--1--1--1-|
B|-3--3--3--3--3--3--3--3--3--3--3--3--3--3--3--3-|
G|-2--2--2--2--2--2--2--2--2--2--2--2--2--2--2--2-|
D|-0--0--0--0--0--0--0--0--0--0--0--0--0--0--0--0-|
A|------------------------------------------------|
E|------------------------------------------------|

e|-1--1--1--1--1--1--1--1--1--1--1--1--1--1--1--1-|
B|-3--3--3--3--3--3--3--3--3--3--3--3--3--3--3--3-|
G|-3--3--3--3--3--3--3--3--3--3--3--3--3--3--3--3-|
D|-0--0--0--0--0--0--0--0--0--0--0--0--0--0--0--0-|
A|------------------------------------------------|
E|------------------------------------------------|

e|-1--1--1--1--1--1--1--1--1--1--1--1--1--1--1--1-|
B|-3--3--3--3--3--3--3--3--3--3--3--3--3--3--3--3-|
G|-4--4--4--4--4--4--4--4--4--4--4--4--4--4--4--4-|
D|-0--0--0--0--0--0--0--0--0--0--0--0--0--0--0--0-|
A|------------------------------------------------|
E|------------------------------------------------|

e|-5--5--5--5--5--5--5--5--5--5--5--5--5--5--5--5-|
B|-3--3--3--3--3--3--3--3--3--3--3--3--3--3--3--3-|
G|-5--5--5--5--5--5--5--5--5--5--5--5--5--5--5--5-|
D|-0--0--0--0--0--0--0--0--0--0--0--0--0--0--0--0-|
A|------------------------------------------------|
E|------------------------------------------------|

e|-5--5--5--5--5--5--5--5--5--5--5--5--5--5--5--5-|
B|-6--6--6--6--6--6--6--6--6--6--6--6--6--6--6--6-|
G|-7--7--7--7--7--7--7--7--7--7--7--7--7--7--7--7-|
D|------------------------------------------------|
A|------------------------------------------------|
E|------------------------------------------------|

e|-6--6--6--6--6--6--6--6--6--6--6--6--6--6--6--6-|
B|-6--6--6--6--6--6--6--6--6--6--6--6--6--6--6--6-|
G|-7--7--7--7--7--7--7--7--7--7--7--7--7--7--7--7-|
D|------------------------------------------------|
A|------------------------------------------------|
E|------------------------------------------------|

e|-7--7--7--7--7--7--7--7--7--7--7--7--7--7--7--7-|
B|-6--6--6--6--6--6--6--6--6--6--6--6--6--6--6--6-|
G|-7--7--7--7--7--7--7--7--7--7--7--7--7--7--7--7-|
D|------------------------------------------------|
A|------------------------------------------------|
E|------------------------------------------------|

e|-8--8--8--8--8--8--8--8--8--8--8--8--8--8--8--8-|
B|-8--8--8--8--8--8--8--8--8--8--8--8--8--8--8--8-|
G|-9--9--9--9--9--9--9--9--9--9--9--9--9--9--9--9-|
D|------------------------------------------------|
A|------------------------------------------------|
E|------------------------------------------------|


Riff 2
e|-----1-----5------------------1-----6---------------|
B|---3---------6--------------3---------6-------------|
G|-2-----2/------7----------3-----3/------7---| ------|
D|-----------------0------------------------0-|    ---|
A|--------------------------------------------|    ---|
E|--------------------------------------------|    ---|
                                                    |--> Play 2x
e|-----1-----7------------------5-----8-------|    ---|
B|---3---------6--------------3---------8-----|    ---|
G|-4-----4/------7----------5-----5/------9---|    ---|
D|-----------------0------------------------0-| ------|
A|----------------------------------------------------|
E|----------------------------------------------------|

Guitar 2
e|-------------------------------|
B|-------------------------------|
G|-------------------------------|
D|-2--------3--------4--------5--|
A|-0--------1--------2--------3--|
E|-------------------------------|

e|-----------------------------------|
B|-----------------------------------|
G|-----------------------------------|
D|-7----7----8----8----9----9----10--|
A|-5----5----5----5----5----5-----5--|
E|-----------------------------------|

Lead into next section:
Guitar 1
e|-----------------|
B|-6-5-3-----------|
G|-------5-3-2-----|
D|-------------5-3-|
A|-----------------|
E|-----------------|

Guitar 2
e|--------------------|
B|-10-8---------------|
G|------10-9-7--------|
D|-------------10-9-7-|
A|--------------------|
E|--------------------|


Riff 3
Guitar 1
e|-----------------------------------|
B|-----------------------------------|
G|-2-----/7~--------3-----/7~--------|
D|---0-0--------0-0---0-0--------0-0-|
A|-----------------------------------|
E|-----------------------------------|
     * *        * *   * *        * *
e|-----------------------------------|
B|-----------------------------------|
G|-4-----/7~--------5-----/7~--------|
D|---0-0--------0-0---0-0--------0-0-|
A|-----------------------------------|
E|-----------------------------------|
     * *        * *   * *        * *

Guitar 2
e|-----------------------------------|
B|-----------------------------------|
G|-7-----/10~-------7-----/10~-------|
D|---0-0--------0-0---0-0--------0-0-|
A|-----------------------------------|
E|-----------------------------------|
     * *        * *   * *        * *
e|-----------------------------------|
B|-----------------------------------|
G|-7-----/10~-------9-----/12~-------|
D|---0-0--------0-0---0-0--------0-0-|
A|-----------------------------------|
E|-----------------------------------|
     * *        * *   * *        * *


Riff 4
Guitar 1
e|---------------------------|
B|---------------------------|
G|-7\-2~--------7\-3~--------|
D|----------0-0----------0-0-|
A|---------------------------|
E|---------------------------|
            * *          * *
  "Possibly I've seen..."
e|-----------------------------|
B|-----------------------------|
G|-7\-4~--------7-5---5~--(5)\-|
D|----------0-0-----0----------|
A|-----------------------------|
E|-----------------------------|
            * *     *
  "Hangar 18..."

Guitar 2
e|---------------------------|
B|---------------------------|
G|-10\-7~--------10\-7~------|
D|----------0-0----------0-0-|
A|---------------------------|
E|---------------------------|
            * *          * *
e|-------------------------------|
B|-------------------------------|
G|-10\-7~--------10-9---9~--(9)\-|
D|----------0-0-------0----------|
A|-------------------------------|
E|-------------------------------|
            * *       *


Riff 5 (Solo Rhythm)
e|----------------------------------|
B|----------------------------------|
G|-----2-----2---2------3-----3---3-|
D|---0-----0----------0-----0-------|
A|-0-----0-----0----1-----1-----1---|
E|----------------------------------|
   * *   * *   *    * *   * *   *
e|----------------------------------|
B|----------------------------------|
G|-----4-----4---4------3-----3---3-|
D|---0-----0----------0-----0-------|
A|-2-----2-----2----1-----1-----1---|
E|----------------------------------|
   * *   * *   *    * *   * *   *
e|----------------------------------|
B|----------------------------------|
G|-----2-----2---2------3-----3---3-|
D|---0-----0----------0-----0-------|
A|-0-----0-----0----1-----1-----1---|
E|----------------------------------|
   * *   * *   *    * *   * *   *
e|----------------------------------|
B|----------------------------------|
G|-----4-----4---4------5-----5---5-|
D|---0-----0----------0-----0-------|
A|-2-----2-----2----3-----3-----3---|
E|----------------------------------|
   * *   * *   *    * *   * *   *
e|----------------------------------|
B|----------------------------------|
G|-----2-----2---2------3-----3---3-|
D|---0-----0----------0-----0-------|
A|-0-----0-----0----1-----1-----1---|
E|----------------------------------|
   * *   * *   *    * *   * *   *
e|----------------------------------|
B|----------------------------------|
G|-----4-----4---4------3-----3---3-|
D|---0-----0----------0-----0-------|
A|-2-----2-----2----1-----1-----1---|
E|----------------------------------|
   * *   * *   *    * *   * *   *
e|----------------------------------|
B|----------------------------------|
G|-----2-----2---2------3-----3---3-|
D|---0-----0----------0-----0-------|
A|-0-----0-----0----1-----1-----1---|
E|----------------------------------|
   * *   * *   *    * *   * *   *
e|-----------------|
B|-----------------|
G|-----4-----4---4-|
D|---0-----0-------|
A|-2-----2-----2---|
E|-----------------|
   * *   * *   *


Solo (Friedman)
e|-------------------------------------------|
B|-15b17~~----15b17--{16}----(17)r15---------|
G|-----------------------------------14-17~~-|
D|-------------------------------------------|
A|-------------------------------------------|
E|-------------------------------------------|

e|-------15-17-17/20-17h20p17---------------|
B|----13----------------------20--x-[20]22~-|
G|-14----------------------------x----------|
D|------------------------------------------|
A|------------------------------------------|
E|------------------------------------------|

e|-------------------------------|
B|-20b22r20p18-18b20r18----------|
G|-------------------------19~~--|
D|-------------------------------|
A|-------------------------------|
E|-------------------------------|

e|---------------------------------------------|
B|---------------------------------------------|
G|-----10-----10---10--------12-------12----12-|
D|---------------------------------------------|
A|-8-8----8-8----8-----10-10----10-10----10----|
E|---------------------------------------------|
   * *    * *    *      *  *     *  *     *
e|-------------------------------------|
B|-------------------------------------|
G|-----10-----10---10------9-----9---9-|
D|-------------------------------------|
A|-8-8----8-8----8-----7-7---7-7---7---|
E|-------------------------------------|
   * *    * *    *     * *   * *   *
e|-17p13----------13-17p13-17p13-17p13--13-|
B|------15------15--------------------15---|
G|--------14--14---------------------------|
D|----------15-----------------------------|
A|-----------------------------------------|
E|-----------------------------------------|

e|-18p13----------13-18p13-15p12-13-12-------17p13---16p13---16-16~~-|
B|------15------15---------------------15-13------15------15---------|
G|--------15--15-----------------------------------------------------|
D|----------15-------------------------------------------------------|
A|-------------------------------------------------------------------|
E|-------------------------------------------------------------------|

e|-x-20b22----20p17-22b25~~~-(25)r22\-|
B|-x----------------------------------|
G|------------------------------------|
D|------------------------------------|
A|------------------------------------|
E|------------------------------------|

e|---------------------------------------------|
B|---------------------------------------------|
G|-----10-----10---10--------12-------12----12-|
D|---------------------------------------------|
A|-8-8----8-8----8-----10-10----10-10----10----|
E|---------------------------------------------|
   * *    * *    *      *  *     *  *     *
e|---------------------|
B|---------------------|
G|-----10-----10---10--|
D|---------------------|
A|-8-8----8-8----8-----|
E|---------------------|
   * *    * *    *

End Solo

Lead into next riff:
Guitar 1
e|-5-3-1-0--3-1-0----1-0-----------------|
B|----------------3------3-1--5-3-1---3~-|
G|----------------------------------3----|
D|---------------------------------------|
A|---------------------------------------|
E|---------------------------------------|

Guitar 2
e|-------------------------------------------|
B|-------------------------------------------|
G|-10-9-7----9-7------7------------------7~~-|
D|--------10-----10-8---10-8-7-10-8-7--------|
A|------------------------------------10-----|
E|-------------------------------------------|


Play Riff 3
Play Riff 4  "Possibly..."
Play Riff 5  Solo Rhythm

Riff 5a (Solo Rhythm)
e|----------------------------------|
B|----------------------------------|
G|-----2-----2---2------3-----3---3-|
D|---0-----0----------0-----0-------|
A|-0-----0-----0----1-----1-----1---|
E|----------------------------------|
   * *   * *   *    * *   * *   *
e|----------------------------------|
B|----------------------------------|
G|-----4-----4---4------3-----3---3-|
D|---0-----0----------0-----0-------|
A|-2-----2-----2----1-----1-----1---|
E|----------------------------------|
   * *   * *   *    * *   * *   *
e|----------------------------------|
B|----------------------------------|
G|-----2-----2---2------3-----3---3-|
D|---0-----0----------0-----0-------|
A|-0-----0-----0----1-----1-----1---|
E|----------------------------------|
   * *   * *   *    * *   * *   *
e|----------------------------------|
B|----------------------------------|
G|-----4-----4---4------5-----5---5-|
D|---0-----0----------0-----0-------|
A|-2-----2-----2----3-----3-----3---|
E|----------------------------------|
   * *   * *   *    * *   * *   *
e|----------------------------------|
B|----------------------------------|
G|-----2-----2---2------3-----3---3-|
D|---0-----0----------0-----0-------|
A|-0-----0-----0----1-----1-----1---|
E|----------------------------------|
   * *   * *   *    * *   * *   *
e|----------------------------------|
B|----------------------------------|
G|-----4-----4---4------3-----3---3-|
D|---0-----0----------0-----0-------|
A|-2-----2-----2----1-----1-----1---|
E|----------------------------------|
   * *   * *   *    * *   * *   *
e|----------------------------------|
B|----------------------------------|
G|-----2-----2---2------3-----3---3-|
D|---0-----0----------0-----0-------|
A|-0-----0-----0----1-----1-----1---|
E|----------------------------------|
   * *   * *   *    * *   * *   *
e|----------------------------------|
B|----------------------------------|
G|-----4-----4---4------5-----5---5-|
D|---0-----0----------0-----0-------|
A|-2-----2-----2----3-----3-----3---|
E|----------------------------------|
   * *   * *   *    * *   * *   *
e|-----------------|
B|-----------------|
G|-----6-----6---6-|
D|---0-----0-------|
A|-4-----4-----4---|
E|-----------------|
   * *   * *  *


Solo (Friedman)
e|-------------------------------------------------------|
B|-----------x-15-17-[17]18r17b18--{17}-(18)r17-15-18b20-|
G|---17b19~--x-------------------------------------------|
D|-x-----------------------------------------------------|
A|-x-----------------------------------------------------|
E|-------------------------------------------------------|

e|--------------------------------|
B|-18p15-15h18p15-----------------|
G|----------------17b19--(17)~~~\-|
D|--------------------------------|
A|--------------------------------|
E|--------------------------------|

e|---------------------------------------------|
B|---------------------------------------------|
G|-----10-----10---10--------12-------12----12-|
D|---------------------------------------------|
A|-8-8----8-8----8-----10-10----10-10----10----|
E|---------------------------------------------|
   * *    * *    *      *  *     *  *     *
e|-------------------------------------|
B|-------------------------------------|
G|-----10-----10---10------9-----9---9-|
D|-------------------------------------|
A|-8-8----8-8----8-----7-7---7-7---7---|
E|-------------------------------------|
   * *    * *    *     * *   * *   *
e|-------------------17---18~~-----------------17-19-16---------|
B|-20b22~~--18-17--------x------------17-18-20---------18-15----|
G|---------------19-----x-------17-19------------------------16-|
D|-----------------19-------------------------------------------|
A|--------------------------------------------------------------|
E|--------------------------------------------------------------|

e|-----------16-20b22r20-20b22--20-22b22~~\-|
B|-----15--18-------------------------------|
G|---16--19---------------------------------|
D|-18---------------------------------------|
A|------------------------------------------|
E|------------------------------------------|

e|---------------------------------------------|
B|---------------------------------------------|
G|-----10-----10---10--------12-------12----12-|
D|---------------------------------------------|
A|-8-8----8-8----8-----10-10----10-10----10----|
E|---------------------------------------------|
   * *    * *    *      *  *     *  *     *
e|-------------------------------------|
B|-------------------------------------|
G|-----10-----10---10------9-----9---9-|
D|-------------------------------------|
A|-8-8----8-8----8-----7-7---7-7---7---|
E|-------------------------------------|
   * *    * *    *     * *   * *   *
e|----------------------9-13p9----|
B|-----------------9h12--------12-|
G|--------------10----------------|
D|---------9h11-------------------|
A|------11------------------------|
E|-9h13---------------------------|

End Solo


Riff 6 (Solo Rhythm)       x3
e|--------------------------|
B|--------------------------|
G|-7------------------------|
D|-------------------7-8----|
A|---5-5-5--5-8-5--5-5-6--5-|
E|--------------------------|

e|---------------------------|
B|---------------------------|
G|-7-------------------------|
D|-------------------6p5-----|
A|---5-5-5--5-8-5--5-----8p5-|
E|---------------------------|
                           x3
e|--------------------------|
B|--------------------------|
G|-7------------------------|
D|-------------------7-8----|
A|---5-5-5--5-8-5--5-5-6--5-|
E|--------------------------|

e|----------------------------|
B|----------------------------|
G|-7--------------------------|
D|------------6p5-----6p5-----|
A|---5-5-5--5-----8p5-----8p5-|
E|----------------------------|

Solo (Friedman)
e|-------------------------------------------|
B|-15-----------13--------12/15\12-----------|
G|--------------------------------10---------|
D|----12~----10----10~--9-----------12\10/12-|
A|-------------------------------------------|
E|-------------------------------------------|

e|--------------------14/17-14-------------------------------|
B|-10p7h8-7--------10----------16-13~~\-----15/20-16---------|
G|----------8-7~~------------------------11----------17------|
D|------------------------------------------------------19~~-|
A|-----------------------------------------------------------|
E|-----------------------------------------------------------|

e|--------------11-15-14----11-------------------|
B|-----------13----------13----15----13----------|
G|--------12----------------------14----17b19~~\-|
D|-/12-13----------------------------------------|
A|-----------------------------------------------|
E|-----------------------------------------------|

e|-/17-14-14-14-15-11-11-14-10-10-10-11-8-8-10-6-6-6-|
B|---------------------------------------------------|
G|---------------------------------------------------|
D|---------------------------------------------------|
A|---------------------------------------------------|
E|---------------------------------------------------|

e|-8-5-5-6-5h6p5---5-------------------------|
B|---------------8---8-[8]10r8-8b10~~-(10)r8-|
G|-------------------------------------------|
D|-------------------------------------------|
A|-------------------------------------------|
E|-------------------------------------------|

e|------------------------------------------------------|
B|-7h8h10p8p7---7h8p7~~----10h11h13p11p10----10h11p10~~-|
G|------------8---------------------------12------------|
D|------------------------------------------------------|
A|------------------------------------------------------|
E|------------------------------------------------------|

e|----------------------------------------14-15-17-18b20~~-|
B|-13h15h16p15p13----15p13----13-13-15-16------------------|
G|----------------15-------15------------------------------|
D|---------------------------------------------------------|
A|---------------------------------------------------------|
E|---------------------------------------------------------|

End Solo


Riff 7
e|---------------------------|
B|---------------------------|
G|---------------------------|
D|-------4-----------------5-|
A|-----------------------5---|
E|-0h1/2---2--2-5-2--2-3-----|
                       * *
e|-----------------------------|
B|-----------------------------|
G|-----------------------------|
D|-------4---------------------|
A|---------------------3p2-----|
E|-0h1/2---2--2-5-2--2-----5p2-|

e|---------------------------|
B|---------------------------|
G|---------------------------|
D|-------4-----------------5-|
A|-----------------------5---|
E|-0h1/2---2--2-5-2--2-3-----|
                       * *
e|------------------------------|
B|------------------------------|
G|--------------5p4-----6p5-----|
D|-------4----------7p4-----8p5-|
A|------------------------------|
E|-0h1/2---2--2-----------------|

Play Riff 6   Solo Rhythm


Solo (Friedman)
e|----------------------------------------14-15p14--10-------|
B|----------10-13-10-13/15-13-15-10-13-15--------------13p10-|
G|----11-12--------------------------------------------------|
D|-12--------------------------------------------------------|
A|-----------------------------------------------------------|
E|-----------------------------------------------------------|

e|------------------------------------------|
B|-/22--------------------------------------|
G|-----17p14-17p14\11-12-11h12p11\-7b8r7----|
D|---------------------------------------10-|
A|------------------------------------------|
E|------------------------------------------|

e|--------------------------/15-11-------------|
B|-----7-10-9-10-7-8-7-4-----------13----------|
G|-7/8-------------------7------------14-11/13-|
D|---------------------------------------------|
A|---------------------------------------------|
E|---------------------------------------------|

e|-----------------------------17------------------|
B|----13-16--------13-16-15/16----16\15-13---------|
G|-14-------13--14-------------------------16b17~~-|
D|-------------------------------------------------|
A|-------------------------------------------------|
E|-------------------------------------------------|

e|----------------------------------------------------|
B|-10-10/13-13-13-13\12-12-12-12/20-20-20-20\19-19-19-|
G|----------------------------------------------------|
D|----------------------------------------------------|
A|----------------------------------------------------|
E|----------------------------------------------------|

e|-------------------------------------------------------------|
B|-19\13-13-13-13h15p13-10h13-15-12h13p12-10-12-13-12-10h12p10-|
G|-------------------------------------------------------------|
D|-------------------------------------------------------------|
A|-------------------------------------------------------------|
E|-------------------------------------------------------------|

e|----------------------7-8-10-12p10-8-10p8-7-10p8-7--7-8-7-----|
B|-8-12-10-8h10p8-7-8-10----------------------------10-----10-8-|
G|--------------------------------------------------------------|
D|--------------------------------------------------------------|
A|--------------------------------------------------------------|
E|--------------------------------------------------------------|

e|------10-------------------------------|
B|-7h10----10p7---7---7------------------|
G|--------------9---9---9b11--(11)r9-7~~-|
D|---------------------------------------|
A|---------------------------------------|
E|---------------------------------------|

End Solo


Play Riff 7

Riff 8                        x4
e|-----------------------------|
B|-----------------------------|
G|-----------------------------|
D|-----------------------------|
A|-----------------4/5-4/5-4/5-|
E|-3-2-0-2-3-5-3-2-2/3-2/3-2/3-|
   * * * * * * * *


Play Riff 7   Solo Rhythm


Solo (Mustaine)
e|-17-17-17-17-17-16-14--17-17-17-17-17-16-14-|
B|--------------------------------------------|
G|--------------------------------------------|
D|--------------------------------------------|
A|--------------------------------------------|
E|--------------------------------------------|

e|-17-17-17-17-17-16-14--17-17-17-17-17-16-14-|
B|--------------------------------------------|
G|--------------------------------------------|
D|--------------------------------------------|
A|--------------------------------------------|
E|--------------------------------------------|

e|-17-17-17-17-17-16-14-----------------------|
B|-----------------------17-17-17-17-17-16-14-|
G|--------------------------------------------|
D|--------------------------------------------|
A|--------------------------------------------|
E|--------------------------------------------|

e|--------------------------------------------|
B|--------------------------------------------|
G|-16-16-15-15-14-14-----14-------------------|
D|-------------------16-----16-16-16-16-14----|
A|-----------------------------------------16-|
E|--------------------------------------------|

e|--------------------------------------------------------|
B|-----------------------------------------------16-------|
G|---14--14-14-----16-----14-----16--14-14h16/17----17h18-|
D|-14--14-----16-16--16-16--16-16--16---------------------|
A|--------------------------------------------------------|
E|--------------------------------------------------------|

e|----------------------------------x-|
B|-17-16-14-17-19p17p14-14-14-14-17-x-|
G|------------------------------------|
D|------------------------------------|
A|------------------------------------|
E|------------------------------------|

e|-14-17p14-14-17-14-19p17p14-14-14-19b21-19p17----19b21~~-|
B|----------------------------------------------19---------|
G|---------------------------------------------------------|
D|---------------------------------------------------------|
A|---------------------------------------------------------|
E|---------------------------------------------------------|

End Solo


Play Riff 8
Play Riff 7   Solo Rhythm

Solo (Friedman)
e|-------------------------------22b24r22--21p20----21~~\-|
B|-21b23r21--------------------------------------20-------|
G|-----------18-21b23~~----21-18--------------------------|
D|--------------------------------------------------------|
A|--------------------------------------------------------|
E|--------------------------------------------------------|

e|-------------14-15----------------------------------|
B|-------------------15-------------------------------|
G|-18p14----------------17-14----14-17-14h17p14h17p14-|
D|-------18-14----------------18----------------------|
A|----------------------------------------------------|
E|----------------------------------------------------|

e|---------------------------------------------------------------|
B|----14-17p14----17p14-----------14-17p14----17p14-------17b19\-|
G|-17----------17-------17-14--17----------17-------17-14--a-----|
D|---------------------------------------------------------------|
A|---------------------------------------------------------------|
E|---------------------------------------------------------------|

End Solo

Play Riff 8
Play Riff 7   Solo Rhythm


Solo (Mustaine)
e|-21-17-14-17-14-14-------------------|
B|-------------------21-17-14-17-14-14-|
G|-------------------------------------|
D|-------------------------------------|
A|-------------------------------------|
E|-------------------------------------|

e|-------------------------------------|
B|-21-17-14-17-14-14-------------------|
G|-------------------21-17-14-17-14-14-|
D|-------------------------------------|
A|-------------------------------------|
E|-------------------------------------|

e|-------------------------------------|
B|-21-17-14-17-14-14-------------------|
G|-------------------21-17-14-17-14-14-|
D|-------------------------------------|
A|-------------------------------------|
E|-------------------------------------|

e|-------------------------------------|
B|-------------------------------------|
G|-21-17-14-17-14-14-------------------|
D|-------------------21-17-14-17-14-14-|
A|-------------------------------------|
E|-------------------------------------|

e|-------------------------------------|
B|-------------------------------------|
G|-------------------------------------|
D|-21-17-14-17-14-14-------------------|
A|-------------------21-17-14-17-14-14-|
E|-------------------------------------|

e|---------------------------------------------|
B|---------------------------------------------|
G|---------------------------------------------|
D|------------------------------14h21-14h17h21-|
A|----------------14h21-14h17h21---------------|
E|-14h21-14h17h21------------------------------|

e|-------------------------------14h21p14\--------|
B|----------------14h21-14h17h21------------------|
G|-14h21-14h17h21---------------------------------|
D|------------------------------------------------|
A|-------------------------------------------/17~-|
E|------------------------------------------------|

End Solo

Play Riff 8
Play Riff 7   Solo Rhythm


Solo (Friedman)
e|------------------------10-9---------14p10-12----10-|
B|-9-12-10-9----10-9-----------12-10-9----------14----|
G|-----------11------11-9-----------------------------|
D|----------------------------------------------------|
A|----------------------------------------------------|
E|----------------------------------------------------|

e|---------------------12h14h18p14h18p14h18p14h18p14h18p14-------|
B|-13h14p10-14/15\14/15-----------------------------------17b19~-|
G|---------------------------------------------------------------|
D|---------------------------------------------------------------|
A|---------------------------------------------------------------|
E|---------------------------------------------------------------|

e|-14-------------14----------------------------------------|
B|---17p14------14--14-17p14-19-14-----------14-17-14-------|
G|--------16b18--------------------16b18r16-----------16b18-|
D|----------------------------------------------------------|
A|----------------------------------------------------------|
E|----------------------------------------------------------|

e|-14----------14----------------------14-------------|
B|----14h17--14---14-------------14-17----------------|
G|------------------16b18r16--14----------16-17b19~~\-|
D|----------------------------------------------------|
A|----------------------------------------------------|
E|----------------------------------------------------|

End Solo


Play Riff 8
Play Riff 7  Solo Rhythm

Solo (Mustaine)
e|-5-4-2-4-2---------------8-7-5-7-5---------------|
B|-----------5-5-4-2-2-4-5-----------8-8-7-5-5-7-8-|
G|-------------------------------------------------|
D|-------------------------------------------------|
A|-------------------------------------------------|
E|-------------------------------------------------|

e|-11-10-8-10-8--------------------|
B|--------------11-11-10-8-8-10-11-|
G|---------------------------------|
D|---------------------------------|
A|---------------------------------|
E|---------------------------------|

e|-14-13-11-13-11----------------------|
B|----------------14-14-13-11-11-13-14-|
G|-------------------------------------|
D|-------------------------------------|
A|-------------------------------------|
E|-------------------------------------|

e|-17-16-14-16-14----------------------|
B|----------------17-17-16-14-14-16-17-|
G|-------------------------------------|
D|-------------------------------------|
A|-------------------------------------|
E|-------------------------------------|

e|-20-19-17-19-17----------------------|
B|----------------20-20-19-17-17-19-20-|
G|-------------------------------------|
D|-------------------------------------|
A|-------------------------------------|
E|-------------------------------------|

e|-23-22-20-22-20--------------|
B|----------------23-23-22-20\-|
G|-----------------------------|
D|-----------------------------|
A|-----------------------------|
E|-----------------------------|

e|-/6/7/9/11/13/14/16/18/20/22/23/24b26-24b26-|
B|--------------------------------------------|
G|--------------------------------------------|
D|-[steady gliss, notes shown are random]-----|
A|--------------------------------------------|
E|--------------------------------------------|

e|-24b26----24b26----24b26----24b26-|
B|----------------------------------|
G|----------------------------------|
D|----------------------------------|
A|----------------------------------|
E|----------------------------------|

e|-24b26-24b26-24b26-24b26-24b26-24b26-24b26-24b26-|
B|-------------------------------------------------|
G|-------------------------------------------------|
D|-------------------------------------------------|
A|-------------------------------------------------|
E|-------------------------------------------------|

e|-24b26tm--------(24b26tm)--------(24b26tm)\-|
B|--------------------------------------------|
G|--------------------------------------------|
D|--------------------------------------------|
A|--------------------------------------------|
E|--------------------------------------------|

End Solo


Ending
e|--------------------------------------------------|
B|--------------------------------------------------|
G|--------------------------------------------------|
D|--------------------------------------------------|
A|--5-------(5)----------------------4/5-4/5-4/5-4\-|
E|--3-------(3)------3-2-0-2-3-5-3-2-2/3-2/3-2/3-2\-|


          Lyrics

welcome to our fortress tall
take some time to show you around
impossible to break these walls
for you see the steel is much to strong
computer banks to rule the world
instruments to sight the stars

possibly Ive seen to much
hanger 18 I know to much

foreign life forms inventory
suspended state of cryogenics
selective amnesias the story
believed foretold but who'd suspect
the military intelligence
two words combined that cant make sense

Possibly Ive seen to much
hanger 18 I know to much

===========================================================
13.Take No Prisoners
tabbed by: Andrew Zara
Band- Megadeth
Song- Take No Prisoners

Tuning: Standard

Riff 1 (Play 2x)        x3
e|-----------------------|
B|-----------------------|
G|-----------------------|
D|-----------------------|
A|-4--4--4--4------------|
E|-2--2--2--2--0-3-0-2-0-|
               * * * * *
e|---------------------------|
B|---------------------------|
G|---------------------------|
D|---------------------------|
A|---------------------------|
E|-2-1-0-3--2-1-0-5--2-1-0-3-|
   * * *    * * *    * * * *


Riff 1a (Play 2x)
e|-----------------------|
B|-----------------------|
G|-----------------------|
D|-----------------------|
A|-4--4--4--4------------|
E|-2--2--2--2--0-3-0-2-0-|
               * * * * *
e|---------------------------|
B|---------------------------|
G|---------------------------|
D|---------------------------|
A|---------------------------|
E|-2-1-0-3--2-1-0-5--2-1-0-3-|
   * * *    * * *    * * * *

Riff 1b
e|-----------------------|
B|-----------------------|
G|-----------------------|
D|-----------------------|
A|-4--4--4--4------------|
E|-2--2--2--2--0-3-0-2-0-|
               * * * * *    x3
e|---------------------------|
B|---------------------------|
G|---------------------------|
D|---------------------------|
A|---------------------------|
E|-2-1-0-3--2-1-0-5--2-1-0-3-|
   * * *    * * *    * * * *


Riff 2
e|-------------------------------------|
B|-------------------------------------|
G|-------------------------------------|
D|-------------------------------------|
A|-------------------------------------|
E|-2-1-0--3-2-0--2-1-0--3-2-0--3-2-1-0-|
   * * *  * * *  * * *  * * *  * * * *


Riff 3
e|-----------------------|
B|-----------------------|
G|-----------------------|
D|----------------0----5-|
A|-4-4-4-5-5-5-4--0----3-|
E|-2-2-2-3-3-3-2----22-3-|
   * * * * * *      **


Riff 3a
e|----------------|
B|----------------|
G|----------------|
D|----------0---5-|
A|-4--5--4--0-4-3-|
E|-2--3--2----2-3-|
   *          *
  "Got one chance..."

Riff 3b
e|-----------------------|
B|-----------------------|
G|-----------------------|
D|----------------4----7-|
A|-6-6-6-7-7-7-6--2----5-|
E|-4-4-4-5-5-5-4----44---|
   * * * * * *      **
  "And their people..."


Play Riff 3a  "Epidemic..."

Final bar:
e|-----------------|
B|-----------------|
G|-----------------|
D|----------0------|
A|-4--5--4--0-4----|
E|-2--3--2----2-9/-|
   *          *
   "Cremate them..."


Riff 4
e|-------------------------------------|
B|-------------------------------------|
G|-------------------------------------|
D|-------------------------------------|
A|-------------------------------------|
E|-14--12-13--11-12--10-11--9-10-8-9-7-|

e|-----------------------------|
B|-----------------------------|
G|-----------------------------|
D|-----------------------------|
A|-----------------------------|
E|-8--6-7--5-6--4-5--3-4-2-3-1-|

e|------------------------------------------|
B|------------------------------------------|
G|----------------------------2--4-----2--4-|
D|-------------------------4--2--4--4--2--4-|
A|-4-x-4-x-4-x-4-----------4--------4-------|
E|-2-x-2-x-2-x-2-0-3-0-2-0------------------|
                 * * * * *
                         "Burn!"
e|-------------------------------------|
B|-------------------------------------|
G|-------------------------------------|
D|-------------------------------------|
A|-------------------------------------|
E|-14--12-13--11-12--10-11--9-10-8-9-7-|

e|-----------------------------|
B|-----------------------------|
G|-----------------------------|
D|-----------------------------|
A|-----------------------------|
E|-8--6-7--5-6--4-5--3-4-2-3-1-|

e|-------------------------------------------|
B|-------------------------------------------|
G|-------------------------------------------|
D|-------------------------2--0--2--2/3-2--0-|
A|-4-x-4-x-4-x-4-----------2--0--2--2/3-2--0-|
E|-2-x-2-x-2-x-2-0-3-0-2-0-------------------|
                 * * * * *
e|------------------------------------------|
B|------------------------------------------|
G|----------------------------2--4-----2--4-|
D|-------------------------4--2--4--4--2--4-|
A|-4-x-4-x-4-x-4-----------4--------4-------|
E|-2-x-2-x-2-x-2-0-3-0-2-0------------------|
                 * * * * *
e|-------------------------------------------|
B|-------------------------------------------|
G|-------------------------------------------|
D|-------------------------2--0--2--2/3-2--0-|
A|-4-x-4-x-4-x-4-----------2--0--2--2/3-2--0-|
E|-2-x-2-x-2-x-2-0-3-0-2-0-------------------|
                 * * * * *
e|-------------------------------------|
B|-------------------------------------|
G|-------------------------------------|
D|-------------------------------------|
A|-------------------------------------|
E|-14--12-13--11-12--10-11--9-10-8-9-7-|

e|-----------------------------|
B|-----------------------------|
G|-----------------------------|
D|-----------------------------|
A|-----------------------------|
E|-8--6-7--5-6--4-5--3-4-2-3-1-|

e|-----------------------|
B|-----------------------|
G|-----------------------|
D|-----------------4/-11-|
A|-4-x-4-x-4-x-4-x-2/--9-|
E|-2-x-2-x-2-x-2-x-------|


Riff 5
e|-------------------------|
B|-------------------------|
G|-------------------------|
D|-------------------------|
A|-4-x-4-x-4-x-4-----------|
E|-2-x-2-x-2-x-2-0-3-0-2-0-|
                 * * * * *
  "Go to war..."
e|---------------------------------|
B|---------------------------------|
G|---------------------------------|
D|---------------------------------|
A|-----2-3-2-----------2-3-2-------|
E|-2-5-------5-2-0-2-5-------5-2-0-|

e|-------------------------|
B|-------------------------|
G|-------------------------|
D|-------------------------|
A|-4-x-4-x-4-x-4-----------|
E|-2-x-2-x-2-x-2-0-3-0-2-0-|
                 * * * * *
  "D-day next stop..."
e|---------------------------------|
B|---------------------------------|
G|---------------------------------|
D|---------------------------------|
A|-----0-1-0-----------0-1-0-------|
E|-0-3-------3-0-0-0-3-------3-0-0-|

Riff 4a
e|-------------------------------------|
B|-------------------------------------|
G|-------------------------------------|
D|-------------------------------------|
A|-------------------------------------|
E|-14--12-13--11-12--10-11--9-10-8-9-7-|
   "A playground..."
e|-----------------------------|
B|-----------------------------|
G|-----------------------------|
D|-----------------------------|
A|-----------------------------|
E|-8--6-7--5-6--4-5--3-4-2-3-1-|
   "...demented a haven..."
e|---------------------------|
B|---------------------------|
G|---------------------------|
D|---------------------------|
A|-4-x-4-x-4-x-4-----------4-|
E|-2-x-2-x-2-x-2-0-3-0-2-0-2-|
                 * * * * *
   "...those who walk..."


Riff 6
e|--------------------------------------------|
B|--------------------------------------------|
G|--------------------------------------------|
D|-4-3-2---4--4-3-2---------------------------|
A|-------4----------3-2--4-3-2-0----1-0-----3-|
E|-------------------------------3------3-2-1-|


Riff 7
Guitar 1                    x3
e|---------------------------|
B|---------------------------|
G|---------------------------|
D|---------------------------|
A|-5-x-4-x-5-x-4-----------4-|
E|-3-x-2-x-3-x-2-0-3-0-2-0-2-|
                 * * * * *
   "Love and war they..."
e|-------------------------|
B|-------------------------|
G|-------------------------|
D|-------------------------|
A|-5-x-4-x-5-x-4-----------|
E|-3-x-2-x-3-x-2-0-3-0-2-0-|
                 * * * * *
   "By the way..."
e|-------------------------------|
B|-------------------------------|
G|-------------------------------|
D|-4p2---------------------------|
A|-----4p0-4p0-4-4-3-2-0---2p0---|
E|-----------------------2-----0-|
   "...wheelchair..."

Guitar 2
e|-------------------------|
B|-------------------------|
G|-------------------------|
D|-------------------------|
A|-5-x-4-x-5-x-4-----------|
E|-3-x-2-x-3-x-2-0-3-0-2-0-|
                 * * * * *
   "Love and war they..."
e|-------------------------------|
B|-------------------------------|
G|-------------------------------|
D|-------------------------2-3-4-|
A|-----2-3-2-0-2-2-2-3-4-5-------|
E|-2-5---------------------------|

e|-------------------------|
B|-------------------------|
G|-------------------------|
D|-------------------------|
A|-5-x-4-x-5-x-4-----------|
E|-3-x-2-x-3-x-2-0-3-0-2-0-|
                 * * * * *
   "Take his life..."
e|-------------------------------|
B|-------------------------------|
G|-------------------------------|
D|-4p2---------------------------|
A|-----4p0-4p0-4-4-3-2-0---2p0---|
E|-----------------------2-----0-|

e|-------------------------|
B|-------------------------|
G|-------------------------|
D|-------------------------|
A|-5-x-4-x-5-x-4-----------|
E|-3-x-2-x-3-x-2-0-3-0-2-0-|
                 * * * * *
   "Your body has parts..."
e|-------------------------------|
B|-------------------------------|
G|-------------------------------|
D|-------------------------2-3-4-|
A|-----2-3-2-0-2-2-2-3-4-5-------|
E|-2-5---------------------------|

e|-------------------------|
B|-------------------------|
G|-------------------------|
D|-------------------------|
A|-5-x-4-x-5-x-4-----------|
E|-3-x-2-x-3-x-2-0-3-0-2-0-|
                 * * * * *
   "By the way..."
e|-------------------------------|
B|-------------------------------|
G|-------------------------------|
D|-4p2---------------------------|
A|-----4p0-4p0-4-4-3-2-0---2p0---|
E|-----------------------2-----0-|
   "...wheelchair..."

Riff 8
e|-------------------------------|
B|-------------------------------|
G|-6--7-6------------------------|
D|-4--5-4--6-7-------------------|
A|---------4-5-7--6--7--6--4-6-7-|
E|-------------5--4--5--4--2-4-5-|
                           * *
  "He once had..."
e|-------------------------|
B|-------------------------|
G|-------------------------|
D|-------------------------|
A|-5-x-4-x-5-x-4-----------|
E|-3-x-2-x-3-x-2-0-3-0-2-0-|
                 * * * * *
   "...nothing for no one..."
e|-------------------------------|
B|-------------------------------|
G|-------------------------------|
D|-------------------------2-3-4-|
A|-----2-3-2-0-2-2-2-3-4-5-------|
E|-2-5---------------------------|
   "...nowhere to see..."
e|-------------------------------|
B|-------------------------------|
G|-6--7-6------------------------|
D|-4--5-4--6-7-------------------|
A|---------4-5-7--6--7--6--4-6-7-|
E|-------------5--4--5--4--2-4-5-|
                           * *
  "Funny thing..."
e|-------------------------|
B|-------------------------|
G|-------------------------|
D|-------------------------|
A|-5-x-4-x-5-x-4-----------|
E|-3-x-2-x-3-x-2-0-3-0-2-0-|
                 * * * * *
   "...funny thing..."
e|-------------------------------|
B|-------------------------------|
G|-------------------------------|
D|-4p2---------------------------|
A|-----4p0-4p0-4-4-3-2-0---2p0---|
E|-----------------------2-----0-|
   "...a funny thing..."


Riff 7a
e|-------------------------|
B|-------------------------|
G|-------------------------|
D|-------------------------|
A|-5-x-4-x-5-x-4-----------|
E|-3-x-2-x-3-x-2-0-3-0-2-0-|
                 * * * * *
   "Tears streak..."
e|-------------------------------|
B|-------------------------------|
G|-------------------------------|
D|-------------------------2-3-4-|
A|-----2-3-2-0-2-2-2-3-4-5-------|
E|-2-5---------------------------|
   "...solemn stare..."
e|-------------------------|
B|-------------------------|
G|-------------------------|
D|-------------------------|
A|-5-x-4-x-5-x-4-----------|
E|-3-x-2-x-3-x-2-0-3-0-2-0-|
                 * * * * *
   "Abandoned for wreckage..."
e|-------------------------------|
B|-------------------------------|
G|-------------------------------|
D|-4p2---------------------------|
A|-----4p0-4p0-4-4-3-2-0---2p0---|
E|-----------------------2-----0-|
   "...no one cares..."


Riff 8a
e|-------------------------------|
B|-------------------------------|
G|-6--7-6------------------------|
D|-4--5-4--6-7-------------------|
A|---------4-5-7--6--7--6--4-6-7-|
E|-------------5--4--5--4--2-4-5-|
                           * *
   "No one knew what..."
e|------------------------------|
B|------------------------------|
G|-6--7-6---------6--7-6--------|
D|-4--5-4--6-7----4--5-4--6-7---|
A|---------4-5-7----------4-5-7-|
E|-------------5--------------5-|
   "No one spoke..."


Play Riff 3a  "Don't ask..."


Riff 9
e|------------------------------------|
B|------------------------------------|
G|------------------------------------|
D|----0--5--4--0--4-------------------|
A|-4--0--3--2--0--2--3333333333333333-|
E|-2----------------------------------|
                     ****************
                     "Take no prisoners..."
e|------------------------------------|
B|------------------------------------|
G|------------------------------------|
D|----0--5--4--0----------------------|
A|-4--0--3--2--0--5--4--4--2--4--4--2-|
E|-2--------------3--2--2--0--2--2--0-|
                      "Take no shit!"

Final time:
e|------------------------------------|
B|------------------------------------|
G|------------------------------------|
D|----0--5--4--0--4-------------------|
A|-4--0--3--2--0--2--3333333333333333-|
E|-2----------------------------------|
                     ****************
                     "Take no prisoners..."
e|------------------------------------|
B|------------------------------------|
G|------------------------------------|
D|----0--5--4--0----------------------|
A|-4--0--3--2--0--5--4--4--2--4--4--2-|
E|-2--------------3--2--2--0--2--2--0-|
                       "Take no..."
e|------------------------------------|
B|------------------------------------|
G|------------------------------------|
D|------------------------------------|
A|-4--4--2--4--4--2--4--4--2--4--4--2-|
E|-2--2--0--2--2--0--2--2--0--2--2--0-|

e|---------------|
B|---------------|
G|---------------|
D|----------11\--|
A|-4--4--2---9\--|
E|-2--2--0-------|
         "...shit!"


Ending solo (Friedman)
e|------------------------------------------------|
B|------------------------------------------------|
G|-----12b14--(14)r12----12b14--(14)r12p9---------|
D|--------------------10------------------12-10~~-|
A|------------------------------------------------|
E|-X\\--------------------------------------------|

e|--------------14-20b21--17-------21p17-----------|
B|-0--------14---------------19----------19--------|
G|---16b18----------------------18----------18~~~\-|
D|-------------------------------------------------|
A|-------------------------------------------------|
E|-------------------------------------------------|

e|--------------------------------------------------|
B|--------------------------------------------------|
G|-----14-13-----------------------14-16-14h16p14---|
D|-/16-------14-16-14-16p14--14-16---------------16-|
A|--------------------------------------------------|
E|--------------------------------------------------|

e|-------------------------------|
B|-------------------------------|
G|-14-16b17--(17)r16b17r16b17~~~-|
D|-------------------------------|
A|-------------------------------|
E|-------------------------------|

e|----------------------------------------------------|
B|----------------14-13h15-13-18h19p18p15-18h19p18p15-|
G|-------11-13-14-------------------------------------|
D|-10\9/----------------------------------------------|
A|----------------------------------------------------|
E|----------------------------------------------------|

e|-----------------------|
B|-15--------------------|
G|----19--19p17p14-------|
D|-----------------16~~\-|
A|-----------------------|
E|-----------------------|

e|------------------------------------------17b20~~--x\-|
B|---17b19-17b19~--19p17p14-17b19--19p17p14----------x\-|
G|-x----------------------------------------------------|
D|-x----------------------------------------------------|
A|------------------------------------------------------|
E|------------------------------------------------------|

e|-16h21p16p14h16-21-14-16---------------------------------|
B|------------------------14h17h21p14--------------17b19~~-|
G|-----------------------------------21-14-14-21-x---------|
D|---------------------------------------------------------|
A|---------------------------------------------------------|
E|---------------------------------------------------------|

e|-x--14b15r14--12h14p12--12-14-11-14p11--11----------|
B|-x--------------------14--------------14--14-13~~~\-|
G|-x--------------------------------------------------|
D|----------------------------------------------------|
A|----------------------------------------------------|
E|----------------------------------------------------|

e|------------------------------------------------|
B|-/14-13-12--------------------------------------|
G|-----------14-13-12-11----/14-12-14-11----------|
D|-----------------------14--------------12-11~~~-|
A|------------------------------------------------|
E|------------------------------------------------|

e|--------------------------------------------------------|
B|--------------------------------------------------------|
G|--------------------------------------------------------|
D|-10b11r10--(10)b11--(11)tm----(11)tm----(11)tm----(11)\-|
A|--------------------------------------------------------|
E|--------------------------------------------------------|

End Solo

Notation:

10^        = bend a quarter step.
10b11      = bend a half step.
10b12      = bend a full step.
10b12r10   = bend and release.
[10]12     = pre-bend.
[10]12r10  = pre-bend and release.
{14}       = pick the 14th fret while holding the most
             previous bend.
<17>       = touch the string above the 17th fret while
             previous note(s) is(are) still ringing.

10b13*     = tremolo bar bend, from the 10th fret to the 13th fret.
7d4*       = tremolo bar dive, from the 7th fret to the 4th fret.
12~*       = tremolo bar vibrato.

x   =  mute with fret-hand
*   =  palm mute
X\\ =  pick slide
h   =  hammer-on
p   =  pull-off
~   =  vibrato
t   =  finger tap
/   =  slide up
\   =  slide down
h.  =  natural harmonics
a   =  artificial harmonics
(9) =  ghost note
tm  =  trem picking
tr  =  trill

=================================================================
14.Go to Hell
                                GO TO HELL
                                 Megadeth
                  (From The 1995 Album Hidden Treasures)

Transcribed by Jonathan Casper (confinedforever)

Gtr 1 - Tuning Standard - (E A D G B E)


Riff 1
Guitar 1
e|----------------------------|
B|----------------------------|
G|----------------------------|
D|----------------------------|
A|-2-------/7~----2-------/6~-|
E|---3-2-1----------3-2-1-----|
   * * * *        * * * *
e|----------------------------|
B|----------------------------|
G|----------------------------|
D|----------------------------|
A|-2-------/5~----2-------/4~-|
E|---3-2-1----------3-2-1-----|
   * * * *        * * * *
e|--------------------|
B|--------------------|
G|--------------------|
D|---------5--------4-|
A|-2-------3--------2-|
E|---3-2-1------------|
   * * * *
e|-----------------|
B|-----------------|
G|-----------------|
D|-4-4-4-4-4-------|
A|-2-2-2-2-2-------|
E|-----------3-2-1-|
   * * * * * * * *

Guitar 2
e|----------------------------|
B|----------------------------|
G|----------------------------|
D|------------------------/4~-|
A|-2-------/7~----2-----------|
E|---3-2-1----------3-2-1-----|
   * * * *        * * * *
e|----------------------------|
B|----------------------------|
G|----------------------------|
D|---------/5~------------/7~-|
A|-2--------------2-----------|
E|---3-2-1----------3-2-1-----|
   * * * *        * * * *
e|---------------------3-6-7-6-7-6-7-6--|
B|-------------------5------------------|
G|---------------3-5--------------------|
D|-----------2-5------------------------|
A|-2-------3----------------------------|
E|---3-2-1------------------------------|
   * * * * * * * * * * *
e|-7-5------------------|
B|-----7-4--------------|
G|---------4------------|
D|-----------5-4-3------|
A|------------------7~--|
E|----------------------|
           * * * *


Riff 2
e|---------------------------------|
B|---------------------------------|
G|-------0---------------0---------|
D|-----4-----4-2-------4-----4-2---|
A|---2-----3-----3---4-----5-----3-|
E|-0---------------0---------------|

e|---------------------------------|
B|---------------------------------|
G|-------0---------------0---------|
D|-----4-----4-2-------4---4-------|
A|---2-----3-----3---1-----2-------|
E|-0---------------2---------3-2-1-|


Riff 3
e|-----------------------|
B|-----------------------|
G|-----------------------|
D|-2------------2---2-3--|
A|-2------------2---2-3--|
E|----0-0-0-0-0---0------|
      * * * * *   *
   "Now I lay me..."
e|-----------------------|
B|-----------------------|
G|-----------------------|
D|-2------------2---2-1--|
A|-2------------2---2-1--|
E|----0-0-0-0-0---0------|
      * * * * *   *
   "I pray the Lord..."


Riff 1a
Guitar 1
e|----------------------------|
B|----------------------------|
G|----------------------------|
D|----------------------------|
A|-2-------/7~----2-------/6~-|
E|---3-2-1----------3-2-1-----|
   * * * *        * * * *
e|----------------------------|
B|----------------------------|
G|----------------------------|
D|----------------------------|
A|-2-------/5~----2-------/4~-|
E|---3-2-1----------3-2-1-----|
   * * * *        * * * *
e|-----------------------------|
B|-----------------------------|
G|-----------------------------|
D|---------5--------4----------|
A|-2-------3--------2--------3-|
E|---3-2-1-------------------1-|
   * * * *

Guitar 2
e|----------------------------|
B|----------------------------|
G|----------------------------|
D|------------------------/4~-|
A|-2-------/7~----2-----------|
E|---3-2-1----------3-2-1-----|
   * * * *        * * * *
e|----------------------------|
B|----------------------------|
G|----------------------------|
D|---------/5~------------/7~-|
A|-2--------------2-----------|
E|---3-2-1----------3-2-1-----|
   * * * *        * * * *
e|---------------------------------|
B|---------------------------------|
G|---------2b3-2b3-2b3-2b3-2b3~~---|
D|---------------------------------|
A|-2-----------------------------3-|
E|---3-2-1-----------------------1-|
   * * * *


Riff 4 (Guitar 2 does a pick slide before verse)
e|-----------------------|
B|-----------------------|
G|-----------------------|
D|---------2----------3--|
A|---------2----------3--|
E|-0-0-0-0----0-0-0-0----|
   * * * *    * * * *
e|--------------------------|
B|--------------------------|
G|--------------------------|
D|---------0----------5-4-3-|
A|---------0----------5-4-3-|
E|-0-0-0-0----0-0-0-0-------|
   * * * *    * * * *


Riff 4a
e|----------------------------------|
B|----------------------------------|
G|----------------------------------|
D|---------2----------3--| ---------|
A|---------2----------3--|       ---|
E|-0-0-0-0----0-0-0-0----|       ---|
   * * * *    * * * *             |
   "Not going to..."              |--> Play 3x
e|--------------------------|    ---|
B|--------------------------|    ---|
G|--------------------------|    ---|
D|---------0----------5-4-3-| ------|
A|---------0----------5-4-3---------|
E|-0-0-0-0----0-0-0-0---------------|
   * * * *    * * * *
   "...they pull my plug..."

e|---------------------------|
B|---------------------------|
G|---------------------------|
D|---------2----------3----6-|
A|---------2----------3----6-|
E|-0-0-0-0----0-0-0-0----0---|
   * * * *    * * * *    *
   "...lays..."
e|--------------------------|
B|--------------------------|
G|--------------------------|
D|-----------------------3--|
A|-1-0-3-2---2-1-------3-3--|
E|---------4-----1-0-1------|
   * * * * * * * * * * *
                    "Go to hell!"

Riff 5 (Solo Rhythm)             x3
e|--------------------------------|
B|--------------------------------|
G|--------------------------------|
D|-2-----3-----0-----7-6-5--5-4-3-|
A|-2-----3-----0-----7-6-5--5-4-3-|
E|---0-0---0-0---0-0--------------|
     * *   * *   * *
e|---------------|
B|---------------|
G|---------------|
D|-2-----3-----0-|
A|-2-----3-----0-|
E|---0-0---0-0---|
     * *   * *


Solo (Friedman)
e|-----------------7-------------------|
B|-------------5h6---6p5-------5-------|
G|-7b9--7b9~~------------7-6h7---7p6p4-|
D|-------------------------------------|
A|-------------------------------------|
E|-------------------------------------|

e|------------------------------------------|
B|------------------------------------------|
G|-6/9\6p4---4-6p4---4----------------------|
D|---------5-------5---5p4------------------|
A|-------------------------7b9r7~~----------|
E|-------------------------------------//\\-|

e|-------------15h19-21p19p15----------|
B|----------17----------------17-------|
G|----16h18----------------------18p16-|
D|-17----------------------------------|
A|-------------------------------------|
E|-------------------------------------|

e|-------------15-17-18p17-15----------|
B|----------17----------------17-15-15-|
G|----16h18----------------------------|
D|-17----------------------------------|
A|-------------------------------------|
E|-------------------------------------|

e|-17b19r17-17-15-----------|
B|----------------17b20r17\-|
G|--------------------------|
D|--------------------------|
A|--------------------------|
E|--------------------------|

End Solo


Play Riff 4a   "I saw my funeral..."
Play Riff 5    Solo Rhythm


Solo (Friedman)
e|----------------------------------------------------|
B|---------------------------------------------8b12r9-|
G|-------------9-8-7----------------------------------|
D|-----8~--5~--------9-8-7--7-5-7-7b9r7-5-7-5---------|
A|-7~-------------------------------------------------|
E|----------------------------------------------------|

e|----------------------5-7-8-5-8h10p8p7-8-5-|
B|-----------------7-8-----------------------|
G|-x-7--x-8--8/9-9---------------------------|
D|-------------------------------------------|
A|-------------------------------------------|
E|-------------------------------------------|

e|-12p10p8-------10p8p7---------|
B|--------12p10p8------10p8p7---|
G|----------------------------9-|
D|------------------------------|
A|------------------------------|
E|------------------------------|

End Solo


Riff 6
e|-----------------------------|
B|-----------------------------|
G|-----------------------------|
D|-2-----2-----/5----0-2-0-2/3-|
A|-2-----2-----/5----0-2-0-2/3-|
E|---0-0---0-0-----------------|
     * *   * *         * *
e|----------------------------|
B|----------------------------|
G|----------------------------|
D|-2-----2-----5h7-5--0-2-0-3-|
A|-2-----2-----5h7-5--0-2-0-3-|
E|---0-0---0-0----------------|
     * *   * *          * *


Riff 7 (Solo Rhythm)
e|-----------------------------|
B|-----------------------------|
G|-----------------------------|
D|-----------------------------|
A|-4-----4-----/7------4---4/5-|
E|-2-0-0-2-0-0-/5----0-2-0-2/3-|
     * *   * *         * *
e|----------------------------|
B|----------------------------|
G|----------------------------|
D|----------------------------|
A|-4-----4-----7/9-7----4---5-|
E|-2-0-0-2-0-0-5/7-5--0-2-0-3-|
     * *   * *          * *
e|-----------------------------|
B|-----------------------------|
G|-----------------------------|
D|-2-----2-----/5----0-2-0-2/3-|
A|-2-----2-----/5----0-2-0-2/3-|
E|---0-0---0-0-----------------|
     * *   * *         * *
e|----------------------------|
B|----------------------------|
G|----------------------------|
D|-2-----2-----5h7-5--0-2-0-3-|
A|-2-----2-----5h7-5--0-2-0-3-|
E|---0-0---0-0----------------|
     * *   * *          * *


Solo (Mustaine)
e|-----2-----------14-----------2--------|
B|-------5p2---------17p14--------5p2----|
G|-4b6--------16b18---------4b6-------2^-|
D|---------------------------------------|
A|---------------------------------------|
E|---------------------------------------|

e|------------------------------------|
B|------------------------------------|
G|-------2--------4--------2----------|
D|-4p2---2--4p2---4--4p2---2--4p2---2-|
A|-----4--------4--------4--------4-2-|
E|------------------------------------|

e|--------------------------------------------------|
B|--------------------------------------------------|

G|-2b4-{2}{2}{2}{2}{2}-(4)r3-{2}{2}{2}-(3)r2-{2}{2}-|
D|-a----a--a--a--a--a---------a--a--a---------a--a--|
A|--------------------------------------------------|
E|--------------------------------------------------|

e|------------------------|
B|------------------------|
G|-0tr2-------------------|
D|-------0tr2-------------|
A|-------------0tr2-------|
E|-------------------0tr3-|

End Solo


Riff 8 (Solo Rhythm)
e|------------------------|
B|------------------------|
G|--------0-------0-------|
D|------4---4-------4-2---|
A|-0h2--------2h3-------3-|
E|------------------------|

e|------------------------|
B|------------------------|
G|--------0-------0-------|
D|------4---4-------4-2---|
A|-3/4--------4/5-------3-|
E|------------------------|

e|------------------------|
B|------------------------|
G|--------0-------0-------|
D|------4---4-------4-2---|
A|-0h2--------2h3-------3-|
E|------------------------|

e|------------------------|
B|------------------------|
G|--------0-------0-------|
D|------4---4-------4-2---|
A|----------------------2-|
E|-0h2--------2h3---------|


Solo (Friedman)
e|-----------------------------12-15p12---15p12---16b18-16b18~-|
B|---------------------------12--------12------12--------------|
G|------9-11-11b12r11~~--4/12----------------------------------|
D|-9~-9--------------------------------------------------------|
A|-------------------------------------------------------------|
E|-------------------------------------------------------------|

e|-------------------------------------|
B|-17p12-15p12-17p12-15p12-------------|
G|-------------------------14b16r14-12-|
D|-------------------------------------|
A|-------------------------------------|
E|-------------------------------------|

e|--------------15-16-17-----------------17-15-------|
B|------17-18-19--------20b22--[20]22r21-------17b19-|
G|-14/16---------------------------------------------|
D|---------------------------------------------------|
A|---------------------------------------------------|
E|---------------------------------------------------|

e|-----------------------------------15---13---14---|
B|-[17]18p15-17p15----14b15--(15)r14---14---15---13-|
G|-----------------16-------------------------------|
D|--------------------------------------------------|
A|--------------------------------------------------|
E|--------------------------------------------------|

e|-----------12----------12----------12--12-15-|
B|-12-15b17----12-15b17----12-15b17----15------|
G|---------------------------------------------|
D|---------------------------------------------|
A|---------------------------------------------|
E|---------------------------------------------|

e|-17p12-----------------15p12------------------------|
B|------15p12--12--12-15------12----------------------|
G|-----------14--14-------------14--12\11--(11)b12~~\-|
D|----------------------------------------------------|
A|----------------------------------------------------|
E|----------------------------------------------------|

e|------------------------------------------|
B|------------------------------------------|
G|--7/9-9-9-9/12-12-12-12/16-16-16-16/19-19-|
D|------------------------------------------|
A|------------------------------------------|
E|------------------------------------------|

e|-----------------------------15-17-19-20-22b24~~-|
B|---------------------------17--------------------|
G|-19\18-(18)b21r18p16--16-19----------------------|
D|--------------------19---------------------------|
A|-------------------------------------------------|
E|-------------------------------------------------|

End Solo


Riff 9 (Solo Rhythm)
e|-------------------------------|
B|-------------------------------|
G|-------------------------------|
D|-2-------5-4-3--3-------5-4-3--|
A|-2-------5-4-3--3-------5-4-3--|
E|---0-0-0----------0-0-0--------|
     * * *          * * *
e|-----------------------------|
B|-----------------------------|
G|-----------------------------|
D|-0-------5-4-3--7-6-5--5-4-3-|
A|-0-------5-4-3--7-6-5--5-4-3-|
E|---0-0-0---------------------|
     * * *


Solo (Mustaine)
e|------------------------------------|
B|------------------------------------|
G|-4p2p0----4p2p0----5p2p0----5p2p0---|
D|-------4--------2--------4--------2-|
A|------------------------------------|
E|------------------------------------|

e|----------------------------------------|
B|-------------------3p1p0----------------|
G|-6p4p0----6p4p0---------4p2p0-----------|
D|-------4--------2------------4p2p0------|
A|----------------------------------3p2p0-|
E|----------------------------------------|

e|------------------------------------|
B|------------------------------------|
G|-4p2p0----4p2p0----5p2p0----5p2p0---|
D|-------4--------2--------4--------2-|
A|------------------------------------|
E|------------------------------------|

e|----------------------------------------|
B|-------------------3p1p0----------------|
G|-6p4p0----6p4p0---------4p2p0-----------|
D|-------4--------2------------4p2p0------|
A|----------------------------------3p2p0-|
E|----------------------------------------|

End Solo


Riff 8a (Solo Rhythm)
e|------------------------|
B|------------------------|
G|--------0-------0-------|
D|------4---4-------4-2---|
A|-0h2--------2h3-------3-|
E|------------------------|

e|------------------------|
B|------------------------|
G|--------0-------0-------|
D|------4---4-------4-2---|
A|-3/4--------4/5-------3-|
E|------------------------|

e|------------------------|
B|------------------------|
G|--------0-------0-------|
D|------4---4-------4-2---|
A|-0h2--------2h3-------3-|
E|------------------------|

e|-----------------------|
B|-----------------------|
G|--------0-------0------|
D|------4---4-------4-2--|
A|-----------------------|
E|-0h2--------2h3--------|


Solo (Friedman)
e|----------------------------------17-19-22p19p17------|
B|-------------17-19-18b20~~--17-20---------------20-17-|
G|-15b16~-{15}------------------------------------------|
D|------------------------------------------------------|
A|------------------------------------------------------|
E|------------------------------------------------------|

e|-22p19p17---21b22r21b22~~--22b24~~-|
B|---------20------------------------|
G|-----------------------------------|
D|-----------------------------------|
A|-----------------------------------|
E|-----------------------------------|

e|-22-21-17--21-19-17--19\-17-14--17\-15-12--15\-14-10--14-|
B|---------------------------------------------------------|
G|---------------------------------------------------------|
D|---------------------------------------------------------|
A|---------------------------------------------------------|
E|---------------------------------------------------------|

e|-18-15------------14-13-12--------------------------|
B|-------17-15---------------16-15-14-----------------|
G|-------------16\--------------------16-x-16b18r16~~-|
D|----------------------------------------------------|
A|----------------------------------------------------|
E|----------------------------------------------------|

End Solo


Play Riff 7   Solo Rhythm

Riff 5a (Solo Rhythm)            x3
e|--------------------------------|
B|--------------------------------|
G|--------------------------------|
D|-2-----3-----0-----7-6-5--5-4-3-|
A|-2-----3-----0-----7-6-5--5-4-3-|
E|---0-0---0-0---0-0--------------|
     * *   * *   * *
e|-------------------------|
B|-------------------------|
G|-------------------------|
D|-2-----3-----0-----------|
A|-2-----3-----0---2-------|
E|---0-0---0-0---0---3-2-1-|
     * *   * *   *   * * *


Solo (Mustaine)
e|-19b21-19b21--19b21-19b21--19b21-19b21--19b21-19b21-|
B|----------------------------------------------------|
G|----------------------------------------------------|
D|----------------------------------------------------|
A|----------------------------------------------------|
E|----------------------------------------------------|

e|----------------------------------------------|
B|----------------------------------------------|
G|-18t17p16p15p14-18t17p16p15p14-18t17p16p15p14-|
D|----------------------------------------------|
A|----------------------------------------------|
E|----------------------------------------------|

e|----------------------------------------------|
B|----------------------------------------------|
G|-18t17p16p15p14-18t17p16p15p14-18t17p16p15p14-|
D|----------------------------------------------|
A|----------------------------------------------|
E|----------------------------------------------|

e|-17p12-----------------------------|
B|------15-12h17p12-15p12---12h15p12-|
G|-----------------------15----------|
D|-----------------------------------|
A|-----------------------------------|
E|-----------------------------------|

e|-17p12-----------------------------|
B|------15-12h17p12-15p12---12h15p12-|
G|-----------------------15----------|
D|-----------------------------------|
A|-----------------------------------|
E|-----------------------------------|

e|-17p12-----------------------------|
B|------15-12h17p12-15p12---12h15p12-|
G|-----------------------15----------|
D|-----------------------------------|
A|-----------------------------------|
E|-----------------------------------|

e|-17p12-----------------------------|
B|------15-12h17p12-15p12---12h15p12-|
G|-----------------------15----------|
D|-----------------------------------|
A|-----------------------------------|
E|-----------------------------------|

[the next part is tremolo picked, just glide your hand up
the e string using this pattern]
e|-5-4-3-3-6-5-4-4-7-6-5-5-8-7-6-6-9-8-7-10-9-8-|
B|----------------------------------------------|
G|----------------------------------------------|
D|----------------------------------------------|
A|----------------------------------------------|
E|----------------------------------------------|

e|-9-8-7-7-10-9-8-8-11-10-9-9-12-11-10-10-13-12-11-14-13-12-|
B|----------------------------------------------------------|
G|----------------------------------------------------------|
D|----------------------------------------------------------|
A|----------------------------------------------------------|
E|----------------------------------------------------------|

e|-13-12-11-11-14-13-12-12-15-14-13-13-16-15-14-14-17-16-15-18-17-16-|
B|-------------------------------------------------------------------|
G|-------------------------------------------------------------------|
D|-------------------------------------------------------------------|
A|-------------------------------------------------------------------|
E|-------------------------------------------------------------------|

e|-17-16-15-15-18-17-16-16-19-18-17-17-20-19-18-22-21-20-|
B|-------------------------------------------------------|
G|-------------------------------------------------------|
D|-------------------------------------------------------|
A|-------------------------------------------------------|
E|-------------------------------------------------------|

e|-24------------------------12--------------------|
B|--h-------------------------h--------------------|
G|-------------------------------------------------|
D|-------------------------------------------------|
A|-------------------------------------------------|
E|---------------------------------------------X\\-|

End Solo


Play Riff 3   "Now I lay me..."

Ending:
e|-------------------------------|
B|-------------------------------|
G|-------------------------------|
D|-------------------------------|
A|-2---------2---------2---------|
E|---3-2-1-0---3-2-1-0---3-2-1-0-|
     * * * * *       * * *
e|-------------------------------|
B|-------------------------------|
G|-------------------------------|
D|--------------------9----------|
A|-2---------2--------7--------2-|
E|---3-2-1-0---3-2-1-----------0-|
     * *       * * *

Notation:

10^        = bend a quarter step.
10b11      = bend a half step.
10b12      = bend a full step.
10b12r10   = bend and release.
[10]12     = pre-bend.
[10]12r10  = pre-bend and release.
{14}       = pick the 14th fret while holding the most
             previous bend.
<17>       = touch the string above the 17th fret while
             previous note(s) is(are) still ringing.

10b13*     = tremolo bar bend, from the 10th fret to the 13th fret.
7d4*       = tremolo bar dive, from the 7th fret to the 4th fret.
12~*       = tremolo bar vibrato.

x   =  mute with fret-hand
*   =  palm mute
X\\ =  pick slide
h   =  hammer-on
p   =  pull-off
~   =  vibrato
t   =  finger tap
/   =  slide up
\   =  slide down
h.  =  natural harmonics
a   =  artificial harmonics
(9) =  ghost note
tm  =  trem picking
tr  =  trill

====================================================================
15.Sweating Bullets
tabbed by: Andrew Zara
Band- Megadeth
Song- Sweating Bullets

Tuning: Standard

Remix/Remastered edition intro:
e|-------------------------------------|
B|-------------------------------------|
G|-------------------------------------|
D|---------------9--8------------------|
A|-7----9--10------------10--9----9-10-|
E|-------------------------------------|

e|----------------------------------|
B|----------------------------------|
G|-----------------------7----------|
D|---------------9--8-------9-------|
A|-7----9--10--------------------10-|
E|----------------------------------|

e|---------------------------------------|
B|---------------------------------------|
G|---------------------------------------|
D|---------------9--8--------------------|
A|-7----9--10------------10--9----9-10-7-|
E|-------------------------------------0-|


Original studio version intro:

Intro
Guitar 1
e|-------------------------------|
B|-------------------------------|
G|-------------------------------|
D|-------------1-0---------------|
A|-2----1-2----2-1----2-1----1-2-|
E|-0----2-3-----------3-2----2-3-|

e|------------------------------|
B|------------------------------|
G|------------------------------|
D|-------------1-0---/4-1-------|
A|-2----1-2----2-1---/5-2-------|
E|-0----2-3------------------3^-|

e|---------------------------------|
B|---------------------------------|
G|---------------------------------|
D|-------------1-0-----------------|
A|-2----1-2----2-1----2-1----1-2-2-|
E|-0----2-3-----------3-2----2-3-0-|


Guitar 2
e|-----------------------------------|
B|-----------------------------------|
G|---------------7--6----------------|
D|-------7--9------------9--8----8-9-|
A|-10--------------------------------|
E|-----------------------------------|

e|----------------------------------|
B|----------------------------------|
G|---------------7--6----11--8------|
D|-------7--9---------------------9-|
A|-10-------------------------------|
E|----------------------------------|

e|--------------------------------------|
B|--------------------------------------|
G|---------------7--6-------------------|
D|-------7--9------------9--8----8-9----|
A|-10--------------------------------10-|
E|--------------------------------------|


Riff 1                      x4
e|---------------------------|-------|
B|---------------------------|-------|
G|---------------------------|-------|
D|------9-----------------9--|-------|
A|---7--7--------------7--7--|-------|
E|-6-5---------------6-5-----|--X\\--|
         "Hello me..."

Riff 2
Guitar 1
e|----------------------------|
B|----------------------------|
G|----------------------------|
D|----------------------------|
A|-2--5--7----5--8--7-----8-7-|
E|-0--3--5--0-3--6--5--0--6-5-|
   *  *  *  * *        *
   "Feeling paranoid..."
e|----------------------------|
B|----------------------------|
G|----------------------------|
D|----------------------------|
A|-2--5--7----5--8--7--5----3-|
E|-0--3--5--0-3--6--5--3--0-1-|
   *  *  *  * *        *  *
   "...or false friend..."
e|----------------------------|
B|----------------------------|
G|----------------------------|
D|----------------------------|
A|-2--5--7----5--8--7-----8-7-|
E|-0--3--5--0-3--6--5--0--6-5-|
   *  *  *  * *        *
   "Anxiety's attacking me..."
e|-----------------|
B|-----------------|
G|-----------------|
D|-----------------|
A|-2--5--7----3--2-|
E|-0--3--5--0-1--0-|
   *  *  *  *
   "...air is getting thin."
e|----------------------------|
B|----------------------------|
G|----------------------------|
D|----------------------------|
A|-2--5--7----5--8--7-----8-7-|
E|-0--3--5--0-3--6--5--0--6-5-|
   *  *  *  * *        *
   "I'm in trouble..."
e|----------------------------|
B|----------------------------|
G|----------------------------|
D|----------------------------|
A|-2--5--7----5--8--7--5----3-|
E|-0--3--5--0-3--6--5--3--0-1-|
   *  *  *  * *        *  *
   "...haven't got to yet..."
e|----------------------------|
B|----------------------------|
G|----------------------------|
D|----------------------------|
A|-2--5--7----5--8--7-----8-7-|
E|-0--3--5--0-3--6--5--0--6-5-|
   *  *  *  * *        *
   "I'm chomping at the bit..."
e|-------------------------|
B|-------------------------|
G|-------------------------|
D|-----------------9--7-9--|
A|-8--7--5--3-2----7--5-7--|
E|-6--5--3--1-0------------|
   "...palms are getting wet..."

Guitar 2
e|-12-------11-------10--------9-------|
B|-15b17~---14b16~---13b15~---12b14~---|
G|-------------------------------------|
D|-------------------------------------|
A|-------------------------------------|
E|-------------------------------------|

e|--8--------7-------6---------------|
B|-11b13~---10b12~---9b11~-----------|
G|---------------------------3b4-0---|
D|-----------------------------------|
A|-----------------------------------|
E|-----------------------------------|

e|-12-------11-------10--------9-------|
B|-15b17~---14b16~---13b15~---12b14~---|
G|-------------------------------------|
D|-------------------------------------|
A|-------------------------------------|
E|-------------------------------------|

e|--8--------7-------|
B|-11b13~---10b12~---|
G|-------------------|
D|-------------------|
A|-------------------|
E|-------------------|

e|------------------------|
B|------------------------|
G|----------------------7-|
D|-----------------9--7-5-|
A|-8--7--5--3-2----7--5---|
E|-6--5--3--1-0-----------|


Play Riff 1  "Hello me, it's me again..."
Play Riff 2  "Feeling claustrophobic..."


Riff 3 (Solo Rhythm, Play 4x)
e|--------------------------------------|
B|--------------------------------------|
G|--------------------------------------|
D|--------------------------------------|
A|-------------2--------2--------2--8-7-|
E|-0-0-0-0-0-0-0--0-0-0-0--0-0-0-0--6-5-|
   * * * * * *    * * *    * * * *  *
e|--------------------------------------|
B|--------------------------------------|
G|--------------------------------------|
D|--------------------------------------|
A|-------------2--------2--------2--8-7-|
E|-0-0-0-0-0-0-0--0-0-0-0--0-0-0-0--6-5-|
   * * * * * *    * * *    * * * *  *
e|-----------------------------------------|
B|-----------------------------------------|
G|-----------------------------------------|
D|-----------------------------------------|
A|-------------5--------------------8--7-3-|
E|-3-3-3-3-3-3-3--3-3-3-5-5-5-5-5-5-6--5-1-|
   * * * * * *    * * * * * * * * *
e|--------------------------------------|
B|--------------------------------------|
G|--------------------------------------|
D|--------------------------------------|
A|-------------2--------2--------2--8-7-|
E|-0-0-0-0-0-0-0--0-0-0-0--0-0-0-0--6-5-|
   * * * * * *    * * *    * * * *  *


Solo (Mustaine)
e|----------------------------12-------------------|
B|----------------------------h.-12----------------|
G|-------------------------------h.-12-------------|
D|----------------------------------h.-12----------|
A|-------------------------7-----------h.-12-------|
E|-3------5----6-5-1----0-----------------h.-12-12-|
                                             h. h.
e|-15-14-13-12-----------------------|
B|------------16-15-14-13------------|
G|-----------------------16-15-14-13-|
D|-----------------------------------|
A|-----------------------------------|
E|-----------------------------------|

e|-----------------------------------|
B|-16-15-14-13-----------------------|
G|------------16-15-14-13------------|
D|-----------------------17-16-15-14-|
A|-----------------------------------|
E|-----------------------------------|

e|-----------------------------------|
B|-----------------------------------|
G|-16-15-14-13-----------------------|
D|------------17-16-15-14------------|
A|-----------------------18-17-16-15-|
E|-----------------------------------|

e|-----------------------------------|
B|-----------------------------------|
G|-----------------------------------|
D|-17-16-15-14-----------------------|
A|------------18-17-16-15------------|
E|-----------------------19-18-17-16-|

e|-----------------------------------|
B|-----------------------------------|
G|-----------------------------------|
D|----------------------------9----9-|
A|----------10----10-12-10-12---12---|
E|-12-10-12----12--------------------|

e|----------------------------|
B|----------------------------|
G|---------9----9-12p10p9-10~-|
D|-12-9-12---12---------------|
A|----------------------------|
E|----------------------------|

e|--------------------------------|
B|--------------------------------|
G|-9h10p9----9-10-12p10p9-10p9----|
D|--------12-------------------12-|
A|--------------------------------|
E|--------------------------------|

e|--------------------------------|
B|--------------------------------|
G|-9h10p9----9--------------------|
D|--------12---12-12p10p9-10p9----|
A|-----------------------------12-|
E|--------------------------------|

e|--------------------------------|
B|--------------------------------|
G|--------------------------------|
D|-9h10p9----9-10-12p10p9-10p9----|
A|--------12-------------------12-|
E|--------------------------------|

e|--------------------------------|
B|--------------------------------|
G|--------------------------------|
D|-9------------------------------|
A|---12p10-12p10----10------------|
E|---------------12----12p10-12~--|

e|----------------------------------------|
B|----------------------------------------|
G|----------------------------------------|
D|----------------------------------------|
A|-------------------------------12-12-12-|
E|-12-12-12--15-15-15--14-14-14-----------|
    *  *  *   *  *  *   *  *  *   *  *  *
e|----------------------------------------|
B|----------------------------------------|
G|----------------------------------------|
D|----------------------------------------|
A|-15-15-15--14-14-14--12-12-12-----------|
E|-------------------------------15-15-15-|
    *  *  *   *  *  *   *  *  *   *  *  *
e|----------------------------------------|
B|----------------------------------------|
G|----------------------------------------|
D|----------------------------------------|
A|----------------------------------------|
E|-14-14-14--12-12-12--14-14-14--15-15-15-|
    *  *  *   *  *  *   *  *  *   *  *  *
e|-----------------------------------|
B|-----------------------------------|
G|-----------------------------------|
D|------------------------------12~--|
A|-12-12-12--14-14-14--15-15-15------|
E|-----------------------------------|
    *  *  *   *  *  *   *  *  *
e|-15---16---17---18---19---20---21---22---22b24~~-|
B|----14---15---16---17---18---19---20---21--------|
G|-------------------------------------------------|
D|-------------------------------------------------|
A|-------------------------------------------------|
E|-------------------------------------------------|

End Solo


Riff 4            x3
e|-----------------|
B|-----------------|
G|-----------------|
D|-10--------------|
A|--8--10--9--5--2-|
E|------8--7--3--0-|

e|-----------------------------------|
B|-----------------------------------|
G|-----------------------------------|
D|-10--------------------------------|
A|--8--10--9--5--2--------3--------4-|
E|------8--7--3--0--------1--------2-|


Riff 5
e|------------------------------------------|
B|------------------------------------------|
G|------------------------------------------|
D|-----------------------------------| -----|
A|-5-------4-------3-------2-------1-|   ---|
E|---0-2-3---0-2-3---0-2-3---0-2-3---|   ---|
     * * *   * * *   * * *   * * *        |
e|-------------------------------|        |--> Play--| 4x
B|-------------------------------|       ------------|
G|-------------------------------|       ------------|
D|-------------------------------|  -----------------|
A|-------0-------------------------------------------|
E|-0-2-3---0-2-3-4-3-2-1-0-1-2-3---------------------|
   * * *   * * * * * * * * * * *

e|-----------------------|
B|-----------------------|
G|-----------------------|
D|-----------------------|
A|-11-10-9-8----------2--|
E|------------4-3-2-1-0--|


Play Riff 1  "Well me it's nice..."

Riff 2a
Guitar 1
e|----------------------------|
B|----------------------------|
G|----------------------------|
D|----------------------------|
A|-2--5--7----5--8--7-----8-7-|
E|-0--3--5--0-3--6--5--0--6-5-|
   *  *  *  * *        *
   "Feeling paranoid..."
e|----------------------------|
B|----------------------------|
G|----------------------------|
D|----------------------------|
A|-2--5--7----5--8--7--5----3-|
E|-0--3--5--0-3--6--5--3--0-1-|
   *  *  *  * *        *  *
   "...or false friend..."
e|----------------------------|
B|----------------------------|
G|----------------------------|
D|----------------------------|
A|-2--5--7----5--8--7-----8-7-|
E|-0--3--5--0-3--6--5--0--6-5-|
   *  *  *  * *        *
   "Anxiety's attacking me..."
e|-----------------|
B|-----------------|
G|-----------------|
D|-----------------|
A|-2--5--7----3--2-|
E|-0--3--5--0-1--0-|
   *  *  *  *
   "...air is getting thin."
e|----------------------------|
B|----------------------------|
G|----------------------------|
D|----------------------------|
A|-2--5--7----5--8--7-----8-7-|
E|-0--3--5--0-3--6--5--0--6-5-|
   *  *  *  * *        *
   "Feeling claustrophobic..."
e|----------------------------|
B|----------------------------|
G|----------------------------|
D|----------------------------|
A|-2--5--7----5--8--7--5----3-|
E|-0--3--5--0-3--6--5--3--0-1-|
   *  *  *  * *        *  *
   "...walls are caving in..."
e|----------------------------|
B|----------------------------|
G|----------------------------|
D|----------------------------|
A|-2--5--7----5--8--7-----8-7-|
E|-0--3--5--0-3--6--5--0--6-5-|
   *  *  *  * *        *
   "Bloodstains on my hands..."
e|-------------------|
B|-------------------|
G|-------------------|
D|-----------------9-|
A|-8--7--5--3-2----7-|
E|-6--5--3--1-0------|
   "...don't know where I've been."

Guitar 2
e|-12-------11-------10--------9-------|
B|-15b17~---14b16~---13b15~---12b14~---|
G|-------------------------------------|
D|-------------------------------------|
A|-------------------------------------|
E|-------------------------------------|

e|--8--------7-------6--------------|
B|-11b13~---10b12~---9b11~----------|
G|---------------------------3b4-0--|
D|----------------------------------|
A|----------------------------------|
E|----------------------------------|

e|-12-------11-------10--------9-------|
B|-15b17~---14b16~---13b15~---12b14~---|
G|-------------------------------------|
D|-------------------------------------|
A|-------------------------------------|
E|-------------------------------------|

e|--8--------7-------|
B|-11b13~---10b12~---|
G|-------------------|
D|-------------------|
A|-------------------|
E|-------------------|

e|--------------------|
B|--------------------|
G|--------------------|
D|-----------------9--|
A|-8--7--5--3-2----7--|
E|-6--5--3--1-0-------|


Riff 2b
Guitar 1
e|----------------------------------------|
B|----------------------------------------|
G|---------------------------------| -----|
D|---------------------------------|   ---|
A|---------------------------------|   ---|
E|-000-333-555-333-666-555-333-555-|   ---|
   *** *** *** *** *** *** *** ***      |
   "Once you committed me..."           |--> Play 3x
e|---------------------------------|   ---|
B|---------------------------------|   ---|
G|---------------------------------|   ---|
D|---------------------------------| -----|
A|----------------------------------------|
E|-000-333-555-333-666-555-333-111--------|
   *** *** *** *** *** *** *** ***
   "...now you've acquitted me..."

e|---------------------------------|
B|---------------------------------|
G|---------------------------------|
D|---------------------------------|
A|---------------------------------|
E|-000-333-555-333-666-555-333-555-|
   *** *** *** *** *** *** *** ***
   "Well here I go again..."

Guitar 2
e|-12-------11-------10--------9-------|
B|-15b17~---14b16~---13b15~---12b14~---|
G|-------------------------------------|
D|-------------------------------------| --> Play 3x
A|-------------------------------------|
E|-------------------------------------|

e|--8--------7-------|
B|-11b13~---10b12~---|
G|-------------------|
D|-------------------|
A|-------------------|
E|-------------------|


Ending
Guitar 1
e|--------------------------------------|
B|--------------------------------------|
G|--------------------------------------|
D|-----------------9--7-9-------------9-|
A|-8--7--5--3-2----7--5-7----------7--7-|
E|-6--5--3--1-0------------------6-5----|
                  "Sweating bullets!"

Guitar 2
e|--------------------------------------|
B|--------------------------------------|
G|----------------------7---------------|
D|-----------------9--7-5-------------9-|
A|-8--7--5--3-2----7--5------------7--7-|
E|-6--5--3--1-0------------------6-5----|

Notation:

10^        = bend a quarter step.
10b11      = bend a half step.
10b12      = bend a full step.
10b12r10   = bend and release.
[10]12     = pre-bend.
[10]12r10  = pre-bend and release.
{14}       = pick the 14th fret while holding the most
             previous bend.
<17>       = touch the string above the 17th fret while
             previous note(s) is(are) still ringing.

10b13*     = tremolo bar bend, from the 10th fret to the 13th fret.
7d4*       = tremolo bar dive, from the 7th fret to the 4th fret.
12~*       = tremolo bar vibrato.

x   =  mute with fret-hand
*   =  palm mute
X\\ =  pick slide
h   =  hammer-on
p   =  pull-off
~   =  vibrato
t   =  finger tap
/   =  slide up
\   =  slide down
h.  =  natural harmonics
a   =  artificial harmonics
(9) =  ghost note
tm  =  trem picking
tr  =  trill

====================================================================
16.Crown of Worms
CROWN OF WORMS
As recorded by Megadeth
(Released as a Single in 1994)

Transcribed by Sean O'Connor


Words by Dave Mustaine, Sean Harris Music by Dave Mustaine

Gtr I (Eb Ab Db Gb Bb Eb) - 'Mustaine'
Gtr II (Eb Ab Db Gb Bb Eb) - 'Friedman'

   Intro
    Q=139
      N.C.             C5/G  D5EbD5/A C5/D5/A
   4/4
    Gtrs I, II
                  ~  PM             PM      PM
    a E S a E S a Q  E E E   E S E. E E. E. E
||-------------------------|------------------|
||o------------------------|------------------|
||---------------------5---|-7s8-7----5--7----|
||--5h7---5h7---5h7----5---|-7s8-7----5--7----|
||o---0-----0-----0--0-----|--------0-------0-|
||-------------------------|------------------|


    N.C.             C5/G  D5EbD5/A C5/G
                ~  PM             PM
  a E S a E S a Q  E E E   E S E. E H
|------------------------|---------------|
|------------------------|---------------|
|--------------------5---|-7s8-7----5----|
|-5h7---5h7---5h7----5---|-7s8-7----5----|
|---0-----0-----0--0-----|--------0------|
|------------------------|---------------|


    N.C.             C5/G  D5EbD5/A C5/D5/A
                ~  PM             PM      PM
  a E S a E S a Q  E E E   E S E. E E. E. E
|------------------------|------------------|
|------------------------|------------------|
|--------------------5---|-7s8-7----5--7----|
|-5h7---5h7---5h7----5---|-7s8-7----5--7----|
|---0-----0-----0--0-----|--------0-------0-|
|------------------------|------------------|


                          1.
    N.C.             C5/G  C5/G5  F#F5
                          6/4
                ~  PM         PM  PM
  a E S a E S a Q  E E E   E. E S E W
|------------------------|----------------||
|------------------------|---------------o||
|--------------------5---|-5--------------||
|-5h7---5h7---5h7----5---|-5--------------||
|---0-----0-----0--0-----|----5---4-3----o||
|------------------------|----3---2-1-----||


                       Verse
  2.
     G5  F#F5  F#5 G5   A5/C5/G D5/C5/G   C5/G    D5/C5/G
 4/4
     PM  PM    PM  PM         PM      PM     PM-|       PM
  E. E S E E S E S E    E. E. E E. E. E   E. E. E E. E. E
|--------------------||-----------------|-----------------|
|--------------------||-----------------|-----------------|
|-5------------------||----5----7--5----|-5-------7--5----|
|-5------------------||-7--5----7--5----|-5-------7--5----|
|----5---4-3---4---5-||-7-----7-------7-|----7--5-------5-|
|----3---2-1---2---3-||-----------------|-----------------|


  F#5C5/G D5/C5/G   D5EbD5/A  C5/G
        PM      PM          PM   PM-|
  E. E. E E. E. E   S E  E. E E. E. E
|-----------------|-------------------|
|-----------------|-------------------|
|----5----7--5----|-7s8-\7----5-------|
|-4--5----7--5----|-7s8-\7----5-------|
|-4-----5-------5-|---------7----7--5-|
|-----------------|-------------------|


  A5/C5/G D5/C5/G   C5/G    D5/C5/G
        PM      PM     PM-|       PM
  E. E. E E. E. E   E. E. E E. E. E
|-----------------|-----------------|
|-----------------|-----------------|
|----5----7--5----|-5-------7--5----|
|-7--5----7--5----|-5-------7--5----|
|-7-----7-------7-|----7--5-------5-|
|-----------------|-----------------|


  F#5C5/G D5/C5/A5/E D5EbD5/A C5/G
        PM                  PM   PM-|
  E. E. E E. E. E    S E E. E E. E. E
|------------------|------------------|
|------------------|------------------|
|----5----7--5-----|-7s8-7----5-------|
|-4--5----7--5--7/-|-7s8-7----5-------|
|-4-----5-------7/-|--------7----7--5-|
|------------------|------------------|


    A5/C5/G D5/C5/G   C5/G    D5/C5/G
          PM      PM     PM-|       PM
    E. E. E E. E. E   E. E. E E. E. E
||------------------|-----------------|
||o-----------------|-----------------|
||-----5----7--5----|-5-------7--5----|
||--7--5----7--5----|-5-------7--5----|
||o-7-----7-------7-|----7--5-------5-|
||------------------|-----------------|


  F#5C5/G D5/C5/G   D5EbD5/A C5/G
        PM      PM         PM   PM-|
  E. E. E E. E. E   S E E. E E. E. E
|-----------------|-------------------||
|-----------------|------------------o||
|----5----7--5----|-7s8-7----5--------||
|-4--5----7--5----|-7s8-7----5--------||
|-4-----5-------5-|--------7----7--5-o||
|-----------------|-------------------||


   Chorus
    N.CC5/GB5/N.C.          N.CC5/GB5/N.C.
    Gtr I
           ~  PM--------|          ~  PM--------|
    E.  E. Q  S S S S S S   E.  E. Q  S S S S S S
||------------------------|-----------------------|
||o-----------------------|-----------------------|
||-----/5--4--------------|----/5--4--------------|
||--7--/5--4--------------|-7--/5--4--------------|
||o-0---------------------|-0---------------------|
||------------8-8-7-7-6-6-|-----------8-8-7-7-6-6-|
|
|   Gtr II
|          ~  PM--------|          ~  PM--------|
|   E.  E. Q  S S S S S S   E.  E. Q  S S S S S S
||------------------------|-----------------------|
||o-----------------------|-----------------------|
||-----/5--7--------------|----/5--7--------------|
||--7--/5--7--------------|-7--/5--7--------------|
||o-0---------------------|-0---------------------|
||------------8-8-7-7-6-6-|-----------8-8-7-7-6-6-|


  N.CC5/GB5/N.C.          N.CC5/GD5/B5/C5/G
         ~  PM--------|
  E.  E. Q  S S S S S S   E.  E. Q  E. E.
|-----------------------|------------------||
|-----------------------|-----------------o||
|----/5--4--------------|----/5--7--4--5---||
|-7--/5--4--------------|-7--/5--7--4--5---||
|-0---------------------|-0---------------o||
|-----------8-8-7-7-6-6-|------------------||
|
|        ~  PM--------|
| E.  E. Q  S S S S S S   E.  E. Q  E. E.
|-----------------------|------------------||
|-----------------------|-----------------o||
|----/5--7--------------|----/5--7--4--5---||
|-7--/5--7--------------|-7--/5--7--4--5---||
|-0---------------------|-0---------------o||
|-----------8-8-7-7-6-6-|------------------||


 Friedman Solo
    N.C.                                   C5/G
                               ~~~~      PM
  a  E      S  a E       S a   Q         E E E
|----------------------------------------------|
|----------------------------------------------|
|------------------------------------------5---|
|-5h=7---------5h7---------5h==7-----------5---|
|----0-----------0-------------0---------0-----|
|----------------------------------------------|
|
|                                  \0.5/
|    E     +E       E         +E   H
|----------------------------------------------|
|---13b15r(13)-----12b13r====(12)-10-----------|
|----------------------------------------------|
|----------------------------------------------|
|----------------------------------------------|
|----------------------------------------------|


  D5/A Eb5/BD5/A C5/G    D5/A
               PM                 PM
    E    S  E. E E.        E.     E
|--------------------------------------|
|--------------------------------------|
|---7s===8--7----5---------7-----------|
|---7s===8--7----5---------7-----------|
|--------------0------------------0----|
|--------------------------------------|
|
|        ~~~~
|  +E   +H           +S    E   S  S  S
|--------------------------------------|
|-(10)-(10)---------(10)---------15p13-|
|------------------------/14--17-------|
|--------------------------------------|
|--------------------------------------|
|--------------------------------------|


    N.C.                       C5/G       D5/A    Eb5D5/A         C5/G
                     ~       PM                              PM
  a  E     S a E S a Q       E  E  E        E      S  E.     E     H
|---------------------------------------|------------------------------------|
|---------------------------------------|------------------------------------|
|-------------------------------5-------|---7s=====8--7------------5---------|
|-5h=7-------5h7---5h7----------5-------|---7s=====8--7------------5---------|
|----0---------0-----0-------0----------|--------------------0---------------|
|---------------------------------------|------------------------------------|
|
|    \0.5/
|                                                                  ~~
|    H                  +Q      E.    S    +S   S  S  S   E  S  S  Q   +Q
|------------------------------15----15-|-(15)----15-----15------------------|
|---15b17==============(15)r------------|------15----15-----15p13------------|
|---------------------------------------|-------------------------14--(14)\--|
|---------------------------------------|------------------------------------|
|---------------------------------------|------------------------------------|
|---------------------------------------|------------------------------------|


    N.C.                                    C5/G
                           ~~~         PM
  a  E     S a  E     S a  Q           E     E       E
|---------------------------------------------------------|
|---------------------------------------------------------|
|--------------------------------------------5------------|
|-5h=7-------5h=7-------5h=7-----------------5------------|
|----0----------0----------0-----------0------------------|
|---------------------------------------------------------|
|
|    S  S  S    E     S    S  S  E     S  S  S  E       S
|---17---------------17---------------17---------------17-|
|------20p17---20b22------20p17-20b22----20p17-20b22------|
|---------------------------------------------------------|
|---------------------------------------------------------|
|---------------------------------------------------------|
|---------------------------------------------------------|


  D5/A  Eb5D5/A            C5/GD5/A
                      PM                        PM
   E     S  E.        E     E. E.               E
|----------------------------------------------------|
|----------------------------------------------------|
|--7s====8--7---------------5--7---------------------|
|--7s====8--7---------------5--7---------------------|
|---------------------0-------------------------0----|
|----------------------------------------------------|
|
|                           ~~~~~~~~~~~~~~~~
|  S  S  S  S   S  S  S  S  Q      +S   +T   T  S  S
|----17----17-----17------------------------17----17-|
|-20----19-----17----16-15---------------------20----|
|--------------------------17-----(17)-(17)----------|
|----------------------------------------------------|
|----------------------------------------------------|
|----------------------------------------------------|


    N.C.                             C5/G
                        ~       PM
  a  E       S  a E S a Q       E     E     E
|------------------------------------------------|
|------------------------------------------------|
|-------------------------------------5----------|
|-5h=7----------5h7---5h7-------------5----------|
|----0------------0-----0-------0----------------|
|------------------------------------------------|
|
|    E      +Q.            +E   S  S  S  S  S  S
|---20b22==(20)r==========(20)-20p17-22p17-19p17-|
|---20b21==(20)r==========(20)-------------------|
|------------------------------------------------|
|------------------------------------------------|
|------------------------------------------------|
|------------------------------------------------|


            G5       F#5           F5       F#5  G5
             PM       PM                     PM  PM
   E.        E     S  E             E     S  E S E
|---------------------------------------------------------|
|---------------------------------------------------------|
|--5------------------------------------------------------|
|--5------------------------------------------------------|
|------------5--------4-------------3--------4---5--------|
|------------3--------2-------------1--------2---3--------|
|
|                                            ~~
|                     |----3-----|
|  S   S  S  S  S  S  S     +S   S  S  S  S  Q      +S
|-----17--------------------------------------------------|
|-20-----20-17----17--------------------------------------|
|--------------19----19b20r(19)p17-19p17----17-----(17)\--|
|----------------------------------------19---------------|
|---------------------------------------------------------|
|---------------------------------------------------------|


   Verse
    A5/C5/G D5/C5/G   C5/G    D5/C5/G
    Gtrs I, II
          PM      PM     PM-|       PM
    E. E. E E. E. E   E. E. E E. E. E
||------------------|-----------------|
||o-----------------|-----------------|
||-----5----7--5----|-5-------7--5----|
||--7--5----7--5----|-5-------7--5----|
||o-7-----7-------7-|----7--5-------5-|
||------------------|-----------------|


  F#5C5/G D5/C5/G   D5EbD5/A C5/G
        PM      PM         PM   PM-|
  E. E. E E. E. E   S E E. E E. E. E  4x
|-----------------|-------------------||
|-----------------|------------------o||
|----5----7--5----|-7s8-7----5--------||
|-4--5----7--5----|-7s8-7----5--------||
|-4-----5-------5-|--------7----7--5-o||
|-----------------|-------------------||


   Chorus
    N.CC5/GB5/N.C.             C5/GB5/N.C.
    Gtr I
           ~  PM--------|          ~  PM--------|
    E.  E. Q  S S S S S S   E.  E. Q  S S S S S S
||------------------------|-----------------------|
||o-----------------------|-----------------------|
||-----/5--4--------------|----/5--4--------------|
||--7--/5--4--------------|-7--/5--4--------------|
||o-0---------------------|-0---------------------|
||------------8-8-7-7-6-6-|-----------8-8-7-7-6-6-|
|
|   Gtr II
|          ~  PM--------|          ~  PM--------|
|   E.  E. Q  S S S S S S   E.  E. Q  S S S S S S
||------------------------|-----------------------|
||o-----------------------|-----------------------|
||-----/5--7--------------|----/5--7--------------|
||--7--/5--7--------------|-7--/5--7--------------|
||o-0---------------------|-0---------------------|
||------------8-8-7-7-6-6-|-----------8-8-7-7-6-6-|


  N.CC5/GB5/N.C.             C5/GD5/B5/C5/G
         ~  PM--------|
  E.  E. Q  S S S S S S   E.  E. Q  E. E.
|-----------------------|------------------||
|-----------------------|-----------------o||
|----/5--4--------------|----/5--7--4--5---||
|-7--/5--4--------------|-7--/5--7--4--5---||
|-0---------------------|-0---------------o||
|-----------8-8-7-7-6-6-|------------------||
|
|        ~  PM--------|
| E.  E. Q  S S S S S S   E.  E. Q  E. E.
|-----------------------|------------------||
|-----------------------|-----------------o||
|----/5--7--------------|----/5--7--4--5---||
|-7--/5--7--------------|-7--/5--7--4--5---||
|-0---------------------|-0---------------o||
|-----------8-8-7-7-6-6-|------------------||


   Bridge
      N.C.             C5/G
    Gtrs I, II
                  ~  PM            ~~
    a E S a E S a Q  E E E   S S S E. S S S E. E E  4x
||-------------------------|------------------------||
||o------------------------|-----------------------o||
||---------------------5---|-------5----------------||
||--5h7---5h7---5h7----5---|-5h6h7----7p6p5----5----||
||o---0-----0-----0--0-----|----------------7----7-o||
||-------------------------|------------------------||


 Mustaine Solo
    N.C.                C5/G  N.C.
  Gtr I
                                         ~~
    E.      E.     Q  E E E   S S S E  S H          +E
|---------------------------|----------------------------|
|---7b8-----7------5----5---|----------------------------|
|---7b8-----7------5--7-5-7-|----------------------------|
|---------------------7---7-|-5h7-7-7--7-7----------(7)\-|
|---------------------------|----------------------------|
|---------------------------|----------------------------|
|
| Gtr II
|                  ~  PM            ~~
| a E   S a E  S a Q  E E E   S S S E.   S S S E. E  E
|---------------------------|----------------------------|
|---------------------------|----------------------------|
|-----------------------5---|-------5--------------------|
|-5h7-----5h7----5h7----5---|-5h6h7------7p6p5----5------|
|---0-------0------0--0-----|------------------7-----7---|
|---------------------------|----------------------------|


    N.C.                C5/G  N.C.
                                                        ~~~~~~~~~~~~~~~~~~~~
    E.      E.     Q  E E E   S +S     S     E    S     H              +E
|---------------------------|-----------------------------------------------|
|---7b8-----7------5----5---|-8-(8)b10-8pb10-8b10-8pb10-8b10===========(8)r-|
|---7b8-----7------5--7-5-7-|-----------------------------------------------|
|---------------------7---7-|-----------------------------------------------|
|---------------------------|-----------------------------------------------|
|---------------------------|-----------------------------------------------|
|
|                  ~  PM                     ~~~~
| a E   S a E  S a Q  E E E   S  S     S     E.         S     S S E. E  E
|---------------------------|-----------------------------------------------|
|---------------------------|-----------------------------------------------|
|-----------------------5---|----------------5------------------------------|
|-5h7-----5h7----5h7----5---|-5h=6h====7----------------7p====6p5----5------|
|---0-------0------0--0-----|-------------------------------------7-----7---|
|---------------------------|-----------------------------------------------|


    N.C.                    C5/G  N.C.
    E.     E.     E E.   E.   E   E.    E. E   E.    E.   E
|-----------------8-7---------5-|----------8---7----------5-|
|---6------8-------------8------|-6-----8------------8------|
|-------------------------------|---------------------------|
|-------------------------------|---------------------------|
|-------------------------------|---------------------------|
|-------------------------------|---------------------------|
|
|                 ~    PM               ~~
| a E  S a E  S a Q    E    E E   S S S E. S S S  E.    E E
|-------------------------------|---------------------------|
|-------------------------------|---------------------------|
|---------------------------5---|-------5-------------------|
|-5h7----5h7----5h7---------5---|-5h6h7----7p6p5--------5---|
|---0------0------0----0--------|-----------------7-------7-|
|-------------------------------|---------------------------|


    N.C.                     C5/G     N.C.
     E.     E.       E. E.     E  E     E.     E.   E.     E.   E  E
|-----------5-----------8--------12-|---------15----------17------20-|
|---/8-------------/10-------/13----|-/17---------/20---------/22----|
|-----------------------------------|--------------------------------|
|-----------------------------------|--------------------------------|
|-----------------------------------|--------------------------------|
|-----------------------------------|--------------------------------|
|
|                    ~~~~  PM                  ~~~
| a  E  S a E  S a   Q     E   E  E     S S S  E.   S S S  E.   E  E
|-----------------------------------|--------------------------------|
|-----------------------------------|--------------------------------|
|------------------------------5----|----------5---------------------|
|-5h=7----5h7----5h==7---------5----|---5h6h7-------7p6p5-------5----|
|----0------0--------0-----0--------|----------------------7-------7-|
|-----------------------------------|--------------------------------|


    N.C.                     C5/G    N.C.
                                                      ~~~
     E.        E.      Q   E  E  E    S  S  S  E   S  H           +E
|----------------------------------|-----------------------------------|
|---19b20-----19------17-----17----|-----------------------------------|
|---19b20-----19------17--19-17-19-|-----------------------------------|
|-------------------------19----19-|-17h19-19-19--19-19----------(19)\-|
|----------------------------------|-----------------------------------|
|----------------------------------|-----------------------------------|
|
|                      ~~  PM                  ~~~
| a  E    S a  E  S a  Q   E  E  E    S  S  S  E.     S S S E. E   E
|----------------------------------|-----------------------------------|
|----------------------------------|-----------------------------------|
|-----------------------------5----|-----------5-----------------------|
|-5h=7------5h=7----5h=7------5----|--5h=6h=7---------7p6p5----5-------|
|----0---------0-------0---0-------|------------------------7------7---|
|----------------------------------|-----------------------------------|


    N.C.                     C5/G
     E.        E.      Q   E  E  E
|----------------------------------|
|---19b20-----19------17-----17----|
|---19b20-----19------17--19-17-19-|
|-------------------------19----19-|
|----------------------------------|
|----------------------------------|
|
|                      ~~  PM
| a  E    S a  E  S a  Q   E  E  E
|----------------------------------|
|----------------------------------|
|-----------------------------5----|
|-5h=7------5h=7----5h=7------5----|
|----0---------0-------0---0-------|
|----------------------------------|


  N.C.
                                  ~~~~~~~~~~~~~~~~~~~~~
   S  +S      S      E     S      H               +E
|------------------------------------------------------|
|-20-(20)b22-20pb22-20b22-20pb22-20b22===========(20)r-|
|------------------------------------------------------|
|------------------------------------------------------|
|------------------------------------------------------|
|------------------------------------------------------|
|
|                    ~~~~~
|  S   S      S      E.           S     S S E. E   E
|------------------------------------------------------|
|------------------------------------------------------|
|--------------------5---------------------------------|
|--5h==6h=====7-------------------7p====6p5----5-------|
|-------------------------------------------7------7---|
|------------------------------------------------------|


    N.C.                                    C5/G
     S  S  S    S  S  S    S  S  S  S  S  S  S  S  S  S
|---20p17p15---20p17p15---20p17p15-20p17p15-22p17p15h17-|
|-------------------------------------------------------|
|-------------------------------------------------------|
|-------------------------------------------------------|
|-------------------------------------------------------|
|-------------------------------------------------------|
|
|                          ~~~         PM
| a  E     S a  E     S a  Q           E     E     E
|-------------------------------------------------------|
|-------------------------------------------------------|
|--------------------------------------------5----------|
|-5h=7-------5h=7-------5h=7-----------------5----------|
|----0----------0----------0-----------0----------------|
|-------------------------------------------------------|


  N.C.
   S  S  S  S  S  S  S  S  S  S  S  S  S  S  S  S
|-20p17p15-20p17p15-20p17p15-20p17p15-22p17h22p17-|
|-------------------------------------------------|
|-------------------------------------------------|
|-------------------------------------------------|
|-------------------------------------------------|
|-------------------------------------------------|
|
|           ~~~
|  S  S  S  E.       S  S  S  E.       E     E
|-------------------------------------------------|
|-------------------------------------------------|
|-----------5-------------------------------------|
|--5h=6h=7-----------7p=6p=5-----------5----------|
|-----------------------------7--------------7----|
|-------------------------------------------------|


    N.C.                                    C5/G
     S  S  S    S  S  S    S  S  S  S  S  S  S  S  S  S
|---20p17p15---22p17p15---20p17p15-22p17p15-20p17p15h17-|
|-------------------------------------------------------|
|-------------------------------------------------------|
|-------------------------------------------------------|
|-------------------------------------------------------|
|-------------------------------------------------------|
|
|                          ~~~         PM
| a  E     S a  E     S a  Q           E     E     E
|-------------------------------------------------------|
|-------------------------------------------------------|
|--------------------------------------------5----------|
|-5h=7-------5h=7-------5h=7-----------------5----------|
|----0----------0----------0-----------0----------------|
|-------------------------------------------------------|


  N.C.
   S  S  S  S  S  S  S      +S  S  S  S  S  S  S  S  S
|-22p20p17---------------------------------------------|
|----------22p20p17------------------------------------|
|-------------------19pb20r(19)17----------------------|
|---------------------------------19p18p17-------------|
|------------------------------------------19p18p17----|
|---------------------------------------------------20-|
|
|           ~~~
|  S  S  S  E.       S       S  S  E.       E     E
|------------------------------------------------------|
|------------------------------------------------------|
|-----------5------------------------------------------|
|--5h=6h=7-----------7p======6p=5-----------5----------|
|----------------------------------7--------------7----|
|------------------------------------------------------|


 Outro
  A5/EC5/GA5/E          A5/C5/GA5/E
   ~~~                             PM-|
   W                    E.  E. Q   E. E.
|---------------------|------------------|
|---------------------|------------------|
|---------------------|----/5------------|
|---------------------|-7--/5--7\--------|
|---------------------|-7------7\--7--5--|
|-17------------------|------------------|
|
|             PM-|                 PM-|
|  E.  E. Q   E. E.     E.  E. Q   E. E.
|---------------------|------------------|
|---------------------|------------------|
|-----/5--------------|----/5------------|
|--7--/5--7\----------|-7--/5--7\--------|
|--7------7\--7--5----|-7------7\--7--5--|
|---------------------|------------------|


  A5/C5/GA5/E        D5EbD5/A C5/D5/A
  Gtrs I, II
             PM-|           PM      PM
  E.  E. Q   E. E.   E S E. E E. E. E
|------------------|------------------|
|------------------|------------------|
|----/5------------|-7s8-7----5--7----|
|-7--/5--7\--------|-7s8-7----5--7----|
|-7------7\--7--5--|--------7-------7-|
|------------------|------------------|


  A5/C5/GA5/E        A5/C5/GA5/E
             PM-|               PM-|
  E.  E. Q   E. E.   E.  E. Q   E. E.
|------------------|------------------|
|------------------|------------------|
|----/5------------|----/5------------|
|-7--/5--7\--------|-7--/5--7\--------|
|-7------7\--7--5--|-7------7\--7--5--|
|------------------|------------------|


  A5/C5/GA5/E        D5EbD5/A C5/G
             PM-|           PM      PM
  E.  E. Q   E. E.   E S E. E E. E. E
|------------------|------------------|
|------------------|------------------|
|----/5------------|-7s8-7----5--7----|
|-7--/5--7\--------|-7s8-7----5--7----|
|-7------7\--7--5--|--------7-------7-|
|------------------|------------------|


    A5/C5/GA5/E          D5EbD5/A C5/D5/A
               PM-|             PM      PM
    E.  E. Q   E. E.  6x E S E. E E. E. E
||--------------------||------------------|
||o------------------o||------------------|
||-----/5-------------||-7s8-7----5--7----|
||--7--/5--7\---------||-7s8-7----5--7----|
||o-7------7\--7--5--o||--------0-------0-|
||--------------------||------------------|


  C5D5C5/G Bb5C5 Bb5 A5
         PM
  E S E. E E. E. E   E. H    Q  S
|------------------|--------------*|
|------------------|--------------*|
|-5s7-5----3--5--3-|-2------------*|
|-5s7-5----3--5--3-|-2------------*|
|--------0-1--3--1-|-0------------*|
|------------------|--------------*|

Duration Legend
---------------
W - whole; H - half; Q - quarter; E - 8th; S - 16th; T - 32nd; X - 64th; a - acciaccatura
+ - note tied to previous; . - note dotted; .. - note double dotted
Uncapitalized letters represent notes that are staccato (1/2 duration)
Irregular groupings are notated above the duration line
Duration letters will always appear directly above the note/fret number it represents the
duration for.  Duration letters with no fret number below them represent rests.  Multi-
bar rests are notated in the form Wxn, where n is the number of bars to rest for.  Low
melody durations appear below the staff

Tablature Legend
----------------
 h   - hammer-on
 p   - pull-off
 b   - bend
 pb  - pre-bend
 r   - bend release (if no number after the r, then release immediately)
 /\  - slide into or out of (from/to "nowhere")
 s   - legato slide
 S   - shift slide
 - natural harmonic
[n]  - artificial harmonic
n(n) - tapped harmonic
 ~   - vibrato
 tr  - trill
 T   - tap
 TP  - trem. picking
 PM  - palm muting
\n/  - tremolo bar dip; n = amount to dip
 \n  - tremolo bar down
 n/  - tremolo bar up
/n\  - tremolo bar inverted dip
 =   - hold bend; also acts as connecting device for hammers/pulls
 <> - volume swell (louder/softer)
 x   - on rhythm slash represents muted slash
 o   - on rhythm slash represents single note slash

Misc Legend
-----------
 |  - bar
||  - double bar
||o - repeat start
o|| - repeat end
*|  - double bar (ending)
 :  - bar (freetime)
 $  - Segno
 &  - Coda
Tempo markers -  = BPM(8/16=s8/s16), where s8 = swing 8ths, s16 = swing 16ths

==============================================================================================
17.High Speed Dirt
This is the tab to High Speed Dirt
As Recorded by Megadeth
Off the Album: Countdown to Extinction
Tabbed by: John Mercer
E-Mail:spacenumber6@hotmail.com
This tab has it all, the whole song!
The timing is not be exact,
but I did the best I could
Remember the solo timing is nowhere near exact,
listein to cd to get it

High Speed Dirt


Intro

          A        D      A

             pm----
e-0-----|-------------------|---------0------|
B-0-----|-------------------|-------0---0---3|
G-------|-5---------7-----2-|-----5-------5--|
D-------|-5---------7-----2-|---5------------|
A-0-----|----0-0-0-----0----|-0--------------|
E-------|-------------------|----------------|

  D7                              A           D     A

e--------------------------|--------------------------|
B--------------------------|--------------------------|
G-5---------5/6--5/6--5~~~-|------------------7-----2-|
D-4---------4/5--4/5--4----|------7/----------7-----2-|
A----0-0-0-----------------|-0-0--7/---0-0-0-----0----|
E--------------------------|--------------------------|

  A        D     A       D7           C C#D   C C#D C C#D

                                      Pm----------------

e----------------------------|----------------------------|
B----------------------------|----------------------------|
G----5-----7-----2-----5-5~~-|----------------------------|
D----5-----7-----2-----5p4---|--------2-3-4--2-3-4--2-3-4-|
A-0-----0-----0-----0--------|-0-0-0--3-4-5--3-4-5--3-4-5-|
E----------------------------|----------------------------|


Verse:1,2,3(rest of lyrics at bottom of tab)

  A               D7                         A

  Do it if you dare                    Leapin'  from the sky

e-------------------|----------------------|----------------|
B-------------------|----------------------|----------------|
G-5---------5-----5-|--5-----7---5--0--5~~~|---------5-----5|
D-5---------5-----4-|--4--0--7---4--0--5---|---------5-----4|
A----0-0-0-----0----|--------5-------------|--0-0-0-----0---|
E-------------------|----------------------|----------------|

  D7                 A                   D7

                     Hurlin' through the air          Ex-

e-------------------|-------------------------------------|
B-------------------|-------------------------------------|
G-5-----7---5--0--5-|-----------5-----5----5---7--5-0-5~~-|
D-4--0--7---4--0--5-|-----------5-----4----4-0-7--4-0-5---|
A-------------------|--0--0--0-----0-----------5----------|
E-------------------|-------------------------------------|

  A          D7

  hilarating high

e--------------------------------------|
B--------------------------------------|
G---------5----5---5-----7---5--0--5~~~|
D---------5----4---4--0--7---4--0--5---|
A--0-0-0----0--------------------------|
E--------------------------------------|

  A               D7

  See the earth below

e--------------------------------------------|
B--------------------------------------------|
G--------------5-----5---5-----7---5--0--5~~-|
D--------------5-----4---4--0--7---4--0--5---|
A-----0--0--0-----0------------5-------------|
E--------------------------------------------|

  A              D7

  Soon to make a crater

e----------------------------------------|
B----------------------------------------|
G------------5---5--5-----7---5--0--5~~~-|
D------------5---4--4--0--7---4--0--5----|
A-----0-0-0----0----------5--------------|
E----------------------------------------|


  Blue sky        Black death          I'm

e------------------------------------------|
B------------------------------------------|
G------------5-----5--5-----7---5--0--5~~~-|
D------------5-----4--4--0--7---4--0--5----|
A-----0-0-0-----0-----------5--------------|
E------------------------------------------|

  A                 D7

  off to meet my    maker

e----------------------------------------|
B----------------------------------------|
G-------------5-----5--5-----7---5--0----|
D-------------5-----4--4--0--7---4--0--2-|
A----0--0--0-----0-----------5---------0-|
E----------------------------------------|

Pre Chorus:play this part twice

  A     B   C   D   Bb D C A

e----------------------------|
B----------------------------|
G-------4---5---7---8--7-5-2-|
D-------4---5---7---8--7-5-2-|
A-0-0-0-2-0-3-0-5-0-6--5-3-0-|
E----------------------------|

  A     B   C   D  BbE  G  A

e----------------------------|
B----------------------------|
G-------4---5---7---8/9-12-2-|
D-------4---5---7---8/9-12-2-|
A-0-0-0-2-0-3-0-5-0-6/7-10-0-|
E----------------------------|

Chorus:

      A      D   A                             D7

  Ooh, energy of the gods

e------------------------------------------------|
B------------------------------------------------|
G-5----------7----------5-----7-----------5-5--5-|
D-5----------7----7-----5-----7-----7-----5p4--4-|
A-----0-0-0----0--7--0-----0-----0--7--0---------|
E------------------------------------------------|

        C C#D  C C#D  C C#D

  Adrenalin surge

        Pm-----------------

e---------------------------|
B---------------------------|
G---------------------------|
D-------2-3-4--2-3-4--2-3-4-|
A-0-0-0-3-4-5--3-4-5--3-4-5-|
E---------------------------|


      A      D   A                             D7

  Won't stop till I hit the ground        I'm  on

e------------------------------------------------|
B------------------------------------------------|
G-5----------7----------5-----7-----------5-5--5-|
D-5----------7----7-----5-----7-----7-----5p4--4-|
A-----0-0-0----0--7--0-----0-----0--7--0---------|
E------------------------------------------------|


        C C#D  C C#D  C C#D

  my way for sure

        Pm-----------------

e---------------------------|
B---------------------------|
G---------------------------|
D-------2-3-4--2-3-4--2-3-4-|
A-0-0-0-3-4-5--3-4-5--3-4-5-|
E---------------------------|


  A      D   A                             D7

  Up here in the air                         This

e------------------------------------------------|
B------------------------------------------------|
G-5----------7----------5-----7-----------5-5--5-|
D-5----------7----7-----5-----7-----7-----5p4--4-|
A-----0-0-0----0--7--0-----0-----0--7--0---------|
E------------------------------------------------|


        C C#D  C C#D  C C#D

  will never hurt        I'm

        Pm-----------------

e---------------------------|
B---------------------------|
G---------------------------|
D-------2-3-4--2-3-4--2-3-4-|
A-0-0-0-3-4-5--3-4-5--3-4-5-|
E---------------------------|


  A      D   A                             D7

  on my way to impact                     I taste

e------------------------------------------------|
B------------------------------------------------|
G-5----------7----------5-----7-----------5-5--5-|
D-5----------7----7-----5-----7-----7-----5p4--4-|
A-----0-0-0----0--7--0-----0-----0--7--0---------|
E------------------------------------------------|


       C C#D  C C#D  C C#D

  the high speed dirt

       Pm-------------------

e-----------------------------------|
B-----------------------------------|
G-----------------------------------|
D-------2-3-4--2-3-4--2-3-4---------|
A-0-0-0-3-4-5--3-4-5--3-4-5---------|
E----------------------------2-2-0--|


I don't know thw name's of these chords

     Ah                Jump or die

e-------------------------------------------|
B-8~---------9-10------11~~~---------12--13-|
G-7----------8--9------10------------11--12-|
D-6----------7--8------9-------------10--11-|
A-7----------8--9------10------------11--12-|
E----0-0--0---------0--------0-0--0---------|


Repeat Verse,Pre Chorus,then Chorus

Solo timing isn't exact, work that out for yourself

1st Solo:

  A          D    A           D             D7

e------------------------------------------------|
B------------------------------------------------|
G-5----------7----------5-----7-----------5-5--5-|
D-5----------7----7-----5-----7-----7-----5p4--4-|
A-----0-0-0----0--7--0-----0-----0--7--0---------|
E------------------------------------------------|
                                                 |
                                                 |
                                                 |
e------------------------------------------------|
B------------------------------------------------|
G-5------------7brp6p5--------5------------------|
D-5-----------------------7------7--6--5--4------|
A------------------------------------------------|
E------------------------------------------------|


        C C#D  C C#D  C C#D

        Pm-----------------

e---------------------------|
B---------------------------|
G---------------------------|
D-------2-3-4--2-3-4--2-3-4-|
A-0-0-0-3-4-5--3-4-5--3-4-5-|
E---------------------------|
                            |
                            |
                            |
e--------------7-7----------|
B----------10b-----10b------|
G-----7---------------------|
D---4-----------------------|
A---------------------------|
E---------------------------|

  A      D   A                             D7


e------------------------------------------------|
B------------------------------------------------|
G-5----------7----------5-----7-----------5-5----|
D-5----------7----7-----5-----7-----7-----5p4----|
A-----0-0-0----0--7--0-----0-----0--7--0---------|
E------------------------------------------------|
                                                 |
                                                 |
                                                 |
e------------------------------5--------------5--|
B-8h10p8-7-8\-5h7p5----5-----5----8p7-5-----5----|
G--------------------7----7b------------7b-------|
D------------------------------------------------|
A------------------------------------------------|
E------------------------------------------------|

  D7               C  C# D

                   Pm-----

e-----------------------------|
B-----------------------------|
G-5---------------------------|
D-4----------------2--3--4----|
A-------0--0--0----3--4--5----|
E-----------------------------|
                              |
                              |
                              |
e-----------------------------|
B-8p7p5-----5-----------------|
G-------7b-----8p7p5--7--5h7p5|
D---------------------7--5----|
A-----------------------------|
E-----------------------------|


  C  C# D   C  C# D

  Pm---------------

e--------------------|
B--------------------|
G--------------------|
D-2--3--4---2--3--4--|
A-3--4--5---3--4--5--|
E--------------------|
                     |
                     |
                     |
e--------------------|
B--------------------|
G-4h5p4---4--5--7----|
D-------7----5--7--4-|
A--------------------|
E--------------------|


  A      D   A                             D7


e------------------------------------------------|
B------------------------------------------------|
G-5----------7----------5-----7-----------5-5----|
D-5----------7----7-----5-----7-----7-----5p4----|
A-----0-0-0----0--7--0-----0-----0--7--0---------|
E------------------------------------------------|
                                                 |
                                                 |
                                                 |
e------------------------------------------------|
B-----------------------------------------5------|
G--------------------------------5--------5------|
D--------------------5-----5--7-------7---5------|
A-0--3-----3h5--6/7-----7------------------------|
E-------5----------------------------------------|


  D7                 C  C# D

                   Pm-----

e-----------------------------|
B-----------------------------|
G-5---------------------------|
D-4----------------2--3--4----|
A-------0--0--0----3--4--5----|
E-----------------------------|
                              |
                              |
                              |
e-----------------------------|
B-------7---------------------|
G-------7--7----------5--7b---|
D-------7-------------5-------|
A-----------------------------|
E-----------------------------|


  C  C# D   C  C# D

  Pm---------------

e--------------------|
B--------------------|
G--------------------|
D-2--3--4---2--3--4--|
A-3--4--5---3--4--5--|
E--------------------|
                     |
                     |
                     |
e--------------------|
B--------------------|
G-7b-7b-7br----------|
D--------------------|
A--------------------|
E--------------------|

  A      D   A                             D7


e--------------------------------------------------------|
B--------------------------------------------------------|
G-5----------7----------5-----7-----------5-5------------|
D-5----------7----7-----5-----7-----7-----5p4------------|
A-----0-0-0----0--7--0-----0-----0--7--0-----------------|
E--------------------------------------------------------|
                                                         |
                                                         |
                                                         |
e-------------------------------12-----------------------|
B----13----15----13h15p13----13----15-13h15p13--12h13p12-|
G-14----14----14----------14-----------------------------|
D--------------------------------------------------------|
A--------------------------------------------------------|
E--------------------------------------------------------|


D7                 C  C# D

                   Pm-----

e-----------------------------|
B-----------------------------|
G-5---------------------------|
D-4----------------2--3--4----|
A-------0--0--0----3--4--5----|
E-----------------------------|
                              |
                              |
                              |
e-----------------------------|
B-10h12p10-8h10p8-7h8p7-5h7p5-|
G-----------------------------|
D-----------------------------|
A-----------------------------|
E-----------------------------|


C  C# D   C  C# D

  Pm---------------

e---------------------|
B---------------------|
G---------------------|
D-2--3--4---2--3--4---|
A-3--4--5---3--4--5---|
E---------------------|
                      |
                      |
                      |
e---------------------|
B-4-5-----------------|
G-----7p5---8p7p5---5-|
D---------7-------7---|
A---------------------|
E---------------------|


  A5

e----------------|
B----------------|
G-2---2-2-2--2-2-|
D-2---2-2-2--2-2-|
A-0---0-0-0--0-0-|
E----------------|
                 |
                 |
                 |
e----------------|
B----------------|
G-5---5-5-5--5-5-|
D----------------|
A----------------|
E----------------|

2nd Solo: Right after first one


  A5                    D/F#

e---------------------|--------------------|
B---------------------|--------------------|
G-2-------------------|-----2------2-------|
D-2-------------------|-----0------0-------|
A-0--0-0-0--0---------|---0----3-----------|
E--------------3-2----|-2--------3---------|
                                           |
                                           |
                                           |
e--------8-12----8-11-|-10-8---------------|
B-10---8------10------|------10-8-7--------|
G----9----------------|-------------8-7----|
D---------------------|-----------------10-|
A---------------------|--------------------|
E---------------------|--------------------|


  A5                    D/F#

e---------------------|--------------------|
B---------------------|--------------------|
G-2-------------------|-----2------2-------|
D-2-------------------|-----0------0-------|
A-0--0-0-0--0---------|---0----3-----------|
E--------------3-2----|-2--------3---------|
                                           |
                                           |
                                           |
e---------------------|--------------------|
B---------5-----------|--------------------|
G-------5-----5-8-----|-7-5----------------|
D-7-6-5-----7---------|-----7--5-5-4-------|
A---------------------|--------------6-5-3-|
E---------------------|--------------------|


  A5                    D/F#

e----------------------------|-----------------------------|
B----------------------------|-----------------------------|
G-2--------------------------|-----2------2----------------|
D-2--------------------------|-----0------0----------------|
A-0--0-0-0--0----------------|---0----3--------------------|
E--------------3-2-----------|-2--------3------------------|
                                                           |
                                 ~~~~~~~~~~~~~~~~~~~~~~~~~ |
                                                           |
e----------------------------|-----15-----15-----15-----15-|
B----------------------15-15-|-15b----15b----15b----15b----|
G------------------/12-------|-----------------------------|
D--------7-7-7-7-7-----------|-----------------------------|
A----------------------------|-----------------------------|
E-5--3/5---------------------|-----------------------------|

  A5

e-------------------------------------------------|
B-------------------------------------------------|
G-2-----------------------------------------------|
D-2-----------------------------------------------|
A-0--0-0-0--0-------------------------------------|
E--------------3-2--------------------------------|
                                                  |
                                                  |
                                                  |
e-------------------------------------------------|
B----------17----------17-20p17----17-------------|
G-17h19h20----20p17h20----------20----20p19p17----|
D----------------------------------------------19-|
A-------------------------------------------------|
E-------------------------------------------------|


  D/F#

e-------------------------------------------------|
B-------------------------------------------------|
G-----2---------2---------------------------------|
D-----0---------0---------------------------------|
A---0------3--------------------------------------|
E-2----------3------------------------------------|
                                                  |
                                                  |
                                                  |
e-------------------------------------------------|
B----------17-----------17--20p17----17-20p17-19b-|
G-17h19h20-----20p19h20-----------20--------------|
D-------------------------------------------------|
A-------------------------------------------------|
E-------------------------------------------------|


A5                    D/F#

e---------------------|--------------------|
B---------------------|--------------------|
G-2-------------------|-----2------2-------|
D-2-------------------|-----0------0-------|
A-0--0-0-0--0---------|---0----3-----------|
E--------------3-2----|-2--------3---------|
                                           |
                                           |
                                           |
e---------------------|--------------------|
B--------------17-19b-|-17--20-20----------|
G---------------------|--------------------|
D---------------------|------------17------|
A---------------------|--------------------|
E---------------------|--------------------|

  A5                                    D/F#

e-------------------------------------|-------------------------|
B-------------------------------------|-------------------------|
G-2-----------------------------------|-----2------2------------|
D-2-----------------------------------|-----0------0------------|
A-0--0-0-0--0-------------------------|---0----3----------------|
E--------------3-2--------------------|-2--------3--------------|
                                                                |
                                                                |
                                                                |
e-------------------19p14-------------|-------------------------|
B----------15-17-19-------15----------|-14-12-10------------/14-|
G-14-16-18-------------------16-12-14-|----------12-9-----------|
D-------------------------------------|---------------12-11-----|
A-------------------------------------|-------------------------|
E-------------------------------------|-------------------------|


  A5                                    D/F#

e-------------------------------------|------------------------------|
B-------------------------------------|------------------------------|
G-2-----------------------------------|-----2------2-----------------|
D-2-----------------------------------|-----0------0-----------------|
A-0--0-0-0--0-------------------------|---0----3---------------------|
E--------------3-2--------------------|-2--------3-------------------|
                                                                     |
                                                                     |
                                                                     |
e-17-16-15-14-15-17-17-12----15p12----|-14-12-10-9-10-12-10p9--------|
B-------------------------14-------14-|-----------------------12-10\-|
G-------------------------------------|------------------------------|
D-------------------------------------|------------------------------|
A-------------------------------------|------------------------------|
E-------------------------------------|------------------------------|


  A5                         D/F#

e--------------------------|---------------------------|
B--------------------------|---------------------------|
G-2------------------------|-----2------2--------------|
D-2------------------------|-----0------0--------------|
A-0--0-0-0--0--------------|---0----3------------------|
E--------------3-2---------|-2--------3----------------|
                                                       |
                                                       |
                                                       |
e-8p5h7---5----------------|---------------------------|
B-------8---8-7h8h10-8p7---|-7p6p5---5h7p5-5-------5---|
G------------------------9-|-------7---------7-6-5---5-|
D--------------------------|---------------------------|
A--------------------------|---------------------------|
E--------------------------|---------------------------|


  A5

e-------------------|
B-------------------|
G-2----2-2-2----2-2-|
D-2----2-2-2----2-2-|
A-0----0-0-0----0-0-|
E-------------------|
                    |
                    |
                    |
e-------------------|
B-------------------|
G-------------------|
D-7-----------------|
A-------------------|
E-------------------|

Verse: play the verse riff, then the Pre Chorus


3rd Solo: The Blues Solo.

e-----------------------------------------------------|
B-----------------------------------------------------|
G-----------------------------------------------------|
D-----------------------------------------------------|
A-----------------------------------------------------|
E-----------------------------------------------------|
                                                      |
                                                      |
                                                      |
e----5-5----------------------------------------------|
B----5-5--------5-------------------------------------|
G-7b--(7)p5--7--5----------5~~~-----5Rake the strings-|
D------------------7--5-7----------5------------------|
A---------------------------------7-------------------|
E-----------------------------------------------------|


                                    A5

e---------------------------------------|
B---------------------------------------|
G-----------------------------------14\-|
D-----------------------------------14\-|
A-----------------------------------12\-|
E---------------------------------------|
                                        |
                                        |
                                        |
e---------------------------------------|
B---------------------------------------|
G---------------------------------------|
D-7--5----------------------------------|
A------7---6-5h3----6h7p5---5-----------|
E-------------------------8----8\5~~~---|


e-------------------------------|
B-------------------------------|
G-------------------------------|
D-------------------------------|
A-------------------------------|
E-------------------------------|
                                |
                                |
                                |
e-----------------------------5-|
B-5-7bp5--7p5--7b--7--5-------5-|
G-5-7bp5--7p5--7b--7--5--5h6----|
D-------------------------------|
A-------------------------------|
E-------------------------------|

e-----------------------------------|
B-----------------------------------|
G-----------------------------------|
D-----------------------------------|
A-----------------------------------|
E-----------------------------------|
                                    |
                                    |
                                    |
e-8--5------------------------------|
B-8--5---8--5-----------------------|
G--------------8p7p5----7b---5~~~~~-|
D---------------------7-------------|
A-----------------------------------|
E-----------------------------------|

e---------------------------------|
B---------------------------------|
G---------------------------------|
D---------------------------------|
A---------------------------------|
E---------------------------------|
                                  |
                                  |
                                  |
e---------------------------------|
B---------------------------------|
G---x-Rake----5-------------------|
D--x--the--------7--5-------------|
A-x---strings----------7--6--5--3-|
E---------------------------------|


Outro Chorus(repeat 4 times)

   A5     G   D/F#      D     C   A5      G   D/F#     D     C

   dirt(2nd time)      High speed dirt                High speed

e-------------------------------|-------------------------------|
B*------------------------------|------------------------------*|
G--2----------------------------|-2-----------------------------|
D--2--------------------7-----5-|-2--------------------7-----5--|
A*-0-0-0-0-5---5--------5-----3-|-0-0-0-0-5---5--------5-----3-*|
E----------3-0-2---0-0-----0----|---------3-0-2---0-0-----0-----|


  A5

  dirt

e-------------------------------------------|
B-------------------------------------------|
G-2----2-2-2----2-2-2----2-2-2----2-2-------|
D-2----2-2-2----2-2-2----2-2-2----2-2-------|
A-0----0-0-0----0-0-0----0-0-0----0-0-------|
E-------------------------------------------|

Outro:


  A5                D5    D7    D5            A

e------------------------------------------------------------------|
B------------------------------------------------------------------|
G-5--------------5--7--5--5-----7----5--------5~~~-----------------|
D-5--------------5--7--4--4--0--7----5----0---5--------------------|
A------0--0--0-----------------------------------------------------|
E------------------------------------------------------------------|
                                                                   |
                                                                   |
                                                                   |
e-------17------------------17-------------------------------------|
B----17----20--19p17-----17-----20--19p17-----17-------------------|
G-20-----------------20-------------------20------20p19p17------17-|
D-----------------------------------------------------------19-----|
A------------------------------------------------------------------|
E------------------------------------------------------------------|


  A5                D5    D7    D5            A

e---------------------------------------------------------------------|
B---------------------------------------------------------------------|
G-5--------------5--7--5--5-----7----5--------5~~~--------------------|
D-5--------------5--7--4--4--0--7----5----0---5-----------------------|
A------0--0--0--------------------------------------------------------|
E---------------------------------------------------------------------|
                                                                      |
                                                                      |
                                                                      |
e-------17-------------------17---------------------------------------|
B----17-----20--19p17-----17-----20--19p17----17----17----------------|
G-20-------------------20------------------20----20----20p19p17----17-|
D---------------------------------------------------------------19----|
A---------------------------------------------------------------------|
E---------------------------------------------------------------------|

  A5                D5    D7    D5            A

e--------------------------------------------------------------|
B--------------------------------------------------------------|
G-5--------------5--7--5--5-----7----5--------5~~~-------------|
D-5--------------5--7--4--4--0--7----5----0---5----------------|
A------0--0--0-------------------------------------------------|
E--------------------------------------------------------------|
                                                               |
                                                               |
                                                               |
e-------17-----------------17----------------------------------|
B----17----20--19p17----17----20-19p17----17-------------------|
G-20-----------------20----------------20----20p19p17----17bp5-|
D-----------------------------------------------------19-------|
A--------------------------------------------------------------|
E--------------------------------------------------------------|

             D7

  Yeah

e--------------|
B--------------|
G------------5-|
D------------4-|
A-0-0-0-0-0----|
E--------------|
               |
               |
               |
e--------------|
B--------------|
G---5--------5-|
D-7---7-6-5--4-|
A--------------|
E--------------|

2nd Verse:

Paralyzed with fear
Feel velocity gain
Entering a near
Catatonic state
Presure of the sound
Roaring thru my head
Crashing to the ground
Damned if I'll be dead

3rd Verse:

Dropping all my weight
Going down full throtle
The pale horse awaits
Like a genie in a bottle
Fire in my veins
Faster as I go
I forgot my name
I'm a dirt torepdo


Symbols used in this tab:

~~~= vibrate the note
x= rake the string
/= slide up
\= slide down
Pm= Palm mute
h= Hammer
P= Pull-off
b= Bend
br= Bend and Release
(7)= Ghost note


=========================================================================
comments
We did not receive enough feedback on this tab! Please rate:
print report bad tab
1 2 3 4 5
3 comments total.
0 reply
OutVoid wrote on April 17 2009, 05:39 pm

METALLICA!

0 reply
andrew10134 wrote on July 31 2010, 10:51 pm

Fuck you OutVoid MEGADETH
TAB OUT IN MY DARKEST HOUR

0 reply
andrew10134 wrote on July 31 2010, 10:51 pm

oh and good tab

I want to post or [tab]
guest
You may want to rate the tab now too:
select rating
Please do not post tabs as comments. Select "correction" instead!