Oops, an error
Loading. Please wait.

Capitol Punishment The Megadeth Years Tab

7,556 views 9 this week
no commentswrite comment
1 2 3 4 5
accurate
x 1
add to favorites launch autoscroll
font size
0
reset
Autoscroll
+/-
esc
set tempo
stop
Contributor
WARNING: You are trying to view
                                    content from Ultimate-Guitar.com
                                    in an unauthorized application,
                                    which is prohibited.

                                    Please use an official Ultimate
                                    Guitar Tabs application for iPhone,
                                    iPad or Android to access legitimate
                                    chords, guitar, bass, and drum tabs
                                    from Ultimate-Guitar.com database.

                                    Type "ultimate guitar tabs" in Apple
                                    App Store's or Android Market's
                                    search to find the application.
Band- Megadeth
Album- Capitol Punishment:The Megadeth Years

1.KILL THE KING

Tuning: Standard (E, A, D, G, B, e)

Intro and Verses:

  Play 24 times
e|--------------|
B|--------------|
G|--------------|
D|--2-----------|
A|--2-----------|
E|--0-----------|

Prechorus:

e|-------------------------------------|
B|-------------------------------------|
G|-------------------------------------|
D|--11--10--11--10--2--11--10--11--10--|
A|--11--10--11--10--2--11--10--11--10--|
E|---9---8---9---8--0---9---8---9---8--|

Chorus:

e|-----------------------------|
B|-----------------------------|
G|-----------------------------|
D|--2--5--4--3--2--5--4--3--2--|
A|--2--5--4--3--2--5--4--3--2--|
E|--0--3--2--1--0--3--2--1--0--|

After Chorus 2nd time:  (listen to the song to do the strums right)

e|-----|
B|-----|
G|-----|
D|--2--|
A|--2--|
E|--0--|

Rhythm part of the guitar solo:

  Play 8 times
e|----------------|
B|----------------|
G|----------------|
D|--5--6--3--2----|
A|--5--6--3--2----|
E|--3--4--1--0----|

2.DREAD AND THE FUGITIVE MIND

E----------------------|
B----------------------|
G----------------------|
D----------5---4-------|
A--2-------3---2-2-----|
E--0-0-2-3---0---0-----|


  Pre-Chorus
E-----------------------------------------------------|
B-----------------------------------------------------|
G-----------------------------------------------------|
D--7---5-5---7-7---5-5---4-4---5-5---4-4---5-5--------|
A--7---7-7---7-7---7-7---5-5---5-5---5-5---5-5--------|
E----X-----X-----X-----X-----X-----X-----X------------|


E-----------------------------------------------------|
B-----------------------------------------------------|
G-----------------------------------------------------|
D----2-2---4-4---2-2---4-4---5-5---4-4---7-7---5-5----|
A----3-3---3-3---3-3---3-3---5-5---5-5---7-7---7-7----|
E--X-----X-----X-----X-----X-----X-----X-----X--------|


  Chorus
E-----------------------------------|
B-----------------------------------|
G------4-----4-----4-----4-----4----|
D--0-2---0-2---0-2---0-2---0-2------|
A-----------------------------------|
E-----------------------------------|


E-----------------------------------|
B-----------------------------------|
G------4-----4-----4-----4-----4----|
D----2-----2-----2-----2-----2------|
A--3-----3-----3-----3-----3--------|
E-----------------------------------|


E-----------------------------------|
B-----------------------------------|
G------4-----4-----4-----4-----4----|
D----2-----2-----2-----2-----2------|
A--0-----0-----0-----0-----0--------|
E-----------------------------------|


E-----------------------------------|
B-----------------------------------|
G-----------------------------------|
D----1-4---1-5---1-4---1-5---4-1----|
A--2-----2-----2-----2-----2--------|
E-----------------------------------|


 Interlude Riff
E---------------|
B---------------|
G---------------|
D---------------|
A----------2----|
E--0000000-0----|


   2X
E-----------------------------------------------------------|
B-----------------------------------------------------------|
G------4-/5-4-------4-/5-4-------4-/5-4---------------------|
D--0-2--------2---2--------2---2--------2---1-4-/5-4-1------|
A---------------3------------0------------2-----------------|
E-----------------------------------------------------------|


E------------------------------------|
B------------------------------------|
G------4-----2-----0-----2---0-------|
D--0-2---0-2---0-2---0-2---0---0-2---|
A------------------------------------|
E------------------------------------|


E------------------------------------|
B------------------------------------|
G------4-----2-----0-----2---0-------|
D----2-----2-----2-----2---------2---|
A--3-----3-----3-----3-----3---3-----|
E------------------------------------|


E------------------------------------|
B------------------------------------|
G------4-----2-----0-----2---0-------|
D----2-----2-----2-----2---------2---|
A--0-----0-----0-----0-----0---0-----|
E------------------------------------|


E------------------------------------|
B------------------------------------|
G------------------------------------|
D----1-4---1-5---1-4---1-5---4---1---|
A--2-----2-----2-----2-----2---2-----|
E------------------------------------|


  Guitar 1
E-----------------------|
B-----------------------|
G-----------------------|
D----1-4-/7-5-4-2--4----|
A--2--------------------|
E-----------------------|

  Guitar 2
E-----------------------|
B-----------------------|
G-----------------------|
D----4-7-/10-9-7-5--7---|
A--5--------------------|
E-----------------------|

E---------------------------------|
B---------------------------------|
G---------------------------------|
D--9-------------------------9----|
A--7-7-7-7-7-7-7-7-7-7-7-7-7-7----|
E---------------------------------|


E---------------------------------|
B---------------------------------|
G---------------------------------|
D--5-------------------------5----|
A--3-3-3-3-3-3-3-3-3-3-3-3-3-3----|
E---------------------------------|

E---------------------------------|
B---------------------------------|
G---------------------------------|
D--2-------------------------2----|
A--0-0-0-0-0-0-0-0-0-0-0-0-0-0----|
E---------------------------------|


E---------------------------------|
B---------------------------------|
G---------------------------------|
D--4-------------5-----4----------|
A--2-2-2-2-2-2-2-3-3-3-2-2-2-2----|
E---------------------------------|

E---------------------------------------------|
B---------------------------------------------|
G---------------------------------------------|
D---------------------5---4---------5---4-----|
A--2-------2--2-------3---2-2-------3---2-2---|
E--0-0-2-3-0--0-0-2-3---0---0-0-2-3---0---0---|

3.CRUSH EM'

Tuning: Standard

Riff 1
e|------------------------------------|
B|-15b16--15b16-----------------------|
G|-13-----13b14---------13-xx-15-13~--|
D|----------------------13-xx-15-13~--|
A|-----------------13h15--------------|
E|------------------------------------|

e|------------------------------------|
B|-15b16--15b16-----------------------|
G|-13-----13b14---------13-xx-15-13~--|
D|--------12b13---------13-xx-15-13~--|
A|-----------------13h15--------------|
E|------------------------------------|

e|------------------------------------|
B|-15b16--15b16-----------------------|
G|-13-----13b14---------13-xx-15-13~--|
D|----------------------13-xx-15-13~--|
A|-----------------13h15--------------|
E|------------------------------------|

e|------------------------------------------|
B|-16-----16-----16-----16-----------13-----|
G|-15b17--15b17--15b17--15b17----xxx-13-----|
D|-------------------------------xxx----15~-|
A|------------------------------------------|
E|------------------------------------------|


Riff 2
GUitar 1                                     x2
e|--------------------------------------------|
B|--------------------------------------------|
G|---------4----------4----------4----------4-|
D|-6-6-----4--6-6-----4--6-6-----4--6-6-----4-|
A|-----4h6--------4h6--------4h6--------4h6---|
E|--------------------------------------------|
   "Party time..."
e|--------------------------------------------|
B|--------------------------------------------|
G|---------7----------7----------7----------7-|
D|-9-9-----7--9-9-----7--9-9-----7--9-9-----7-|
A|-----7h9--------7h9--------7h9--------7h9---|
E|--------------------------------------------|
   "The stakes are rich..."
e|------------------------------------------|
B|------------------------------------------|
G|---------7----------7----------7----------|
D|-9-9-----7--9-9-----7--9-9-----7--9-9-----|
A|-----7h9--------7h9--------7h9--------7h9-|
E|------------------------------------------|


Guitar 2
e|-------------------------------------|
B|-------------------------------------|
G|-8--------(8)--------(8)--------6--7-|
D|-6--------(6)--------(6)--------4--5-|
A|-------------------------------------|
E|-------------------------------------|

e|-------------------------------------|
B|-------------------------------------|
G|-8--------(8)--------(8)--------6--7-|
D|-6--------(6)--------(6)--------4--5-|
A|-------------------------------------|
E|-------------------------------------|

e|-----------------------------------------|
B|-----------------------------------------|
G|-11--------(11)--------(11)--------9--10-|
D|--9---------(9)---------(9)--------7---8-|
A|-----------------------------------------|
E|-----------------------------------------|

e|--------------------------------------|
B|--------------------------------------|
G|-11--------(11)--------(11)-----------|
D|--9---------(9)---------(9)-----------|
A|--------------------------------------|
E|----------------------------------X\\-|

Riff 3
Guitar 1
e|---------------------------------|
B|---------------------------------|
G|---------------------------------|
D|------------------------------4--|
A|-44-4----x-7--------44-4----x-2--|
E|-22-2----x-5--------22-2----x----|
   "Heads I win..."
e|-------------------------------------|
B|-------------------------------------|
G|-------------------------------------|
D|-77-7---(7)\----------------------4--|
A|-55-5---(5)\-2-------44-4----x-/4-2--|
E|-------------0-------22-2----x-------|
   "Roll the dice..."
e|-----------------|
B|-----------------|
G|-----------------|
D|-----------------|
A|--3--------------|
E|--1--[let ring]--|

Guitar 2                     x3
e|------------------5----5----|
B|-7------5-------7---7-----7-|
G|----6-6----6----------------|
D|----------------------------|
A|----------------------------|
E|----------------------------|

e|-5----5-----5-----7----7-|
B|----7---7-7---7-7--------|
G|-------------------------|
D|-------------------------|
A|-------------------------|
E|-------------------------|

(w/ some effect)
e|--------------|
B|--------------|
G|---/10\-------|
D|-[slow slide]-|
A|--------------|
E|--------------|

Riff 1a
Guitar 1
e|---------------------------------|
B|---------------------------------|
G|---------------------------------|
D|---------------------------------|
A|---------------------------------|
E|-1-1-0-0-1-1-0-0-1-1-0-0-1-1-0-0-|
   * * * * * * * * * * * * * * * *
  "Looking for trouble..."

Guitar 2
e|----------------------------------------|
B|-15b16--15b16---------------------------|
G|-13-----13b14---------13-xx-15----------|
D|----------------------13-xx-15--8\6-6~~-|
A|----------------13h15-------------------|
E|----------------------------------------|

e|---------------------------------------|
B|-15b16--15b16--------------------------|
G|-13-----13b14---------xx-13-xx-15-13~--|
D|----------------------xx-13-xx-15-13~--|
A|----------------13h15------------------|
E|---------------------------------------|


Guitar fill (w/ wah pedal)
e|------------|
B|------------|
G|------------|
D|--5--(5)b6--|
A|------------|
E|------------|

Play Riff 2  "Last one standing..."

Riff 3a
Guitar 1
e|---------------------------------|
B|---------------------------------|
G|---------------------------------|
D|------------------------------4--|
A|-44-4----x-7--------44-4----x-2--|
E|-22-2----x-5--------22-2----x----|
   "Heads I win..."
e|-------------------------------------|
B|-------------------------------------|
G|-------------------------------------|
D|-77-7---(7)\----------------------4--|
A|-55-5---(5)\-2-------44-4----x-/4-2--|
E|-------------0-------22-2----x-------|
   "Roll the dice..."
e|---------------------------------|
B|---------------------------------|
G|---------------------------------|
D|------------------------------4--|
A|-44-4----x-7--------44-4----x-2--|
E|-22-2----x-5--------22-2----x----|
   "Now we lay you..."
e|-------------------------------------|
B|-------------------------------------|
G|-------------------------------------|
D|-77-7---(7)\----------------------4--|
A|-55-5---(5)\-2-------44-4----x-/4-2--|
E|-------------0-------22-2----x-------|
   "Step inside..."
e|-----------------|
B|-----------------|
G|-----------------|
D|-----------------|
A|--3--------------|
E|--1--[let ring]--|

Guitar 2                     x3
e|------------------5----5-----------|
B|-7------5-------7---7-----7--------|
G|----6-6----6----------------| -----|
D|----------------------------|   ---|
A|----------------------------|   ---|
E|----------------------------|   ---|
                                   |--> Play 2x
e|-5----5-----5-----7----7-|      ---|
B|----7---7-7---7-7--------|      ---|
G|-------------------------| --------|
D|-----------------------------------|
A|-----------------------------------|
E|-----------------------------------|

Guitar 3                                        x2
e|-14----14----14----14----14----14----14---14---|
B|-17b19-17b19-17b19-17b19-17b19-17b19-17b9-17b9-|
G|-----------------------------------------------|
D|-----------------------------------------------|
A|-----------------------------------------------|
E|-----------------------------------------------|
   "Now we lay you..."

Riff 4
e|------------------------------------|
B|------------------------------------|
G|------------------------------------|
D|--------6-----------------------8~--|
A|-3-3--x-6----------------3-3--x-8~--|
E|-1-1--x------------------1-1--x-----|
        "Crush..."
e|------------------------------------|
B|------------------------------------|
G|------------------------------------|
D|--------6-----------------------8~--|
A|-3-3--x-6----------------3-3--x-8~--|
E|-1-1--x------------------1-1--x-----|

        "Crush..."
e|-----------------------|
B|-----------------------|
G|-----------------------|
D|--------6-----------8~-|
A|-3-3--x-6----3-3--x-8~-|
E|-1-1--x------1-1--x----|
  "Don't need reason..."
e|-------------------------|
B|-------------------------|
G|-------------------------|
D|--------6-----------6-8--|
A|-3-3--x-6----3-3--x-4-6--|
E|-1-1--x------1-1--x------|
  "Step aside..."
e|-----------------------|
B|-----------------------|
G|-----------------------|
D|--------6-----------8~-|
A|-3-3--x-6----3-3--x-8~-|
E|-1-1--x------1-1--x----|
  "Now we've found..."
e|-------------------------|
B|-------------------------|
G|-------------------------|
D|--------6-----------8-10-|
A|-3-3--x-6----3-3--x-6--8-|
E|-1-1--x------1-1--x------|
  "We're gonna bust you..."


Riff 3a
Guitar 1
e|---------------------------------|
B|---------------------------------|
G|---------------------------------|
D|-----------3------------------5--|
A|-55-5----x-1--------55-5----x-3--|
E|-33-3----x----------33-3----x----|
   "Heads I win..."
e|-------------------------------------|
B|-------------------------------------|
G|-------------------------------------|
D|-88-8---(8)\----------------------5--|
A|-66-6---(6)\-3-------55-5----x-/5-3--|
E|-------------1-------33-3----x-------|
   "Roll the dice..."
e|---------------------------------|
B|---------------------------------|
G|---------------------------------|
D|-----------3------------------5--|
A|-55-5----x-1--------55-5----x-3--|
E|-33-3----x----------33-3----x----|
   "Now we lay you..."
e|-------------------------------------|
B|-------------------------------------|
G|-------------------------------------|
D|-88-8---(8)\----------------------5--|
A|-66-6---(6)\-3-------55-5----x-/5-3--|
E|-------------1-------33-3----x-------|
   "Step aside..."

Guitar 2                     x3
e|------------------6----6----|
B|-8------6-------8---8-----8-|
G|----7-7----7----------------|
D|----------------------------|
A|----------------------------|
E|----------------------------|

e|-6----6-----6-----8----8-|
B|----8---8-8---8-8--------|
G|-------------------------|
D|-------------------------|
A|-------------------------|
E|-------------------------|

Guitar 3                                          x2
e|-15----15----15----15----15----15----15----15----|
B|-18b20-18b20-18b20-18b20-18b20-18b20-18b20-18b20-|
G|-------------------------------------------------|
D|-------------------------------------------------|
A|-------------------------------------------------|
E|-------------------------------------------------|
   "Now we lay you..."


Riff 4a
e|-----------------------|
B|-----------------------|
G|--------3-----------5~-|
D|--------3-----------5~-|
A|-5-5--x------5-5--x----|
E|-3-3--x------3-3--x----|

e|-------------------------|
B|-------------------------|
G|--------3----------------|
D|--------3-----------8-10-|
A|-5-5--x------5-5--x-6--8-|
E|-3-3--x------3-3--x------|


Song fades out with Riff 4a


Ending Solo
e|----------------------------------|
B|----------------------------------|
G|------------------------5--5b7~~~-|
D|-1/----------------/8-------------|
A|-1/-[steady gliss]-/8-------------|
E|----[   w/ wah   ]----------------|

e|---------------------------------|
B|---------------------------------|
G|-5b7--5b7--5b7--5b7--5b7r5p3-3~~-|
D|---------------------------------|
A|---------------------------------|
E|---------------------------------|

e|-----------------|
B|-----------------|
G|-3h5p3-----------|
D|-------5-3-------|
A|------------3-5--|
E|-----------------|

e|-----------------------|
B|-----------------------|
G|--------3-----------5~-|
D|--------3-----------5~-|
A|-5-5---------5-5-------|
E|-3-3--0------3-3--0----|
        *           *
e|-------------------------------|
B|-------------------------------|
G|-3-3-3-3-3-3-3-3-3h5p3---------|
D|-----------------------5-3-----|
A|---------------------------3-5-|
E|-------------------------------|


e|--------------------|
B|---------------6~~~-|
G|-3~~--3-5--5/7------|
D|--------------------|
A|--------------------|
E|--------------------|

e|-----------------------------------------------|
B|-----6--8-8~--3------6------6------6-----6-----|
G|-5/7------------5b7----5b7----5b7----5b7---5b7-|
D|-----------------------------------------------|
A|-----------------------------------------------|
E|-----------------------------------------------|

e|--------------------------------3------3-6~-|
B|-6------------------------------3--6~-------|
G|---5b7-5b7-5b7-5b7-5b7-5~~--5b7-------------|
D|--------------------------------------------|
A|--------------------------------------------|
E|--------------------------------------------|

e|-----------------|
B|--------18-------|
G|-17b19-----17~~--|
D|-----------------|
A|-----------------|
E|-----------------|

e|---------15---------15---------15---------15-|
B|-------15---------15---------15---------15---|
G|-17b19------17b19------17b19------17b19------|
D|---------------------------------------------|
A|---------------------------------------------|
E|---------------------------------------------|

e|---------15---------15---------15---------15-|
B|-------15---------15---------15---------15---|
G|-17b19------17b19------17b19------17b19------|
D|---------------------------------------------|
A|---------------------------------------------|
E|---------------------------------------------|

e|---------15---------15---------15---------15-|
B|-------15---------15---------15---------15---|
G|-17b19------17b19------17b19------17b19------|
D|---------------------------------------------|
A|---------------------------------------------|
E|---------------------------------------------|

e|---------15---------15---------15---------15-|
B|-------15---------15---------15---------15---|
G|-17b19------17b19------17b19------17b19------|
D|---------------------------------------------|
A|---------------------------------------------|
E|---------------------------------------------|

e|-----------------------------15-18p15------15------|
B|--------15-18-18-18b20~~--18---------18b19---18b19-|
G|-17b19---------------------------------------------|
D|---------------------------------------------------|
A|---------------------------------------------------|
E|---------------------------------------------------|

e|-15-18-20-20b22-{20}-{20}-{20}-{20}-{20}-{20}-|
B|----------------------------------------------|
G|----------------------------------------------|
D|----------------------------------------------|
A|----------------------------------------------|
E|----------------------------------------------|

e|-[20]21-{20}-{20}-{20}-20-20-18h20p18-15h18p15-------------------|
B|-----------------------------------------------15h18p15h18p15----|
G|--------------------------------------------------------------17-|
D|-----------------------------------------------------------------|
A|-----------------------------------------------------------------|
E|-----------------------------------------------------------------|

Solo fades out|

4.USE THE MAN

Tuning: Standard

Riff 1 (Acoustic)
e|-0--0--0-0--0-0--0--0-0-|
B|-0--0--0-0--0-0--0--0-0-|
G|-1--1--1-1--4-4--4--4-4-|
D|-2--2--2-2--5-5--5--5-5-|
A|-2--2--2-2--5-5--5--5-5-|
E|-0--0--0-0--3-3--3--3-3-|
   "I heard somebody..."
e|-0-0--0--0-0--0-0--0--0-0-|
B|-0-0--0--0-0--0-0--0--0-0-|
G|-3-3--3--3-3--2-2--2--2-2-|
D|-4-4--4--4-4--3-3--3--3-3-|
A|-4-4--4--4-4--3-3--3--3-3-|
E|-2-2--2--2-2--1-1--1--1-1-|
   "...fixed the days..."


Guitar fills over Riff 1:

#1 (Distortion w/ flanger)
e|----------------------------------|
B|----------------------------------|
G|-14b16----[14]16r14--12b14--------|
D|----------------------------14~~~-|
A|----------------------------------|
E|----------------------------------|
   "...to say..."

#2 (Distortion w/ flanger)
e|-------------------|
B|-------------------|
G|-[12]14----(14)r12-|
D|-------------------|
A|-------------------|
E|-------------------|
   "...dust..."

#3 (Distortion w/ flanger)
e|------------------|
B|-2h3--2p0--2p0----|
G|-2h3--2p0--2p0----|
D|------------------|
A|------------------|
E|----------------0-|
   "...get done..."


Riff 2 (Distortion)
e|---------------------------------------------------|
B|---------------------------------------------------|
G|---------------------------------------------------|
D|---------------------------------------------------|
A|-2--2----x-x-5-5--5--x-x-x-4-4--4-x-x-x-3-3--3-x-x-|
E|-0--0----x-x-3-3--3--x-x-x-2-2--2-x-x-x-1-1--1-x-x-|
   "I've seen..."


Riff 3 (Guitar 2 plays notes in () )
e|---------------------------------------------|
B|---------------------------------------------|
G|----------------------------(7-9-----------)-|
D|----------------------------(----9-8--7-5-2)-|
A|----7--5-7---5----5-7---5----5-7-------------|
E|-0---------7----------7----------7-6--5-3-0--|

Riff 1a (Acoustic)
e|--0-------------------------------|
B|--0-------------------------------|
G|--1-------------------------------|
D|--2-------------------------------|
A|--2-------------------------------|
E|--0-------------------------------|
   "Just one shot..."


Play Riff 1


Riff 1b (Acoustic)
e|--0-------------------------------|
B|--0-------------------------------|
G|--1-------------------------------|
D|--2-------------------------------|
A|--2-------------------------------|
E|--0-------------------------------|
   "Scores and..."


Play Riff 1


Guitar fills over the above Riff 1's

#1 (Distortion w/ flanger)
e|-----------|
B|-----------|
G|-----------|
D|--9/16~~~--|
A|-----------|
E|-----------|
   "...cry..."

#2 (Distortion w/ flanger)
e|-------------------------------------|
B|-12--15b17----12-15--[17]20r17-15b17-|
G|-------------------------------------|
D|-------------------------------------|
A|-------------------------------------|
E|-------------------------------------|
   "...him in..."

#3 (Distortion w/ flanger)
e|-12tm--(12)b13--(13)b14--(14)r12----17\\5\\------|
B|---------------------------------[steady gliss]--|
G|--[keep tremolo picking]-------------------------|
D|-------------------------------------------------|
A|-------------------------------------------------|
E|-------------------------------------------------|
   "...the noose..."

Play Riff 2  "I've seen..."

Riff 2a
e|---------------------------------------------------|
B|---------------------------------------------------|
G|---------------------------------------------------|
D|---------------------------------------------------|
A|-4--4----x-x-7-7--7--x-x-x-6-6--6-x-x-x-5-5--5-x-x-|
E|-2--2----x-x-5-5--5--x-x-x-4-4--4-x-x-x-3-3--3-x-x-|
   "Cryptic writings..."
e|-----------------------------------------------------|
B|-----------------------------------------------------|
G|-----------------------------------------------------|
D|-----------------------------------------------------|
A|-2--2----x-x-5-5--5--x-x-x-4-4--4-x-x-x-3-3--3-x-x---|
E|-0--0----x-x-3-3--3--x-x-x-2-2--2-x-x-x-1-1--1-x-x-0-|
   "I've seen..."

Riff 3 (Solo Rhythm)
e|-------------------------------|
B|-------------------------------|
G|-------------------------------|
D|----------------5--------------|
A|-2----7---5h7---5----7---5h7---|
E|-0--0---0-----0----0---0-----0-|
      *   *     *    *   *     *
e|-------------------------------|
B|-------------------------------|
G|-------------------------------|
D|-4--------------3--------------|
A|-4----7---5h7---3----7---5h7---|
E|----0---0-----0----0---0-----0-|
      *   *     *    *   *     *


Solo (Friedman)
e|-12------12-----12------12-----12------12-----12-----|
B|-15b17~--[15]17-15b17~--[15]17-15b17~--[15]17-15b17~-|
G|-----------------------------------------------------|
D|-----------------------------------------------------|
A|-----------------------------------------------------|
E|-----------------------------------------------------|

e|-15-----12------15------12------15-----17-----|
B|-[18]20-15b17~--18b20~--15b17~--18b20~-20b22~-|
G|----------------------------------------------|
D|----------------------------------------------|
A|----------------------------------------------|
E|----------------------------------------------|

e|-17-17-17-----17-----17-----17-17-17----|
B|-------20b22--20b20--20b22--------20b22-|
G|----------------------------------------|
D|----------------------------------------|
A|----------------------------------------|
E|----------------------------------------|

e|--------17b19--(19)r17-[17]19r17-[17]19r17-[17]19-|
B|-----15-------------------------------------------|
G|-/16----------------------------------------------|
D|--------------------------------------------------|
A|--------------------------------------------------|
E|--------------------------------------------------|

e|-[17]19~~----[17]19~~\--------12----15b17-|
B|-[17]19~~----[17]19~~\----/12----12-------|
G|------------------------------------------|
D|------------------------------------------|
A|------------------------------------------|
E|------------------------------------------|

e|-15-12-14----12----------------------------------------|
B|----------17----15p12----15p12-------12----------------|
G|----------------------14-------14b16----14p12-12-14b16-|
D|-------------------------------------------------------|
A|-------------------------------------------------------|
E|-------------------------------------------------------|

e|----12----------------------------------------|
B|-12----15p12----12----------------------------|
G|-------------14----14b16r14p12-12-14b16r14b16-|
D|----------------------------------------------|
A|----------------------------------------------|
E|----------------------------------------------|

e|-15------------------------|
B|---------------------------|
G|----[14]16r14-12--(12)~~~~-|
D|---------------------------|
A|---------------------------|
E|---------------------------|

End Solo


Riff 4
e|-------------------------------|
B|-------------------------------|
G|-------------------------------|
D|-------------------------------|
A|-2----5----7----3--2-3-2-3-2-3-|
E|-0----3----5-------------------|
   "I've seen..."
e|-------------------------------|
B|-------------------------------|
G|-------------------------------|
D|-------------------------------|
A|-2----5----7----3--2-3-2-3-5-5-|
E|-0----3----5-------------------|
   "I've seen..."


Riff 5
Guitar 1
e|-------------------------------|
B|-------------------------------|
G|-------------------------------|
D|----------------5--------------|
A|-2----7---5h7---5----7---5h7---|
E|-0--0---0-----0----0---0-----0-|
      *   *     *    *   *     *
                                 Final chord
e|-------------------------------|-----|
B|-------------------------------|-----|
G|-------------------------------|-----|
D|-4--------------3--------------|-----|
A|-4----7---5h7---3----7---5h7---|--2--|
E|----0---0-----0----0---0-----0-|--0--|
      *   *     *    *   *     *


Guitar 2
e|-------------------------------|
B|-------------------------------|
G|-------------------------------|
D|------5---4-2--------5---4-2---|
A|-2--------------5--------------|
E|-0--0---0-----0----0---0-----0-|
      *   *     *    *   *     *
                                 Final chord
e|-------------------------------|-----|
B|-------------------------------|-----|
G|-------------------------------|-----|
D|------5---4-2------------------|-----|
A|-4--------------3--2-3-2-3-5-5-|--2--|
E|----0---0-----0----------------|--0--|
      *   *     *

5.ALMOST HONEST

Intro

3x========================================
-------------------------------------------------------------|
-------------------------------------------------------------|
-------------------------------------------------------------|
-----------2-----------0---2-----------------------------2---|
--------2-----------2------0-----2------------------2----0---|
-----0--------2--3---------------0-------0----------0--------|


                                  Verse:
                                  I lied just a little
-------------------------------------------------------------|
-------------------------------------------------------------|
----------7-------9\-----------------------------------------|
----------7-------9\-----------------------------------------|
---2------5-------7\--------2--------------------------------|
---0------------------------0-------------------0------------|


when I said I need you.  You stretched the truth  when you
-------------------------------------------------------------|
-------------------------------------------------------------|
-------------------------------------------------------------|
-------------------------------------------2-----------0--2--|
----------------------------------------2-----------2-----0--|
---0---------------------0-----------0--------2--3-----------|


said that you knew
-------------------------------------------------------------|
-------------------------------------------------------------|
-------------------------------------------------------------|
--------------------2-----------0---2------------------------|
---2-------------2-----------2------0------2-----------------|
---0--------0----------2--3----------------0------------0----|


Just can't believe it.            There's nothing to say
-------------------------------------------------------------|
-------------------------------------------------------------|
-------------------------------------------------------------|
-----2-----------0---2----------------------------2----------|
--2-----------2------0--------2-------------------0----------|
--------2--3------------------0------------------------------|


I was almost honest        almost
gtr 1
-------------------------------------------------------------|
-------------------------------------------------------------|
-------------------------------------------------------------|
-----------2-----------------0-----1-------------------------|
--2--------0---------2-------0-----1------2~--2--0--1--2--2--|
--0------------------0---------------------------------------|

gtr 2
--------------------------------------------------------------|
--------------------------------------------------------------|
---------------------------------------4--4--x--x--x--x--8--\-|
---------------------------------------------x--x--x--x-------|
---------------------------------------2--2--x--x--x--x--6--\-|
--------------------------------------------------------------|

                             Chorus:
                             Living alone can't stand this place
gtr 1
-------------------------------------------------------------|
-------------------------------------------------------------|
-------------------------------------------------------------|
----------------------------------------------2--------------|
---2--2--0--1--2--1--0-------2----------------0--------------|
-----------------------------0-------------------------------|

gtr2                             =================4x=========
-------------------/7-------7\-------------------------------|
-------------------/7-------7\------5--------5--------2------|
----/11--11---\------------------------4--------4--------2---|
------9---9---\------------------2--------2--------2---------|
-------------------------------------------------------------|
-------------------------------------------------------------|


It's four in the morning and I still see your face
gtr 1
-------------------------------------------------------------|
-------------------------------------------------------------|
-------------------------------------------------------------|
------------------2--------2------------------------------2--|
-----2------------0--------0-----------------------2------0--|
-----0------------------------------2----3--2--0---0---------|


gtr 2 (cont)
=====================
-------------------------------------------------------------|
---2----------3----------------------------------------------|
------2----------2-------------------------------------------|
---------2h4--------4----------------------------------------|
-------------------------------------------------------------|
-------------------------------------------------------------|

I was nearly pure when I said I loved you.  You were semi sincere,
when you said I'd bleed for you.

gtr 1                                            ============
-------------------------------------------------------------|
-------------------------------------------------------------|
-------------------------------------------------------------|
-------------------------2----2---------------------2--------|
-----------2-------------0----0------------------2-----------|
-----------0-----------------------2----3--2--0--------2--3--|

gtr 1
======================================fig B
--------------------------------------|
--------------------------------------|
--------------------------------------|
----0----2----------------------------|
-2-------0-----2----------------------|
---------------0---0--0--0--0--0--0---|


2nd Verse (play fig B)
with fills:
2x===================
---------------------------|
---------------------------|
-------9\7---7----7\-------|
---------------------------|
-------7\5---5----5\-------|
---------------------------|

You were almost honest    almost
-------------------------------------------------------------|
-------------------------------------------------------------|
-------------------------------------------------------------|
------2-----------0---2---------------------2----------------|
---2-----------2------0---2-----------------0----2-----------|
---------2--3-------------0--0--0--0--0--0-------0--0--0--0--|


-------------------------------------------------------------|
-------------------------------------------------------------|
-------------------------------------------------------------|
-------2---------0----1--------------------------------------|
-------0---2-----0----1-----2~---2--0--1--2--2--0--1--2--2---|
-0--0------0-------------------------------------------------|


-------------------------|
-------------------------|
-------------------------|
-------------------------|
-0--1--2------1------0---|
-------------------------|


Chorus (play same chorus)
Living alone, falling from grace I want to atone
but theres just empty space
can't face tomorrow now you're not coming back
walked off in the night and just left me the tracks


Bridge

I question your call by the tone of your voice
I know I should hang up but I don't have a choice
It happened that night whe you told me to go
Don't ask who's to blame I don't know.

Fig 3========================================================
----------0---------0---------0-------------0----------0-----|
-------------------------------------------------------------|
-------------9---------9-------------8----------8------------|
-----9----------9---------9-------9-----9----------9-------7-|
-------------------------------------------------------------|
-------------------------------------------------------------|

=============================================================
---------0--------0-------0---------0--------0-------0-------|
-------------------------------------------------------------|
--7---------7----------------6---------6-------6-----------5-|
-----7---------7------7---------7---------7------7------5----|
-------------------------------------------------------------|
-------------------------------------------------------------|

================
-----0---------0------0--------0-------0-----0--------0------|
-------------------------------------------------------------|
--------5----------------7-------7--------------9-------9----|
-5---------5-------7--------7-------7-----9--------9-------9-|
-------------------------------------------------------------|
-------------------------------------------------------------|


-------------------------------|
-10--------9------9--------9---|
-----9--------9------9---------|play fig 3
--------9---------------9------|
-------------------------------|
-------------------------------|


Lead (w/fig 2 7x)

--------------------------------9--------------------------9-|
------------------------------------8-8-8--8-8--8-8--8-8-----|
---11b(12)--rb11---9-----------------------------------------|
-------------------------------------------------------------|
-------------------------------------------------------------|
-------------------------------------------------------------|


---------------------------9----------------------------9----|
-8-8-8---8-8---8-8---8-8------8-8-8--8-8--8-8--8-8-----------|
-------------------------------------------------------------|
-------------------------------------------------------------|
-------------------------------------------------------------|
-------------------------------------------------------------|


-------------------------------------------------------------|
--------8---8--8---8---7b(8)-rb7-----------------------------|
--------7-------------------------9----9~---9~---9~----------|
--/9-----------9---------------------------------------------|
-------------------------------------------------------------|
-------------------------------------------------------------|


-------------------------------------------------------------|
--10---10b(12)---8-10--------------------9-------/12-15-12---|
-----------------------9----9~----9~-------------------------|
---------------------------------------------11--------------|
-------------------------------------------------------------|
-------------------------------------------------------------|


---------12---------------12------------12-----------------12-|
-15b(16)----15-12-15b(16)----12-14b(15)----15-12--------------|
--------------------------------------------------14b(16)-----|
--------------------------------------------------------------|
--------------------------------------------------------------|
--------------------------------------------------------------|


---------------------------12--------------------------------|
-15-12-15b(17)--15~------x----16-12-----------------15p12----|
-----------------------x------------14b(16)-rb14p12----------|
-------------------------------------------------------------|
-------------------------------------------------------------|
-------------------------------------------------------------|


----------12-------------------------------------------------|
-------------12h15-12--------------------------------15------|
-14b(16)--------------14b(16)-rb14p12----14b(16)hold---------|
-------------------------------------------------------------|
-------------------------------------------------------------|
-------------------------------------------------------------|


----------12---------------------------------18----18b(19)~--|
-------------------------------------------------------------|
-14b(16)------14b(16)--rb14p12--14--12~------15--------------|
-------------------------------------------------------------|
-------------------------------------------------------------|
-------------------------------------------------------------|


--15b(18)---15b(17)---15p12--------15b(17)----15~~~~---15p12-|
------------------------------12-----------------------------|
-------------------------------------------------------------|
-------------------------------------------------------------|
-------------------------------------------------------------|
-------------------------------------------------------------|


------15b(18)-----15~~---15p12-------12----------------------|
-12----------------------------12h15----12-15p12-15p12-------|
-------------------------------------------------------12h14-|
-------------------------------------------------------------|
-------------------------------------------------------------|
-------------------------------------------------------------|


--------------------11--------14--14----------16----17-----18-|
-12---------------------11------------------------------------|
----12-14b(16)hold------------14--14---14/16-----14-----18----|
--------------------------------------------------------------|
--------------------------------------------------------------|
--------------------------------------------------------------|


-----19~~~~~~~-----------------------------------------------|
-16----------------------------------------------------------|
-------------------------------------12-14p12-------------12-|
----------------------------------12----------14p12-12h14----|
----------------------12-12-12h14----------------------------|
-------------------------------------------------------------|


-------------------|
----15p12----------|
-12--------14p12---|
-------------------|
-------------------|
-------------------|


Outro
-------------------------------------------------------------|
-------------12--12-------------12------12---------12--------|
--14b(16)--------------14b(16)------14------14-----------12--|
-------------------------------------------------------------|
-------------------------------------------------------------|
-------------------------------------------------------------|

                     ========================================
--------------------------------------------------------------|
--12----12-----12-------------12--12----------12-----------12-|
--12----12-----------14b(16)----------14b(16)-----14b(16)-----|
--------------------------------------------------------------|
--------------------------------------------------------------|
--------------------------------------------------------------|

==============================play til end
--------------------------------------|
-----12--------12---12--12--12--------|
-14------14----12---12--12--12--------|
--------------------------------------|
--------------------------------------|
--------------------------------------|

I was almost honest
-------------------------------------------------------------|
-------------------------------------------------------------|
----------7---9----------------------------------------------|
--2-------7---9-----------2--------------------0---2---------|
----------5---7-----------0---3--2--0----2--3----------------|
------0------------0--0---------------------------------0----|

almost honest. etc.,
-------------------------------------------------------------|
-------------------------------------------------------------|
---7----9---------------------------------------------7----9-|
---7----9-----------2---------------------0---2-------7----9-|
---5----7-----------0----3--2--0----2--3--------------5----7-|
-------------0--0---------------------------------0----------|


-------------------------------------------------------------|
-------------------------------------------------------------|
---------------------------------------------7---9-----------|
--------2------------------------------------7---9---------2-|
--------0-----------4----5--4---------2------5---7---------0-|
-0--0--------0--0---2----3--2--0------0--0-----------0--0----|

-------------------------------------------------------------|
-------------------------------------------------------------|
-------------------------------7---9-------------------------|
-------------------0--2--------7---9----------2--------------|
--3--2--0----2--3--------------5---7----------0---3--2--0----|
---------------------------0-----------0--0------------------|


-----------|
-----------|
-----------|
-------0---|fade out
-2--3------|
-----------|

6.TRUST

Tuning: Standard

Intro

Guitar 1 (Synth arranged for guitar)
                              x2
e|-----------------------------|
B|-----------------------------|
G|-9--------9--------7----/12--|
D|-----------------------------|
A|-7--------7--------5----/10--|
E|-----------------------------|

e|-----------------------|
B|-----------------------|
G|-9--------9---10--/12--|
D|-----------------------|
A|-7--------7----8--/10--|
E|-----------------------|

e|-----------------------------|
B|-----------------------------|
G|-9--------9--------7----/12--|
D|-----------------------------|
A|-7--------7--------5----/10--|
E|-----------------------------|

e|----------------------|
B|----------------------|
G|-9--------9---10--12--|
D|----------------------|
A|-7--------7----8--10--|
E|----------------------|

e|---------------------|
B|---------------------|
G|-9--------9----10----|
D|---------------------|
A|-7--------7-----8----|
E|---------------------|


Guitar 2 (Comes in at 0:44, distortion)
e|-------------------12~----------------------------|
B|--------12~--------------------12~----------------|
G|-/9-9-9------9~--------9~--9~-------9~--9\7-7~-7~-|
D|--------------------------------------------------|
A|--------------------------------------------------|
E|--------------------------------------------------|

e|----------------12~-----------12~---------|
B|--------12~------------12~-----------12~--|
G|-/9-9-9------9~------9-----9~------9------|
D|------------------------------------------|
A|------------------------------------------|
E|------------------------------------------|

e|---12b13--{12}--{12}--{12}--{12}--(12)\--|
B|-----------------------------------------|
G|-9---------------------------------------|
D|-----------------------------------------|
A|-----------------------------------------|
E|-----------------------------------------|


Guitar 3 (Comes in at 0:44, distortion)
e|----------------------|
B|----------------------|
G|----------------------|
D|--9-------------------|
A|--7----10----7----3---|
E|--------8----5----1---|

e|-----------------------------------------|
B|-----------------------------------------|
G|-----------------------------------------|
D|--9--------------------------------------|
A|--7----10----7----3--3-3-3-3-3-3-3-3-----|
E|--------8----5----1--1-1-1-1-1-1-1-1-...-|
                       * * * * * * * *

Riff 1
e|-------------------------------|
B|-------------------------------|
G|-------------------------------|
D|-------------------------------|
A|---7---------7---------7-------|
E|-0---8-7~--0---8~--7-0----8-7~-|

e|-------------------------------|
B|-------------------------------|
G|-------------------------------|
D|-------------------------------|
A|---7---------7--------5--------|
E|-0---8-7~--0---6--5-0---0-6-8~-|

e|-------------------------------|
B|-------------------------------|
G|-------------------------------|
D|-------------------------------|
A|---7---------7---------7-------|
E|-0---8-7~--0---8~--7-0----8-7~-|

e|--------------------------------|
B|--------------------------------|
G|--------------------------------|
D|--------------------------------|
A|---7---------7--------5---------|
E|-0---8-7~--0---6--5-0---0-6-8-0-|
                                *


Riff 2 (Guitar 2 plays notes in () )
e|-------------------------------|
B|-------------------------------|
G|-------------------------------|
D|-9-----------------------------|
A|-7-------------10--------------|
E|----0-0-0-0-0---8--0-0-0-0-0-0-|
      * * * * *      * * * * * *
   "Lost in a dream..."
e|-------------------------------|
B|-------------------------------|
G|-------------------------------|
D|-------------------------------|
A|-7--------------3--------------|
E|-5--0-0-0-0-0-0-1--0-0-0-0-0-0-|
      * * * * * *    * * * * * *
   "Nothing's what..."
e|-------------------------------|
B|-------------------------------|
G|-------------------------------|
D|-9-----------------------------|
A|-7--------------10------9------|
E|----0-0-0-0-0-0--8--0-0-7--0-0-|
      * * * * * *     * *    * *
   "Searching..."
e|-------------------------------|
B|-------------------------------|
G|-------------------------------|
D|-------------------------------|
A|-7--------------3--------------|
E|-5--0-0-0-0-0-0-1--0-0-0-0-0-0-|
      * * * * * *    * * * * * *
   "...words that..."
e|---------------------------------|
B|-(12~)---------------------------|
G|-(12~)-----------(9~)------------|
D|---9-----------------------------|
A|---7-------------10--------------|
E|------0-0-0-0-0---8--0-0-0-0-0-0-|
        * * * * *      * * * * * *
   "Tears filled..."
e|--------------------------------|
B|--------------------------------|
G|-(5~)-----------(5~)------------|
D|--------------------------------|
A|--7--------------3--------------|
E|--5--0-0-0-0-0-0-1--0-0-0-0-0-0-|
       * * * * * *    * * * * * *
   "...said our..."
e|-----------------------------------|
B|-(12)-------------------------(7)--|
G|-(12)-------------(9~)----(7)------|
D|---9---------------------------7---|
A|---7--------------10-------9---5---|
E|------0-0-0-0-0-0--8---0-0-7-0---0-|
        * * * * * *      * *   *   *
   "The same scene..."
e|----------------------------------|
B|----------------------------------|
G|-(5~)----------(10~)--------------|
D|---------------(10~)--------------|
A|--7--------------3--3-3-3-3-3-3-3-|
E|--5--0-0-0-0-0-0-1--1-1-1-1-1-1-1-|
       * * * * * *
   "...walking away..."


Play Riff 1  "My body aches..."
Play Riff 2  "Time and again..."

Use this for the last bar for Riff 2:
e|----------------------------------|
B|----------------------------------|
G|-(5~)----------(10~)--------------|
D|---------------(10~)--------------|
A|--7--------------3--3-3-3-3-3-----|
E|--5--0-0-0-0-0-0-1--1-1-1-1-1-13\-|
       * * * * * *
   "...but I wish I could trust..."


Riff 1a
e|-------------------------------|
B|-------------------------------|
G|-------------------------------|
D|-------------------------------|
A|---7---------7---------7-------|
E|-0---8-7~--0---8~--7-0----8-7~-|
   "My body aches..."
e|-------------------------------| Play 3x
B|-------------------------------|
G|-------------------------------|
D|-------------------------------|
A|---7---------7--------5--------|
E|-0---8-7~--0---6--5-0---0-6-8~-|
   "...mistakes..."

e|-------------------------------|
B|-------------------------------|
G|-------------------------------|
D|-------------------------------|
A|---7---------7---------7-------|
E|-0---8-7~--0---8~--7-0----8-7~-|
   "We lie to..."
e|-------------------------------|
B|-------------------------------|
G|-------------------------------|
D|-------------------------------|
A|---7---------7--------5--------|
E|-0---8-7~--0---6--5-0---0-6-8\-|
   "...so much..."

Interlude (Acoustic)
e|-0--------0--------0--------2-|
B|-0--------0--------0--------3-|
G|-0--------0--------0--------2-|
D|-2--------2--------2--------0-|
A|-2--------3--------4----------|
E|-0----------------------------|
  "...true.  Trust hurts..."


Riff 3 (Acoustic)
Guitar 1
e|------------------------------------------------|
B|------------------------------------------------|
G|-9-------9h10-9h10p9-------10-------8---------8-|
D|------10-------------10-------10------10---10---|
A|---12-------------------12-------12------8------|
E|------------------------------------------------|

e|--------------------6----------------|
B|----------8----8-10---6---6----------|
G|-7------7----7----------6---6----6---|
D|------8------------------------8---8-|
A|---10--------------------------------|
E|-------------------------------------|

e|---------0-------------------------------|
B|-------6---6------------8-8/11-11p8------|
G|-----5-------5--------6-------------9----|
D|---7-----------7----5-----------------11-|
A|-0----------------0----------------------|
E|-----------------------------------------|

Guitar 2
e|--------------------------------------|
B|--------------------------------------|
G|-5-----5h7-5h7p5----------5----2/5----|
D|-----7-----------7------7----------7\-|
A|---7---------------7--6-----3---------|
E|--------------------------------------|

e|------------------------------------------|
B|------------------------------------------|
G|----------3\2/3-----------6-5-6-----------|
D|-(7)\5----------5---------------8-------7-|
A|--------5---------5--8------------8-8-7---|
E|------------------------6-----------------|

e|---------------------|
B|-------5-5/8-8p5-----|
G|-----3-----------6---|
D|---2---------------7-|
A|-0-------------------|
E|---------------------|


Riff 4
Guitar 1 (Acoustic)
e|--------------------------------|
B|--------------------------------|
G|---------------------0-------0--|
D|-----0-------0-----0-------0----|
A|---0-------0-----1-----1-0------|
E|-1-----1-0-----0----------------|

e|--------------------------------|
B|--------------------------------|
G|--------------------------------|
D|-----------[silent]-------------|
A|--------------------------------|
E|--------------------------------|


Guitar 2 (Distortion)
e|-------------------------------------|
B|-------------------------------------|
G|---------------------0-------0-------|
D|-----0-------0-----0-------0-------2-|
A|---0-------0-----1-----1-0---------0-|
E|-1-----1-0-----0---------------3b4---|
   * * * * * * * * * * * * * * *
e|-----------------------------------------------|
B|-----------------------------------------------|
G|-----------------------------------------------|
D|---------------------------------------------2-|
A|-0-0-0-0-0-0-0-0-0-0-0-0-0-0-0-0-0-0-0-0-0-0-0-|
E|-----------------------------------------------|
   * * * * * * * * * * * * * * * * * * * * * *


Play Riff 1a  Solo Rhythm

Solo (Friedman)
e|---------------------------------------------|
B|-------------11b12~~-----------------12b15~~-|
G|-9--9~--9----------------9--9~--9------------|
D|----------9-----------/9----------9----------|
A|---------------------------------------------|
E|---------------------------------------------|

e|------------------------------------|
B|-------------------16-17b20--(20)~--|
G|---9~-9~~-------16------------------|
D|-9---------9/17---------------------|
A|------------------------------------|
E|------------------------------------|

e|--------------------------|
B|-[17]20r17b20--17b20r17\--|
G|--------------------------|
D|--------------------------|
A|--------------------------|
E|--------------------------|

e|-----------------------------------15-----|
B|--------------------------17-17~~----17---|
G|-2b3--2b3-2b3r2b3~~---/16--------------16-|
D|------------------------------------------|
A|------------------------------------------|
E|------------------------------------------|

e|-18b19--18b19~-{18}-(19)r18p17-15---------|
B|----------------------------------17~~-17-|
G|------------------------------------------|
D|------------------------------------------|
A|------------------------------------------|
E|------------------------------------------|

e|----------15h19p15--15-19-19b22~~~\-|
B|----17h19---------19----------------|
G|-16---------------------------------|
D|------------------------------------|
A|------------------------------------|
E|------------------------------------|

e|-19-22-22b24--22-22b24-22b24-22b24-22b24-22b24-|
B|-----------------------------------------------|
G|-----------------------------------------------|
D|-----------------------------------------------|
A|-----------------------------------------------|
E|-----------------------------------------------|

e|-22-2b24-22b24-22b24-{22}{22}{22}{22}{22}\-|
B|---------------22b23-{22}{22}{22}{22}{22}\-|
G|-------------------------------------------|
D|-------------------------------------------|
A|-------------------------------------------|
E|-------------------------------------------|

e|-----12-11--------11-12-11---------12-14p12--------|
B|-5/-------12p10-12--------12--12h15--------15-12---|
G|----------------------------14------------------14-|
D|---------------------------------------------------|
A|---------------------------------------------------|
E|---------------------------------------------------|

e|------12-14p12---------(15)----------------------|
B|-12h15--------15-12--12----15-12--12-15p12h15p12-|
G|-------------------14-----------14---------------|
D|-------------------------------------------------|
A|-------------------------------------------------|
E|-------------------------------------------------|

e|-----------------------|
B|---12------------------|
G|-14--14p12-------------|
D|----------14-12-14~~~\-|
A|-----------------------|
E|-----------------------|

End Solo


Play Riff 1a  "My body aches..."

Ending:
e|-------------------------------|
B|-------------------------------|
G|-------------------------------|
D|-------------------------------|
A|---7---------7---------7-------|
E|-0---8-7~--0---8~--7-0----8-7~-|
  "Oh..."
e|----------------------------------|
B|----------------------------------|
G|----------------------------------|
D|----------------------------------|
A|---7---------7--------5---------2-|
E|-0---8-7~--0---6--5-0---0-6-8\--0-|
       "Absolutely nothing we trust."


Ending guitar fills:
e|-----------------------------|
B|-----------------------------|
G|-11b12--------[11]12r11-9~~~-|
D|-----------------------------|
A|-----------------------------|
E|-----------------------------|

e|----------------------------------------------12--------|
B|--------------12h15-----12h15---------------15--15b17~~-|
G|-14-12---12h14-----12h14-----12h14p12--12-14------------|
D|------14-----------------------------14-----------------|
A|--------------------------------------------------------|
E|--------------------------------------------------------|

e|-----------------------------------------------------|
B|-12-12-15b17r15p12-15b17~~-15p12-15b17r15p12-15b17~~-|
G|-----------------------------------------------------|
D|-----------------------------------------------------|
A|-----------------------------------------------------|
E|-----------------------------------------------------|

e|-17b19r18--[17]19~~~\-|
B|----------------------|
G|----------------------|
D|----------------------|
A|----------------------|
E|----------------------|

e|-19b20--(20)r19--15-17-[17]18r17b18r17b18r17p15-|
B|------------------------------------------------|
G|------------------------------------------------|
D|------------------------------------------------|
A|------------------------------------------------|
E|------------------------------------------------|

e|-17b19~~-(19)r17p15-----------------15------------|
B|--------------------17~~~--17p15-17----17-15-17~~-|
G|--------------------------------------------------|
D|--------------------------------------------------|
A|--------------------------------------------------|
E|--------------------------------------------------|

e|----------------17-------------------|
B|-17~~--17p15-17----17p15-17~~\-------|
G|--------------------------------/16\-|
D|-------------------------------------|
A|-------------------------------------|
E|-------------------------------------|

e|---------------------------------------------------|
B|-11-------10-----\------------------------12-------|
G|-13b15~~--12b14~~\---9h12p9~~-----12p9----12p9-----|
D|------------------------------12p9----12p9----12p9-|
A|---------------------------------------------------|
E|---------------------------------------------------|

e|-----------------------|
B|-----------------------|
G|----9------------------|
D|-12---12p9-------------|
A|----------12p10--10----|
E|---------------12--12\-|

e|-------------------------------|
B|-------------------------------|
G|-------------------------------|
D|--[use wah pedal for this bar]-|
A|-------------------------------|
E|-3h5p3h5p3h5p3h5-5-5-5\--------|

End Solo

7.A TOUT LE MONDE

verse 1
e-------------------------------|----------------------------------|
B-------------------------------|----------------------------------|
G-----------2----------2--------|---------2-----------2------------|
D-------------------------------|----------------------------------|
A-----4-----------4----------4--|------4----------4----------4-----|
E--2----------2-----------2-----|--0----------0----------0---------|

e-------------------------------|----------------------------------|
B-------------------------------|----------------------------------|
G--------2--------2-------------|--------2-------------2-----------|
D-----4--------4----4-----------|----0-------------2---------------|
A--2--------2-------------------|---------------0------------------|
E------------------------2/3----|-----------3---------------3------|

pre-chorus
e-------------------------------|----------------------------------|
B-------------------------------|----------------------------------|
G--------------------2----------|-----2-h-4----------2--4----------|
D-4----------2--4----2----------|-----2-h-4----------2--4----------|
A-4----------2--4----0----------|--x-------------------------------|
E-2-----------------------------|------------------------------0---|
pm          ......                                  ......

e-------------------------------|----------------------------------|
B-------------------------------|----------------------------------|
G---------------------------2---|---------4----------2---4---------|
D-4-----------4----2--4-----2---|---------4----------2---4---------|
A-4-----------4----2--4-----0---|-----x---2--------------2---x-----|
E-2-------0---2-----------------|----------------------------------|
pm       ..       ......                            ..

e--------------------------------|---------------------------------|
B--------------------------------|---------------------------------|
G-7-7-7-7-7-7-7-7-7-7-7-7-7-7-7-7|---------------------------------|
D-7-7-7-7-7-7-7-7-7-7-7-7-7-7-7-5|---------------------------------|
A-5-5-5-5-5-5-5-5-5-5-5-5-5-5-5-5|---------------------------------|
E--------------------------------|---------------------------------|

chorus
e---------9--------9-------9----|-------7------7------7------------|
B----10-------10----------------|----9------9----------------------|
G-9-------------------9---------|-9---------------9----------------|
D-------------------------------|----------------------------------|
A-------------------------------|----------------------------------|
E-------------------------------|----------------------------------|

e--------7--------7-------7-----|----------5-------5-----5---------|
B----7--------7-----------------|-----7---------7------------------|
G-8-------------------8---------|-6-------------------6------------|
D-------------------------------|----------------------------------|
A-------------------------------|----------------------------------|
E-------------------------------|----------------------------------|

e-------5-------5---------5-----|-------4---------4------4---------|
B----5------5-------------------|----5-------5---------------------|
G-6------------------6----------|-6------------------6-------------|
D-------------------------------|----------------------------------|
A-------------------------------|----------------------------------|
E-------------------------------|----------------------------------|

e-----------2---------2--------2|---0------------------------------|
B------2---------2--------------|---3------------------------------|
G-4------------------------4----|---2------------------------------|
D-------------------------------|---0------------------------------|
A-------------------------------|----------------------------------|
E-------------------------------|----------------------------------|


Guitar 2   verse 2 w/dis     guitar 1 plays verse 1 as well
e-------------------------------|----------------------------------|
B-------------------------------|----------------------------------|
G-----------2----------2--------|---------2-----------2------------|
D-------------------------------|----------------------------------|
A-----4-----------4----------4--|------4----------4----------4-----|
E--2----------2-----------2-----|--0----------0----------0---------|
pm ....       .....       ..      ......     ......     ..

e-------------------------------|----------------------------------|
B-------------------------------|----------------------------------|
G--------2--------2-------------|--------2-------------2-----------|
D-----4--------4----4-----------|----0-------------2---------------|
A--2--------2-------------------|---------------0------------------|
E------------------------2/3----|-----------3---------------3------|
pm ....     ....    ..              ..      ........        ..

pre-chorus
e-------------------------------|----------------------------------|
B-------------------------------|----------------------------------|
G--------------------2----------|-----2-h-4----------2--4----------|
D-4----------2--4----2----------|-----2-h-4----------2--4----------|
A-4----------2--4----0----------|--x-------------------------------|
E-2-----------------------------|------------------------------0---|
pm          ......                                  ......

e-------------------------------|----------------------------------|
B-------------------------------|----------------------------------|
G---------------------------2---|---------4----------2---4---------|
D-4-----------4----2--4-----2---|---------4----------2---4---------|
A-4-----------4----2--4-----0---|-----x---2--------------2---x-----|
E-2-------0---2-----------------|----------------------------------|
pm       ..       ......                            ..

e--------------------------------|---------------------------------|
B--------------------------------|---------------------------------|
G-7-7-7-7-7-7-7-7-7-7-7-7-7-7-7-7|---------------------------------|
D-7-7-7-7-7-7-7-7-7-7-7-7-7-7-7-5|---------------------------------|
A-5-5-5-5-5-5-5-5-5-5-5-5-5-5-5-5|---------------------------------|
E--------------------------------|---------------------------------|

chorus
e---------9--------9-------9----|-------7------7------7------------|
B----10-------10----------------|----9------9----------------------|
G-9-------------------9---------|-9---------------9----------------|
D-------------------------------|----------------------------------|
A-------------------------------|----------------------------------|
E-------------------------------|----------------------------------|

e--------7--------7-------7-----|----------5-------5-----5---------|
B----7--------7-----------------|-----7---------7------------------|
G-8-------------------8---------|-6-------------------6------------|
D-------------------------------|----------------------------------|
A-------------------------------|----------------------------------|
E-------------------------------|----------------------------------|


e-------5-------5---------5-----|-------4---------4------4---------|
B----5------5-------------------|----5-------5---------------------|
G-6------------------6----------|-6------------------6-------------|
D-------------------------------|----------------------------------|
A-------------------------------|----------------------------------|
E-------------------------------|----------------------------------|

e-----------2---------2--------2|---0------------------------------|
B------2---------2--------------|---3------------------------------|
G-4------------------------4----|---2------------------------------|
D-------------------------------|---0------------------------------|
A-------------------------------|----------------------------------|
E-------------------------------|----------------------------------|

Solo..
e-------------------------------|----------------------------------|
B-------------------------------|----------------------------------|
G-11h14-11\9-9h11---------------|-----6----------------------------|
D-----------------9h11---11\9--7|-9--------------------------------|
A-------------------------------|-------9---------7-9-9-------7\4--|
E-------------------------------|-----------7h9--------------------|
                                                      ~~~~~~
e-------------------------------|----------------------------------|
B-------------------------------|----------------------------------|
---------4----6--4----------2-4-|-4^--2-4----2--4-4fb-4p2-4-----2--|
D--------4--4----------2h4------|----------------------------4-----|
A-4h5--5------------------------|----------------------------------|
E-------------------------------|----------------------------------|
                 ~~~~                   ~~~~                    ~~~

e-------------------------------|----------12----------------------|
B-------------------------------|----------------------------------|
G-/11-11-11-11-11-11-11----11---|-14-14fb-----14--13--h14p13-11----|
D-------------------------------|-------------------------------14-|
A-------------------------------|----------------------------------|
E-------------------------------|----------------------------------|
                                     *hold bend

e---------------------------|-------7-10-----7/12-9------------9h12|
B---------------------------|-----8--------8-------10-------10-----|
G--------/11--11/11--11-11\-|--7---------7------------9----9-------|
D-12-12--/12--12/14--12-12\-|/9-------------------------11---------|
A---------------------------|--------------------------------------|
E---------------------------|--------------------------------------|
  ~~~

pre-chorus
e-------------------------------|----------------------------------|
B-------------------------------|----------------------------------|
G----------------------4------x-|--4h6----4--6---------------------|
D-6-----------4--6-----4------x-|--4h6----4--6---------------------|
A-6-----------4--6--------------|--------------------4-------------|
E-4-----------------------------|--------------------4-------------|
pm           .....                       ..          ..

e-------------------------------|----------------------------------|
B-------------------------------|----------------------------------|
G---------------------------4---|---x---4h6--------4---6-----------|
D-6-------------6----4-6----4---|---x---4h6--------4---6-----------|
A-6-------------6----4-6--------|----------------------------------|
E-4----------x--4---------------|----------------------------------|
pm                   ....

e-------------------------------|----------------------------------|
B-------------------------------|----------------------------------|
G-9--9--9--9--9--9--9--9--9--9--|-9--9--9--9--9--9-----------------|
D-9--9--9--9--9--9--9--9--9--9--|-9--9--9--9--9--9-----------------|
A-7--7--7--7--7--7--7--7--7--7--|-7--7--7--7--7--7-----------------|
E-------------------------------|----------------------------------|

chorus:


For the Outro ..both guitars play a separate note each .
but I have tabbed it for one guitar...it gets harder at the end!!

Outro...
e-9-----9------9------9---------|-----------------------------------|
B----12-----------12------14----|------------14--12-----------------|
G-14-13-14--11-14-13--14--11----|------14/11-14--13--14/11-13/9-----|
D-----------11------------------|-14/11------------------------14/11|
A-------------------------------|-----------------------------------|
E-------------------------------|-----------------------------------|
                                                  ~~
e-10-9---10-----10--9---10------|--------------------------9-----9-|
B-12-10--12-11--12--10--12/15---|-15------12-15--14-12--10----12---|
G-----------12-------------11---|-11---12-12-16--14-12--11-14-13-14|
D-------------------------------|---12-12--------------------------|
A-------------------------------|---12-----------------------------|
E-------------------------------|----------------------------------|

e----9-------9------------------|----------------------------------|
B--------12-----14--------------|14--12----------------------------|
G-11-14--13--14-11-------14/11--|14--13---14\11--13\9--------------|
D-11----------------14/11-------|----------------------14/11-------|
A-------------------------------|----------------------------------|
E-------------------------------|----------------------------------|
                                     ~~~
e-10-9---10-----10--9---10------|----------------------------------|
B-12-10--12-11--12--10--12/15---|-15-14----------------------------|
G-----------12-------------11---|-7--6-14--13----------------------|
D-------------------------------|------7---6-14-12-----------------|
A-------------------------------|------------7--5-14-12-11-12-14\9-|
E-------------------------------|-----------------7--5--4--5--7\-2-|

e-------------------------------|--------------------------|--2----|
B-------------------------------|--------------------------|--2----|
G-------------------------------|--------------------------|--2----|
D--------0-----0----------------|-------0------0-----------|--4----|
A----4-----4------4-------4-----|---4-------4-----4------4-|--4----|
E-2-------------------2---------|-2--------------------2---|--2----|

Guitar 2
e-------------------------------|--------------------------|-------|
B-------------------------------|--------------------------|-5fb---|
G-------------------------------|--------------------------|-------|
D-------------------------------|--------------------------|-------|
A-------------------------------|--------------------------|-------|
E-------------------------------|--------------------------|-------|

8.TRAIN OF CONSEQUENCES

Tuning: Eb

NOTE: For the intro riff, there is a specific way to
pick it.  I've included upstroke and downstroke notation,
which is: ^=downstroke V=upstroke.

Riff 1
eb|--------------------------------|
Bb|--------------------------------|
Gb|--------------------------------|
Db|-x-x--x----x-x-x--x--x--2p0-----|
Ab|-x-x--x----x-x-x--x--x------2p0-|
Eb|-x-x--x----x-x-x--x--x----------|
    ^ V  V    V ^ V  V  V
eb|-----------------------------------|
Bb|-----------------------------------|
Gb|-----------------------------------|
Db|-x-x--x----x-x-x--x--x-x-x-x-x-x-x-|
Ab|-x-x--x----x-x-x--x--x-x-x-x-x-x-x-|
Eb|-x-x--x----x-x-x--x--x-x-x-x-x-x-x-|
    ^ V  V    V ^ V  V  V ^ V ^ V ^ V
eb|--------------------------------|
Bb|--------------------------------|
Gb|--------------------------------|
Db|-x-x--x----x-x-x--x--x--2p0-----|
Ab|-x-x--x----x-x-x--x--x------2p0-|
Eb|-x-x--x----x-x-x--x--x----------|
    ^ V  V    V ^ V  V  V
eb|---------------------------|
Bb|---------------------------|
Gb|---------------------------|
Db|-x-x--x----x-x-x--x--x-----|
Ab|-x-x--x----x-x-x--x--x--8\-|
Eb|-x-x--x----x-x-x--x--x--6\-|
    ^ V  V    V ^ V  V  V


Riff 2
eb|--------------------------------------|
Bb|--------------------------------------|
Gb|--------------------------------------|
Db|-----4---------------4----------------|
Ab|---4---------------4------------------|
Eb|-2------2-3-2-0--2------2~--2-2-3-2-0-|
             * * *             * * * *
        "...in for the kill..."
eb|--------------------------------------|
Bb|--------------------------------------|
Gb|-----6-------------4----------2-------|
Db|---6---------------4----------2-------|
Ab|-4------4-5-4-0-2----5-4-2-0----5-4-0-|
Eb|--------------------------------------|
             * * *      * * *      * *
         "...oh you know I will..."


Riff 3
eb|------------------------------|
Bb|------------------------------|
Gb|-----9-7~----9------9-7~----9-|
Db|---6-------6------7-------7---|
Ab|-7--------------5-------------|
Eb|------------------------------|
    "Send the ball..."
eb|---------------------------------|
Bb|---------------------------------|
Gb|---------------------------------|
Db|-------------------------------7-|
Ab|---7-10------9-12----7-10----4---|
Eb|-8-------/10-------8-------5-----|
    "...train of consequences..."


Play Riff 1  "No horse..."
Play Riff 2  "...hocked my brains..."
Play Riff 3  "Send the roll..."


Riff 4 (Solo Rhythm)
eb|-------------------------|
Bb|-------------------------|
Gb|-------------------------|
Db|-------------------------|
Ab|-5h7-7-7-8p7p5-7-----5-7-|
Eb|-----------------7~------|
        * *
eb|---------------------------------|
Bb|---------------------------------|
Gb|---------------------------------|
Db|----------------7--7-7-7-7-6-5---|
Ab|-3h5-------3h5/----------------7-|
Eb|-----0h3h5-----------------------|

eb|-----------------------|
Bb|-----------------------|
Gb|-----------------------|
Db|-2-----------2-------2-|
Ab|-3-x-x-3p0---0--2--5-0-|
Eb|-----------3----0--3---|

eb|-----------------------|
Bb|-----------------------|
Gb|-----------------------|
Db|-2-----------2-------7-|
Ab|-3-x-x-3p0---0-----4---|
Eb|-----------3----5~-----|

Solo (Friedman)
eb|------------------------------12-----------------|
Bb|-12tr15--------15b17--(17)~~-----15-12-15b17~~~~-|
Gb|-------------------------------------------------|
Db|-------------------------------------------------|
Ab|-------------------------------------------------|
Eb|-------------------------------------------------|

eb|-12-----------------------------------------------|
Bb|----14p12-----------------------------------------|
Gb|----------14b16r14p12-14~~~---14-12---------------|
Db|------------------------------------14-12-12h14~~-|
Ab|--------------------------------------------------|
Eb|--------------------------------------------------|

eb|--------------------------------------|
Bb|--------------------------------------|
Gb|--------------------------------------|
Db|-12\10--------------------------------|
Ab|-------12p10h12p10-12h13p12p10--------|
Eb|-------------------------------12~~~\-|

eb|-0--0--0--0-0-0--0-0-0--0-0-0--0-0--0--10-----10----|
Bb|-0--0--5--5-5-3--3-3-5--5-5/8--8-8/10-----10-----10-|
Gb|----------------------------------------------------|
Db|----------------------------------------------------|
Ab|----------------------------------------------------|
Eb|----------------------------------------------------|

eb|-10-10/12--10-----------------|
Bb|--------------12-11-10--------|
Gb|-----------------------12~~\--|
Db|------------------------------|
Ab|------------------------------|
Eb|------------------------------|

eb|--------------------------------------------|
Bb|--------------------------------------------|
Gb|-/12-14-15-16-15-14-12-14-15-16-15-14-12----|
Db|-----------------------------------------14-|
Ab|--------------------------------------------|
Eb|--------------------------------------------|

eb|-----------------------------------------------|
Bb|------------------------------------12-15------|
Gb|-14b16r14p12----14-12~~----12-14b16------14b16-|
Db|-------------14--------------------------------|
Ab|-----------------------------------------------|
Eb|-----------------------------------------------|

eb|----12--------------------12-----------------|
Bb|-12---------12-15------12---------12-15------|
Gb|------14b16------14b16------14b16------14b16-|
Db|---------------------------------------------|
Ab|---------------------------------------------|
Eb|---------------------------------------------|

eb|-------12----------------12-------------15b17~~~-|
Bb|-12h15----15p12----12h15----15p12----12----------|
Gb|----------------14----------------14-------------|
Db|-------------------------------------------------|
Ab|-------------------------------------------------|
Eb|-------------------------------------------------|

eb|-15-14-15~~-15~~~~\------------------14-15-17p15-|
Bb|----------------------------------17-------------|
Gb|-------------------------------16----------------|
Db|-------------------------16-17-------------------|
Ab|----------------------19-------------------------|
Eb|-------------------------------------------------|

eb|-14-15-17-19p17-15-17-19-20-22-22b24~~-|
Bb|---------------------------------------|
Gb|---------------------------------------|
Db|---------------------------------------|
Ab|---------------------------------------|
Eb|---------------------------------------|

End Solo


Play Riff 3  "Send the ball..."
Play Riff 1

9.SWEATING BULLETS

Tunning E A D G B E


Intro:
E[---------------------------------------------------------------------]
B[------------------------------7-4-----------------------------7-4----]
G[------4-7-6-4-3-3h4-----4-7-6---------4-7-6-4-3-3h4-----4-7-6-----0--]
D[--5-7---------------5-7-----------5-7---------------5-7-----------5--]
A[---------------------------------------------------------------------]
E[---------------------------------------------------------------------]

 (verse) 8x
E[---------][         ]
B[---------][         ]
G[---------][ pick    ]
D[------9--][   slide ]
A[--8-7-7--][         ]
E[--6-5-0--][         ]

Chorus:  (1st guitar)
E[---------------------------------------------------------------]
B[---------------------------------------------------------------]
G[---------------------------------------------------------------]
D[---------------------------------------------------------------]
A[--2-5-7-5-5/8-7-------2-5-7-5-5/8-7-------2-5-7-5-5/8-7--------]
E[--0-3-5-3-3/6-5-0-6-5-0-3-5-3-3/6-5-3-2-1-0-3-5-3-3/6-5-0-6-5--]
pm  . . . .       . . . . . . .       . . . . . . .       . . .

   1st time                2nd time                  (2nd guitar)
E[-------------------][---------------------][--12--11--10--9---8---7---6-----]
B[-------------------][---------------------][--14b-13b-12b-11b-10b-9b--8b----]
G[-------------------][---------------------][-----------------------------0--]
D[-------------------][---------------------][-----------------------------5--]
A[--2-5-7-5-7-5-4-2--][--2-5-7-5-8-7-5-3-2--][--------------------------------]
E[--0-3-5-3-5-3-2-0--][--0-3-5-3-6-5-3-1-0--][--------------------------------]
pm  . . . .              . . . .

"Sweating bullets!"    Bridge 2x
E[-----------] [-------------------------------------]
B[------9-7--] [-------------------------------------]
G[--9-9-9-7--] [-------------------------------------]
D[--9-9-7-5--] [--------------------------------3-2--]
A[--7-7------] [--3-3-3-3-3-3-2-3-3-3-2-3-3-3-2-1-0--]
E[--0-0------] [--1-1-1-1-1-1-0-1-1-1-0-1-1-1-0------]
pm                . . . . . .   . . .   . . .

 part2
E[-----------------------------------------]
B[-----------------------------------------]
G[-----------------------------------------]
D[----------------------------------3-2----]
A[--------------6-------1-1-1-1-1-1-1-0-3--]
E[--4-4-4-4-4-4-4-6-6-6-----------------1--]
pm  . . . . . .   . . . . . . . . .

                       4x            after 4th time
E[         ][        ][-------------]---------]
B[         ][        ][-------------]---------]
G[  Bridge ][  part  ][-------------]---------]
D[   3x    ][    2   ][-10----------]---------]
A[         ][        ][-8--10-9-3-2-]-3let--4-]
E[         ][        ][----8--7-1-0-]-1ring-2-]


E[-------------------------------------------------------------------]
B[-------------------------------------------------------------------]
G[-------------------------------------------------------------------]
D[-------------------------------------------------------------------]
A[--5-------4-------3-------2-------1-------0------------------------]
E[----0-2-3---0-2-3---0-2-3---0-2-3---0-2-3---0-2-3-4-3-2-1-0-1-2-4--]
pm    . . .   . . .   . . .   . . .   . . .   . . . . . . . . . . .

             16th notes
E[          ]-------------------------------------------][-----------]
B[          ]-------------------------------------------][-----------]
G[  Chorus  ]-------------------------------------------][-----------]
D[          ]-------------------------------------------][-----------]
A[          ]------------0----------1-----0-------------][-8-7-5-3-2-]
E[          ]-0-----3---------3-----------------3-----0-][-6-5-3-1-0-]


End:
E[---------]
B[---------]
G[---------]
D[------9--]
A[--8-7-7--]
E[--6-5-0--]

10.SYMPHONY OF DESTRUCTION

Tunning E A D G B E

 intro/verse
|----------|----------|----------|
|----------|----------|----------|
|----------|----------|----------|  very simple
|-3--2--2--|-3--2--2--|----------|
|-3--2--2--|-3--2--2--|----------|
|-1--0--0--|-1--0--0--|-1--3--1--|
  x  x  x    x  x  x    .  .  .

prechorus
guitar 1
|------|--------------------------------------------------------------|
|------|--------------------------------------------------------------|
|------|------------------------------4h5p4-------------4h5p4---------|
|------|-7---6---5--5h7p5--7---6---5----------7---6---5---------------|
|------|-7---6---5---------7---6---5----------7---6---5---------------|
|-0--0-|---0---0-------------0---0--------------0---0-----------------|
  .  .   x . x . x         x . x . x          x . x . x
|------------------------------------------------------------------------|
|-------------5h6p5---------------5h6p5--------------5h6p5---------------|
|------------------------------------------------------------------------|
|-7---6---5-----------7---6---5----------7---6---5---------7---6---5-----|
|-7---6---5-----------7---6---5----------7---6---5---------7---6---5-----|
|---0---0---------------0---0--------------0---0-------------0---0-------|
  x . x . x           x . x . x          x . x . x         x . x . x

prechorus
guitar 2
|------|--------------------------------------------------------------|
|------|--------------------------------------------------------------|
|------|--------------------------------------------------------------|
|------|-7---6---5--5h7p5--7---6---5---5h7p5--7---6---5-5h7p5---------|
|------|-7---6---5---------7---6---5----------7---6---5---------------|
|-0--0-|---0---0-------------0---0--------------0---0-----------------|
  .  .   x . x . x         x . x . x          x . x . x
|------------------------------------------------------------------------|
|------------------------------------------------------------------------|
|------------------------------------------------------------------------|
|-7---6---5---5h7p5---7---6---5---5h7p5--7---6---5---5h7p5-7---6---5-----|
|-7---6---5-----------7---6---5----------7---6---5---------7---6---5-----|
|---0---0---------------0---0--------------0---0-------------0---0-------|
  x . x . x           x . x . x          x . x . x         x . x . x


both guitars
|-------------------------|
|-------------------------|
|-------------------------|
|-------------------------|
|--------5~---------------|
|-0--0-------6-5-4-3-2-1--|
  .  .       . . . . . .

chorus

|-----------------------------------|------------------------------|
|-----------------------------------|------------------------------|
|-----------------------------------|------------------------------|
|----9-----8--------7-----6---------|----5---4-----0----5--4-------|
|-------7-----7--------5-----5------|----3---3-------0-------5-----|
|-0--------------0--------------7\0-|-0----------0--------------7--|

guitar 2 plays the prechorus
(without all the hammerons/pulloffs)
during the solo

11.HANGER 18

Standard Tuning:
Intro Riff A
  Dm                                 Bb
e|--1-1-1-1-1-1-1-1-1-1-1-1-1-1-1-1-|-1-1-1-1-1-1-1-1-1-1-1-1-1-1-1-1----------|
B|--3-3-3-3-3-3-3-3-3-3-3-3-3-3-3-3-|-3-3-3-3-3-3-3-3-3-3-3-3-3-3-3-3----------|
G|�-2-2-2-2-2-2-2-2-2-2-2-2-2-2-2-2-|-3-3-3-3-3-3-3-3-3-3-3-3-3-3-3-3---|
D|�---------------------------------|-----------------------------------|
A|----------------------------------|------------------------------------------|
E|----------------------------------|------------------------------------------|

  B�                                 C
e|-1-1-1-1-1-1-1-1-1-1-1-1-1-1-1-1-|-5-5-5-5-5-5-5-5-5-5-5-5-5-5-5-5-|
B|-3-3-3-3-3-3-3-3-3-3-3-3-3-3-3-3-|-3-3-3-3-3-3-3-3-3-3-3-3-3-3-3-3-|
G|-4-4-4-4-4-4-4-4-4-4-4-4-4-4-4-4-|-5-5-5-5-5-5-5-5-5-5-5-5-5-5-5-5-|
D|---------------------------------|---------------------------------|
A|---------------------------------|---------------------------------|
E|---------------------------------|---------------------------------|

  Dm                                 Bb
e|-5-5-5-5-5-5-5-5-5-5-5-5-5-5-5-5-|-6-6-6-6-6-6-6-6-6-6-6-6-6-6-6-6-|
B|-6-6-6-6-6-6-6-6-6-6-6-6-6-6-6-6-|-6-6-6-6-6-6-6-6-6-6-6-6-6-6-6-6-|
G|-7-7-7-7-7-7-7-7-7-7-7-7-7-7-7-7-|-7-7-7-7-7-7-7-7-7-7-7-7-7-7-7-7-|
D|---------------------------------|---------------------------------|
A|---------------------------------|---------------------------------|
E|---------------------------------|---------------------------------|

  B�                                 C
e|-7-7-7-7-7-7-7-7-7-7-7-7-7-7-7-7-|-8-8-8-8-8-8-8-8-8-8-8-8-8-8-8-8----|
B|-6-6-6-6-6-6-6-6-6-6-6-6-6-6-6-6-|-8-8-8-8-8-8-8-8-8-8-8-8-8-8-8-8----|
G|-7-7-7-7-7-7-7-7-7-7-7-7-7-7-7-7-|-9-9-9-9-9-9-9-9-9-9-9-9-9-9-9-9----|
D|---------------------------------|------------------------------------|
A|---------------------------------|------------------------------------|
E|---------------------------------|------------------------------------|
Intro Riff B
               Let Ring - - - - - ]              Let Ring - - - - - ]
e|-------1------5-------------------|------1------6----------------------------|
B|-----3----------6-----------------|----3----------6--------------------------|
G|�--2-----2/5------7---------------|--3-----3/7------7-----------------|
D|�-------------------0-------------|-------------------0---------------|
A|----------------------------------|------------------------------------------|
E|----------------------------------|------------------------------------------|
               Let Ring - - - - - ]              Let Ring - - - - - ]
e|------1------7-------------------|------5------8----------------------|
B|----3----------6-----------------|----3----------8--------------------|
G|--4-----4/7------7---------------|--5-----5/9------9------------------|
D|-------------------0-------------|-------------------0----------------|
A|---------------------------------|------------------------------------|
E|---------------------------------|------------------------------------|
    Play Twice, then do little harmony fill (1):
e|---------------------------------------------------|
B|---10-8--------------------------------------------|
G|�-------10-9-7--------------------�---||  Marty (Higher Voice)
D|�--------------10-9-7-------------�---|
A|---------------------------------------------------|
E|---------------------------------------------------|
 |                                   |
e|---------------------------------------------------|
B|---------------------------------------------------|
G|�--10-9-7-------------------------�---|
D|�---------10-8-7------------------�---||   Dave (Lower Voice)
A|----------------10-8-------------------------------|
E|---------------------------------------------------|

Then comes the verse, which also consists of harmonies. Remember to use
a VERY wide vibrato when playing these parts:
e|-------------------|------------------|------------------|---------------------------|
B|-------------------|------------------|------------------|---------------------------|
G|�-7-----/10~~~-----|-7-----/10~~~-----|-7-----/10~~~-----|-9-----/12~~~-------|
D|�---0-0--------0-0-|---0-0--------0-0-|---0-0--------0-0-|---0-0--------0-0---|
A|-------------------|------------------|------------------|---------------------------|
E|-------------------|------------------|------------------|---------------------------|
 |                                                                             |x4
e|-------------------|------------------|------------------|---------------------------|
B|-------------------|------------------|------------------|---------------------------|
G|�-2-----/ 7~~~-----|-3-----/ 7~~~-----|-4-----/ 7~~~-----|-5-----/ 7~~~-------|
D|�---0-0--------0-0-|---0-0--------0-0-|---0-0--------0-0-|---0-0--------0-0---|
A|-------------------|------------------|------------------|---------------------------|
E|-------------------|------------------|------------------|---------------------------|

Chorus:
e|-------------------|------------------|------------------|---------------------------|
B|-------------------|------------------|------------------|---------------------------|
G|�-10\-----2~~~~----|-10\-----7~~~~----|-10\-----7~~~~----|-10--9----9~~~------|
D|�--------------0-0-|--------------0-0-|--------------0-0-|--------------0-0---|
A|-------------------|------------------|------------------|---------------------------|
E|-------------------|------------------|------------------|---------------------------|
 |                                                                             |
e|-------------------|------------------|------------------|---------------------------|
B|-------------------|------------------|------------------|---------------------------|
G|�--7\-----2~~~~----|--7\-----3~~~~----|--7\-----4~~~~----|--7--5----5~~~------|
D|�--------------0-0-|--------------0-0-|--------------0-0-|--------------------|
A|-------------------|------------------|------------------|---------------------------|
E|-------------------|------------------|------------------|---------------------------|

Ok, here is the first of the many solos.  Marty plays the lead (top), while Dave plays the
rhythm (bottom)-A little note about how Marty plays the first part of this solo- He bends the
string up to an e note (17th fret on the b string), then he hammers onto the 16th fret while
still holding the e note.  Then, gradually release the bend while still fretting the 16th fret.
After the first four measures, Marty ends the solo and plays a harmony
consisting of all octaves.  Then, he goes back into another solo, plays the harmony
part again, and then they both go into a fast harmony fill.
Solo 1 (With Riff A):
e|-------------------|------------------|---15-17-20-17h20p17------------------|
B|--(17)~~~~15b17-h16|---r--------------|-13-----------------20-x-22~----------|
G|�------------------|-----14-17~~~~-14-|-------------------------------|
D|�------------------|------------------|-------------------------------|
A|-------------------|------------------|--------------------------------------|
E|-------------------|------------------|--------------------------------------|
 |                                                                    |
e|-------------------|------------------|--------------------------------------|
B|-------------------|------------------|--------------------------------------|
G|�------------------|------------------|-------------------------------|
D|�---.-7---.-7---7--|---.-8---.-8---8--|-----.---9-----.---9------9----|
A|--.-5---.-5---.----|-.-5---.-5---.----|-.---5-----.---5-----.----------------|
E|--5-----5-----5----|-6-----6-----6----|-7---------7---------7----------------|

e|--------------------------------------|
B|-20b22r18-18b20--r18------------------|
G|-----------------------19~~~�---|
D|----------------------------�---|
A|--------------------------------------|
E|--------------------------------------|
 |                             |
e|--------------------------------------|
B|--------------------------------------|
G|----------------------------�---|
D|----.--8-----.--8------8----�---|
A|-.--5-----.--5------.-----------------|
E|-6--------6---------6-----------------|

 Octave Riff:
e|--------------------|-------------------|-------------------|-------------------------|
B|--------------------|-------------------|-------------------|-------------------------|
G|�------12-----12--12|------14-----14--14|------12-----12--12|----10---10--10---|
D|�--.--.---.--.---.--|--.--.---.--.---.--|--.--.---.--.---.--|-.-.--.-.--.------|
A|--10-10--10-10--10--|-12-12--12-12--12--|-10-10--10-10--10--|-8-8--8-8--8-------------|
E|--------------------|-------------------|-------------------|-------------------------|
 |                                                                              |
e|-------------------|-------------------|-------------------|--------------------------|
B|-------------------|-------------------|-------------------|--------------------------|
G|�------------------|-------------------|-------------------|-------------------|
D|�----.-7----.-7---7|-----.-8----.-8---8|-----.-9----.-9---9|---.-8---.-8---8---|
A|--.--5---.--5---.--|--.--5---.--5---.--|--.--5---.--5---.--|-.-5---.-5--.-------------|
E|--5------5------5--|--6------6------6--|--7------7------7--|-6-----6----6-------------|

2nd Solo: This solo is sweep-picked, a very hard technique to learn.  If you want more
info on how to do this, email me, and I'll be glad to help you.  Play the same rhythm
part as before.
e|--17p13----------13-17p13-17p13-17p13--13-----------|
B|-------15------15--------------------15-------------|
G|�--------14--14------------------------------|
D|�----------15--------------------------------|
A|----------------------------------------------------|
E|----------------------------------------------------|

e|-18p13----------13-18p13-15p12-13-12------|
B|------15------15--------------------15-13-|
G|--------15--15----------------------------|
D|----------15------------------------------|
A|------------------------------------------|
E|------------------------------------------|

e|-17p13--16p13--16-16~~~-x-20b22-|-------20p17-22b25~~~---|
B|------15-----15---------x-------|------------------------|
G|--------------------------------|------------------------|
D|--------------------------------|------------------------|
A|--------------------------------|------------------------|
E|--------------------------------|------------------------|

Repeat the Harmony Riff
Then comes the fast harmony part:
e|-----------------------------------------------------------|
B|--10--8-------8--------------------------------------------|
G|�-------10--9---10--9--7--10--9--7----9--7----------|
D|�----------------------------------10------10--8----| Marty
A|-----------------------------------------------------------|
E|-----------------------------------------------------------|
 |                                                   |
e|-----------------------------------------------------------|
B|-----------------------------------------------------------|
G|�-10--9--7----9--7--------7-------------------------|
D|�----------10------10--8-----10--8--7-10--8-7-------| Dave
A|---------------------------------------------10------------|
E|-----------------------------------------------------------|

Ok, now go back to the verse, play it 4 times, play the chorus, and you're
off to some more solos.  Like like time, use the same rhythm part...
Solo 3:
e|--------------------|-----------------------------|
B|------------x15--17-|-18r17--18--r17--15----------|
G|�-(19)~~~~--x-------|----------------------|
D|�-------------------|----------------------|
A|--------------------|-----------------------------|
E|--------------------|-----------------------------|

e|---------------------------------|---------------------|
B|-18b20-------18p15-15h18p15------|---------------------|
G|---------------------------17b19-|--(17)~~~~~(17)\-----|
D|---------------------------------|---------------------|
A|---------------------------------|---------------------|
E|---------------------------------|---------------------|

Repeat Harmony Riff- Bend the B string, 20th fret up a whole step on last
note...
Solo 4                     Rake
e|--------------------17-|---18~~~~-------------17----------|
B|--(22)~~~~~18-17-------|--x-----------17-18-20------------|
G|�---------------19-----|-x-------17-19-------------|
D|�-----------------19---|---------------------------|
A|-----------------------|----------------------------------|
E|-----------------------|----------------------------------|
               Sweep- - - ]      *Hold bend - - -]
e|-19-16-----------------16-20b22---------------|-r(20)-20b22-20-20b22~~~---|
B|------18-15------15--18-----------------------|---------------------------|
G|-----------16--16--19-------------------------|---------------------------|
D|-------------18-------------------------------|---------------------------|
A|----------------------------------------------|---------------------------|
E|----------------------------------------------|---------------------------|

Solo 5:                              *tap w/edge of pick
e|------------------------9-13p9----|---12~~~~~~~--------------------------------|
B|-------------------9h12--------12-|------------------*-------------------------|
G|�---------------10----------------|-19p7~~~~~~~(7)\5-17p5~~~~~------4---|
D|�----------9h11-------------------|-------------------------------------|
A|--------11------------------------|--------------------------------------------|
E|---9h13---------------------------|--------------------------------------------|
 |Riff A Fill                        Riff B                                 |
e|---------------------------------|-----------------------------------|
B|---------------------------------|-----------------------------------|
G|---------------------------------|--7--------------------------------|
D|-----.--11-----.--11------11-----|------------------------.--8---.---|
A|--.--8------.--8------.----------|----5--5--5---5--8--5---5--6---5---|
E|--9---------9---------9----------|-----------------------------------|
                                      *Play 6 more times, then Fill A
e|--7/10\7-------------------------|-14/17\14-11-----------------------|
B|---------7-------10p7h8-7------10|-------------13~~----15h20p16------|
G|-----------7\5/7----------8-7~~--|-----------------------------17----|
D|---------------------------------|------------------11-----------19~~|
A|---------------------------------|-----------------------------------|
E|---------------------------------|-----------------------------------|

e|-----------11-15-14--11---------------|
B|---------13--------13--15--13-13b15~~-|
G|-------12----------------14-----------|
D|-/12-13-------------------------------|
A|--------------------------------------|
E|--------------------------------------|

e|-/17-14-14-14-15-11-11-14-10-10-10-11-8-8-10-6-|
B|-----------------------------------------------|
G|-----------------------------------------------|
D|-----------------------------------------------|
A|-----------------------------------------------|
E|-----------------------------------------------|

e|-6-6-8-6-5-6-5h6p5--5--------------------------|
B|------------------8--8-10r8--8b10~~------------|
G|-----------------------------------------------|
D|-----------------------------------------------|
A|-----------------------------------------------|
E|-----------------------------------------------|

e|-----------------------------------------------|
B|-7h8h10p8p7--7h8p7~~--10h11h13p11p10--10h11p10~|
G|-----------8------------------------10---------|
D|-----------------------------------------------|
A|-----------------------------------------------|
E|-----------------------------------------------|

e|-----------------------------------14-15-17-18b20~~~---|
B|-13h15h16p15p13--15p13--13-13-15-16--------------------|
G|---------------15-----15-------------------------------|
D|-------------------------------------------------------|
A|-------------------------------------------------------|
E|-------------------------------------------------------|

Fill A (See 6 bars up)
e|-----------------------------------------|
B|-----------------------------------------|
G|�-7-------------------------------|
D|�--------------8-7-----9-7--------|
A|----5--5--5--5-----8-5-----8-5-----------|
E|-----------------------------------------|

"Never-Ending" Riff
e|-----------------------------------|--------------------------------------------|
B|-----------------------------------|--------------------------------------------|
G|�----------------------------------|-------------------------------------|
D|�-------4-----------------------5--|-------4-----------------------------|
A|-------------------.--------.-.----|------------------.--------3-2--------------|
E|--0-1-2-----2----2-5-2----2-3-3----|-0-1-2-----2----2-5-2----2-----5-2----------|

e|----------------------------------|--------------------------------------|
B|----------------------------------|--------------------------------------|
G|----------------------------------|------------------5-4-----6-5---------|
D|-------4-----------------------5--|-------4--------------7-4-----8-5-----|
A|------------------.--------.-.----|--------------------------------------|
E|-0-1-2-----2----2-5-2----2-3-3----|-0-1-2-----2----2---------------------|

Solo 6 (With Riff B):                                     *Tap w/pick
e|---------------------------------------14-15p14-10--------------------------------|
B|---------10-13-10-13/15-13-15-10-13-15-------------13p10-22p13p10-13p10\7---------|
G|�---11-12------------------------------------------------------------------|
D|�-12-----------------------------------------------------------------------|
A|----------------------------------------------------------------------------------|
E|----------------------------------------------------------------------------------|

e|--------------------------------------/15-11----------------------------|
B|-8-7h8p7\3b4--------7-10-9-10-7-8-7----------13------------13-16-----13-|
G|---------------5-7/8---------------8-7----------14-11/13-14-----13-14---|
D|------------------------------------------------------------------------|
A|------------------------------------------------------------------------|
E|------------------------------------------------------------------------|
                                W/Bar
e|-------------------17---------------------------------------------------|
B|-16-----13-16-15/16--16\5-13------10-10\13-13-13-13\12-12-12-12/20-20-20|
G|---13-14---------------------16~\_--------------------------------------|
D|------------------------------------------------------------------------|
A|------------------------------------------------------------------------|
E|------------------------------------------------------------------------|

e|------------------------------------------------------------------------|
B|-20\19-19-19-19\13-13-13-13h15p13-10h13-15-12h13p12-10-12-13-12-10h12p10|
G|------------------------------------------------------------------------|
D|------------------------------------------------------------------------|
A|------------------------------------------------------------------------|
E|------------------------------------------------------------------------|

e|----------------------7-8-10-12p10-8-10p8-7-10p8-7--7-8-7---------10----|
B|-8-12-10-8h10p8-8-7-10----------------------------10-----10-8-7p10--10p7|
G|------------------------------------------------------------------------|
D|------------------------------------------------------------------------|
A|------------------------------------------------------------------------|
E|------------------------------------------------------------------------|

e|-----------------------------------------------|
B|---7---7---------------------------------------|
G|-9---9---9b11--r-7~~~----------------�---|
D|-------------------------------------�---|
A|-----------------------------------------------|
E|-----------------------------------------------|

Riff C:
e|-------------------------------------------------------|
B|-------------------------------------------------------|
G|�-------------------------------------�---|
D|�-------------------------------------�---|
A|--.-.-.-.-.-.-.-.-4/5--4/5--4/5------------------------|
E|--3-2-0-2-3-2-0-2-2/3--2/3--2/3------------------------|

Solo 7 (With "Never-Ending Riff"):
e|--17171717171614-17171717171614-17171717171614-171717171614-171717171614---------|
B|---------------------------------------------------------------------------------|
G|�-------------------------------------------------------------------------|
D|�-------------------------------------------------------------------------|
A|---------------------------------------------------------------------------------|
E|---------------------------------------------------------------------------------|

e|-----------------------------------------------------------------------|
B|-171717171614--------17---------------------------------------------16-|
G|-------------16161616--14-------14--14----16----14----16--1414h16/17---|
D|-------------------------1616x14--14--1616--1616--1616--16-------------|
A|-----------------------------------------------------------------------|
E|-----------------------------------------------------------------------|

e|------------------------------x--14-17p14-14-17-14-19p17p14-14-14-14---|
B|------1716141719p17p1414141417x----------------------------------------|
G|-17h18------------------------x----------------------------------------|
D|-----------------------------------------------------------------------|
A|-----------------------------------------------------------------------|
E|-----------------------------------------------------------------------|

e|-19b20--r(19)p17p14-19b21~~~~~~~~~~~-----------|
B|-----------------------------------------------|
G|-------------------------------------�---|
D|-------------------------------------�---|
A|-----------------------------------------------|
E|-----------------------------------------------|

Solo 8:
e|--------------------------------22b24r--(22)-21p20--21~~~~~----------------------|
B|--21b22r--(22)------------------------------------20-----------------------------|
G|�-------------18-21b23~~~~-21-18----------------------------18p14---------|
D|�----------------------------------------------------------------18-14----|
A|---------------------------------------------------------------------------------|
E|---------------------------------------------------------------------------------|

e|-14-15------------------------------------------------------------------|
B|------15---------------------------------14-17p14--17p14--------14-17p14|
G|--------17-14--14-17-14h17p14h17p14\_/-17--------17-----17-14-17--------|
D|-------------18---------------------------------------------------------|
A|------------------------------------------------------------------------|
E|------------------------------------------------------------------------|
             Rake
e|-------------------------------|
B|---17p14-----17b19-------------|
G|-17-----17-14--------�---|
D|---------------------�---|
A|-------------------------------|
E|-------------------------------|

Solo 9:
e|--21p17p14h17p14--------------------------------------------------------------------|
B|----------------x21p17p14-17p14-14-21p17p14-17p14-----------------------------------|
G|�------------------------------------------------14-17-14-14h21p17p14-17-14--|
D|�----------------------------------------------------------------------------|
A|------------------------------------------------------------------------------------|
E|------------------------------------------------------------------------------------|

e|------------------------------------------------------------------------|
B|------------------------------------------------------------------------|
G|-16-16-14-14-13-13-14-14-16---------------------------------------------|
D|------------------------------14h18p14----------------------------------|
A|---------------------------0-0--------21-17p14h17p14-14-----------------|
E|--------------------------------------------------------14h17h21p17h21--|

e|---------------------------------------------------------14h21p14\----------|
B|-------------------------------------------14h21p14h17h21--------\----------|
G|-----------------------------14h21p14h17h21---------------------------------|
D|---------------14h21p14h17h21-----------------------------------------------|
A|-14h21p14h17h21-------------------------------------------------------------|
E|--------------------------------------------------------------------22b24---|

Solo 10:
e|---------------------10-9-------14p10-12--10-------------------------------------|
B|--9-12-10-9--10-9--------12-10-9--------14--13h14p10-14/15\14/15-----------------|
G|�----------11----11-9-----------------------------------------------------|
D|�-------------------------------------------------------------------------|
A|---------------------------------------------------------------------------------|
E|---------------------------------------------------------------------------------|

e|-12h14h18p14h18p14h18p14h18p14h18p14-------14------------14------------|
B|------------------------------------17b19~~--17p14-----14--14-17p14-19-|
G|--------------------------------------------------16b18----------------|
D|-----------------------------------------------------------------------|
A|-----------------------------------------------------------------------|
E|-----------------------------------------------------------------------|

e|------------------------14--------14------------------14------------------|
B|-14--------14-17-14-------14p17-14--14-----------14-17-----17---~~~-------|
G|---16b18r16--------16b18--------------16b18r16-14-------16-17b19~~~-------|
D|--------------------------------------------------------------------------|
A|--------------------------------------------------------------------------|
E|--------------------------------------------------------------------------|

Solo 11: Tremelo Pick all the notes
e|--5-4-2h4p2-2---------5-8-7-5h7p5-----------8-11-10-8h10p8-----------------------|
B|-------------5-4-2h5p2-----------7-9-7-5h7p5--------------11-11p10p8-------------|
G|�-------------------------------------------------------------------------|
D|�-------------------------------------------------------------------------|
A|---------------------------------------------------------------------------------|
E|---------------------------------------------------------------------------------|

e|-----11-14-13-11h13p11-----------11-14-17p16p14h16p14------------------|
B|-10p8-----------------14-13-11-14--------------------17-17p16p14-14-17-|
G|-----------------------------------------------------------------------|
D|-----------------------------------------------------------------------|
A|-----------------------------------------------------------------------|
E|-----------------------------------------------------------------------|

e|-17-17-20-20p17h19p17--------------------20-20-23-22-20h22p20----------|
B|---------------------21-21-19p17-17-19h21--------------------2323-2222-|
G|-----------------------------------------------------------------------|
D|-----------------------------------------------------------------------|
A|-----------------------------------------------------------------------|
E|-----------------------------------------------------------------------|
   Tremelo Pick
e|-6/7/9/11/13/15/16/18/19/20/22/23/24b26--24b26--24b26--24b26--24b26---|
B|----------------------------------------------------------------------|
G|----------------------------------------------------------------------|
D|----------------------------------------------------------------------|
A|----------------------------------------------------------------------|
E|----------------------------------------------------------------------|

e|-24b26-24b26-24b26-24b26-24b26-24b26-24b26-24b26-24b26----------(24)\----|
B|-------------------------------------------------------------------------|
G|-------------------------------------------------------------------------|
D|-------------------------------------------------------------------------|
A|-------------------------------------------------------------------------|
E|-------------------------------------------------------------------------|

End With Riff D:
e|----------------------------------------------------------------------|
B|----------------------------------------------------------------------|
G|----------------------------------------------------------------------|
D|----------------------------------------------------------------------|
A|-.-.-.-.-.-.-.-.-4/5-4/5-4/5-4-\--------------------------------------|
E|-3-2-0-2-3-2-0-2-2/3-2/3-2/3-2-\--------------------------------------|

12.HOLY WARS

Tuning: Standard

Riff 1 (slightly palm muted)
e|-----------------------------------|
B|-----------------------------------|
G|-----------------------------------|
D|-----------------------------------|
A|-5-6-7---------------------------2-|
E|--------5-6-7--7-6-5--5-4-3--5-5-0-|

e|-----------------------------------|
B|-----------------------------------|
G|-----------------------------------|
D|-----------------------------------|
A|-5-6-7---------------------------4-|
E|--------5-6-7--7-6-5--5-4-3--3-2-2-|

e|----------------------------|
B|----------------------------|
G|----------------------------|
D|----------------------------|
A|-5-6-7----------------------|
E|--------5-6-7--7-6-5--5-4-3-|

e|----------------------------|
B|----------------------------|
G|----------------------------|
D|-2-3-4----------------------|
A|--------3-4-5--5-4-3--4-3-2-|
E|----------------------------|

e|--------------------------------|
B|--------------------------------|
G|--------------------------------|
D|--------------------------------|
A|-5-6-7-----------------------05-|
E|--------5-6-7--7-6-5--5-4-3-----|
                               **

Riff 2
e|--------------------------------------------|
B|--------------------------------------------|
G|--------------------------------------------|
D|--------------------------------------------|
A|-5h7-----10p7----------5h7-----5h7------7-8-|
E|-----000------00000000-----000-----0000-5-6-|
       ***      ********     ***     ****
e|---------------------------------------------|
B|---------------------------------------------|
G|---------------------------------------------|
D|----------------------------------------10---|
A|-5h7-----10p7----------5h7-----5h7-------8-9-|
E|-----000------00000000-----000-----0000----7-|
       ***      ********     ***     ****
e|--------------------------------------------|
B|--------------------------------------------|
G|--------------------------------------------|
D|----------------------------------------4---|
A|-5h7-----10p7----------5h7-----5h7------2-5-|
E|-----000------00000000-----000-----0000---3-|
       ***      ********     ***     ****
e|------------------------------------------------|
B|------------------------------------------------|
G|------------------------------------------------|
D|---------------------------------------4------4-|
A|-5h7-----10p7--------9-------8-----7---2------2-|
E|-----000------000000-7--0000-6--00-5-0------0---|
       ***      ******    ****    **   *      *

e|----------|
B|----------|
G|----------|
D|-4--------|
A|-2--5--4--|
E|----3--2--|


Riff 3
e|--------------------------------------------|
B|--------------------------------------------|
G|--------------------------------------------|
D|--------------------------------------------|
A|-5h7-----10p7----------5h7-----5h7------7-8-|
E|-----000------00000000-----000-----0000-5-6-|
       ***      ********     ***     ****
e|---------------------------------------------|
B|---------------------------------------------|
G|---------------------------------------------|
D|----------------------------------------10---|
A|-5h7-----10p7----------5h7-----5h7-------8-9-|
E|-----000------00000000-----000-----0000----7-|
       ***      ********     ***     ****
e|--------------------------------------------|
B|--------------------------------------------|
G|--------------------------------------------|
D|----------------------------------------4---|
A|-5h7-----10p7----------5h7-----5h7------2-5-|
E|-----000------00000000-----000-----0000---3-|
       ***      ********     ***     ****

Riff 3a
Guitar 1                                  x4
e|-----------------------------------------|
B|-----------------------------------------|
G|-----------------------------------------|
D|-----------------------------------------|
A|-5h7-----10p7--------9~-------8~-----7---|
E|-----000------000000-----0000-----00---8-|
       ***      ******     ****     **

Guitar 2
e|-----------------------------------------|
B|-----------------------------------------|
G|-----------------------------------------|
D|-----------------------------------------|
A|-5h7-----10p7----------------------------|
E|-----000------000000-7~--0000-6~--00-5-0-|
       ***      ******     ****     **   *
e|-----------------------------------------|
B|-----------------------------------------|
G|-----------------------------------------|
D|-----------------------------------------|
A|-5h7-----10p7--------6~-------5~-----4---|
E|-----000------000000-----0000-----00---5-|
       ***      ******     ****     **
e|-----------------------------------------|
B|-----------------------------------------|
G|-----------------------------------------|
D|-----------------------------------------|
A|-5h7-----10p7--------9~-------8~-----7---|
E|-----000------000000-----0000-----00---8-|
       ***      ******     ****     **
e|--------------------------------------------|
B|--------------------------------------------|
G|--------------------------------------------|
D|--------------------------------------------|
A|-5h7-----10p7--------14~------13~----12-----|
E|-----000------000000-----0000-----00----13\-|
       ***      ******     ****     **


Riff 4
Guitar 1                                   x7
e|------------------------------------------|
B|------------------------------------------|
G|------------------------------------------|
D|------------------------------------------|
A|-5h7-----10p7----------5h7-----5h7------9-|
E|-----000------00000000-----000-----0000-7-|
       ***      ********     ***     ****
e|----------------------------------------|
B|----------------------------------------|
G|----------------------------------------|
D|----------------------------------------|
A|-5h7-----10p7----------5h7-----5h7------|
E|-----000------00000000-----000-----0000-|
       ***      ********     ***     ****

Guitar 2 (Mustaine)
e|----------------------------------------|
B|----------------------------------------|
G|----------------------------------------|
D|----12----------12----14------9---------|
A|-10----10----10----12-----7-6---9-5/7~--|
E|----------12----------------------------|

e|----------------------------------------|
B|----------------------------------------|
G|------------------------8------7--------|
D|----12----------12----------------------|
A|-10----10----10-----6-9----5-8----5/7~~-|
E|----------12----------------------------|


Riff 5
e|-------------------------------------|
B|-------------------------------------|
G|-------------------------------------|
D|-------------------------------------|
A|-5---4-5---4-----4-5-----5-4-----4-5-|
E|-3-0-2-3-0-2-0-0-2-3-0-0-3-2-0-0-2-3-|
     *     *   * *     * *     * *
e|----------------------------------------|
B|----------------------------------------|
G|----------------------------------------|
D|----------------------------------------|
A|-5h7-----10p7----------5h7-----5h7------|
E|-----000------00000000-----000-----0000-|
       ***      ********     ***     ****
e|-------------------------------------|
B|-------------------------------------|
G|-------------------------------------|
D|-------------------------------------|
A|-2---1-2---1-----1-2-----2-1-----1-2-|
E|-3-0-2-3-0-2-0-0-2-3-0-0-3-2-0-0-2-3-|
     *     *   * *     * *     * *
e|----------------------------------------|
B|----------------------------------------|
G|----------------------------------------|
D|----------------------------------------|
A|-5h7-----10p7----------5h7-----5h7------|
E|-----000------00000000-----000-----0000-|
       ***      ********     ***     ****
e|-------------------------------------|
B|-------------------------------------|
G|-------------------------------------|
D|-------------------------------------|
A|-5---4-5---4-----4-5-----5-4-----4-5-|
E|-3-0-2-3-0-2-0-0-2-3-0-0-3-2-0-0-2-3-|
     *     *   * *     * *     * *
e|----------------------------------------|
B|----------------------------------------|
G|----------------------------------------|
D|----------------------------------------|
A|-5h7-----10p7----------5h7-----5h7------|
E|-----000------00000000-----000-----0000-|
       ***      ********     ***     ****
e|-----------------------------------|
B|-----------------------------------|
G|-----------------------------------|
D|-----------------------------------|
A|-2---1-2---1-----1-2-----2-1-----1-|
E|-3-0-2-3-0-2-0-0-2-3-0-0-3-2-0-0-2-|
     *     *   * *     * *     * *

Riff 6
e|---------------------------------------|
B|---------------------------------------|
G|------------4---3----------------------|
D|------------5---4----------------------|
A|-5-6-7--------0---0--5-6-7------5--6-5-|
E|-------000-----------------0000-6--7-6-|
         ***    *   *        ****
  "Brother will kill brother..."
e|------------------------------------------|
B|------------------------------------------|
G|------------------------------------------|
D|-----------5---4--------------------------|
A|-5-6-7-----7---6----5-6-7-------------1-2-|
E|-------000---0---0---------0000-2~--0-2-3-|
         ***   *   *         ****     *
  "Spilling blood across the land..."
e|-------------------------------|
B|-------------------------------|
G|-------------------------------|
D|-------------------------------|
A|-4-----4----2-4-5-----5--4-2---|
E|-5-0-0-5--0-3-5-6-0-0-6--5-3-5-|
     * *      * *   * *      *
  "Killing for religion..."
e|------------------------------------|
B|------------------------------------|
G|------------------------------------|
D|------------------------------------|
A|----------5--4-2-------------8--7-5-|
E|-3p0-0000-6--5-3-5--3p0-0000-6--5-3-|
       ****               ****
  "Something I don't understand..."


Lead into next section:
e|-----------------------------------|
B|-----------------------------------|
G|-----------------------------------|
D|-----------------------------------|
A|-5-6-7---------------------------2-|
E|--------5-6-7--7-6-5--5-4-3--5-5-0-|
   "Holy Wars..."


Solo (Acoustic, Friedman)
e|---------------------11h12p11----11-|
B|------12----10-12-13----------13----|
G|-9h10-------------------------------|
D|------------------------------------|
A|------------------------------------|
E|------------------------------------|

e|-12----12-10----10-8----8-7---7-5---|
B|----13-------12------10-----9-----6-|
G|------------------------------------|
D|------------------------------------|
A|------------------------------------|
E|------------------------------------|

e|-5-4---4-5---5--7-7/10--7--5h6p5-----|
B|-----5-----6---------------------6---|
G|-----------------------------------7-|
D|-------------------------------------|
A|-------------------------------------|
E|-------------------------------------|

e|------------------------------------------0-|
B|-4-5---4-5-4------------------------------0-|
G|-----6-------7-6-5-4---5-4----------------x-|
D|---------------------7-----7-6-5-4-3-2----2-|
A|------------------------------------------2-|
E|------------------------------------------0-|

End solo


Riff 6a
e|--------------------------------|
B|--------------------------------|
G|--------------------------------|
D|--------------------------------|
A|-3-2---2-----3-2---2-----2-3-5~-|
E|-0-0-0-0-0-0-0-0-0-0-0-0-0-0-0--|
       *   * *     *   * * * *
  "Up on my podium..."

Riff 7
e|-----------------------------|
B|-----------------------------|
G|-----------------------------|
D|-----0h2---4-----5------(5)\-|
A|---------2-----3-3------(3)\-|
E|-0-0---------0---------------|
   * *
e|-----------------0--------0-------|
B|-------------------0--------0-----|
G|----------------------------------|
D|---0h2---4------------------------|
A|-------2-----2-1------1-0-----0-2-|
E|-0---------0-3-2------2-1-----1-0-|

e|-----------------------------|
B|-----------------------------|
G|-----------------------------|
D|-----0h2---4-----5------(5)\-|
A|-(2)-----2-----3-3------(3)\-|
E|-(0)---------0---------------|

e|-----------------0--------0-------|
B|-------------------0--------0-----|
G|----------------------------------|
D|---0h2---4------------------------|
A|-------2-----2-1------1-0-----0-2-|
E|-0---------0-3-2------2-1-----1-0-|

Riff 7a
e|----------------------------------|
B|----------------------------------|
G|----------------------------------|
D|-----0h2---4-----5--5-5-5-5-5-5-5-|
A|---------2-----3-3--3-3-3-3-3-3-3-|
E|-0-0---------0--------------------|
   * *                * * * * * * *
  "Wage the war..."
e|-------------------0--------0--------|
B|---------------------0--------0------|
G|-------------------------------------|
D|-----0h2---4-------------------------|
A|---------2-----2-1------1-0----------|
E|-0-0---------0-3-2------2-1-----0-/3-|
   * *
  "...on organized crime..."


Riff 8 (Solo Rhythm)
e|---------------------------------|
B|-----3-0-------------1-----------|
G|---------0---------3---3---------|
D|---0-------3-0---3-------3-------|
A|-2-------------1-------------3-4-|
E|---------------------------0-1-2-|
   * *     * * * * * *       * * *
                                  x2
e|---------------------------------|
B|-----3-0-------------1-----------|
G|---------0---------3---3---------|
D|-----------3-0---3-------3-------|
A|---2-----------1-------------3-4-|
E|-3-------------------------0-1-2-|
   * *     * * * * * *       * * *
e|------------------0--------0--------|
B|-----3-0------------0--------0------|
G|---------0--------------------------|
D|-----------3------------------------|
A|---2----------2-1------1-0------0-2-|
E|-3------------3-2------2-1------1-0-|
   * *     * *


Solo (Friedman)
e|----------------7-10p7-----------6-10p6-|
B|--------------8--------8-------8--------|
G|------------7------------7---7----------|
D|-------5-/9----------------9------------|
A|-----5----------------------------------|
E|-3h7------------------------------------|

e|---------------10-13p10----10-----13-18p13----13-|
B|-6----------11----------11----/15----------15----|
G|---7-----10--------------------------------------|
D|-----/12-----------------------------------------|
A|-------------------------------------------------|
E|-------------------------------------------------|

e|--19-19b20~~---15-----------------------20b22~~--20b22~~-|
B|------------------15-17b18r17b18r17-15-------------------|
G|---------------------------------------------------------|
D|---------------------------------------------------------|
A|---------------------------------------------------------|
E|---------------------------------------------------------|

e|---[24]25b27-[24]25b27-[24]25b27-[24]25~~-|
B|-x----------------------------------------|
G|-x----------------------------------------|
D|------------------------------------------|
A|------------------------------------------|
E|------------------------------------------|

e|-[24]25-\22-18--------------------------|
B|---------------20-----------------------|
G|------------------19--------------------|
D|---------------------20\19-15-----------|
A|------------------------------17\15-13~-|
E|----------------------------------------|

e|---------------------------------------------|
B|---------------------------------------------|
G|--12-12-12-12/14-14-14-14/15-15-15-15/17-17\-|
D|---------------------------------------------|
A|--12-10-10-10/12-12-12-12/13-13-13-13/15-15\-|
E|---------------------------------------------|

e|-------------18------------------------------|
B|-/18--15h18-----18p15----15h18p15-15---------|
G|----------------------18------------18p17p15-|
D|---------------------------------------------|
A|---------------------------------------------|
E|---------------------------------------------|

e|----------------------------------18b22-|
B|-18p15-15-15----------------------------|
G|-------------18p15----17-15-15b16-------|
D|-------------------17-------------------|
A|----------------------------------------|
E|----------------------------------------|

End solo


Riff 7b
e|--------------------------------------|
B|------------------------------5-------|
G|------------------------------h-5-----|
D|-----0h2---4-----5--5-5-5-5-5---h-5---|
A|-2-------2-----3-3--3-3-3-3-3-----h-5-|
E|-0-----------0----------------------h-|
               *      * * * * *
e|-------------------0--------0-------|
B|---------------------0--------0-----|
G|------------------------------------|
D|-----0h2---4------------------------|
A|-2-------2-----2-1------1-0-----0-2-|
E|-0-----------0-3-2------2-1-----1-0-|


Play Riff 7a  "They killed my wife..."
Play Riff 8   Solo Rhythm

Solo (Friedman)
e|--------------------------------|
B|-x------------------------------|
G|-x-5b7--(7)r5-3-----------------|
D|----------------5/8\5p3---------|
A|------------------------5-3-----|
E|----------------------------6~~-|

e|-------------------------------------------------|
B|----------------------------6-8--6h8p6---8-------|
G|------------------------5-7------------7---10b12-|
D|-8/10-10-10-10/12\10~~---------------------------|
A|-------------------------------------------------|
E|-------------------------------------------------|

e|---------------------------------------------------|
B|--------------------------------14-18b20~~--15--18-|
G|-7--10--10~~-----------------15--------------------|
D|-----------------------15-17-----------------------|
A|----------------/14-17-----------------------------|
E|--------------0------------------------------------|

e|-----22-18-------------18p15--------------|
B|-18/-------22-18\15-18-------18p15--------|
G|-----------------------------------18-18~-|
D|------------------------------------------|
A|------------------------------------------|
E|------------------------------------------|

e|---18h20b22--(22)r20---------------------------------------|
B|-x-------------------20-18-18b20~--------------------------|
G|-x--------------------------------15/17-17/18-18\17-(17)~\-|
D|-----------------------------------------------------------|
A|-----------------------------------------------------------|
E|-----------------------------------------------------------|

End solo


Riff 9 (Play 2x)
e|-------------------------|
B|-------------------------|
G|-------------------------|
D|-------------------------|
A|-------------------------|
E|-3-3-3-3-333-3-3-333-333-|
   h h h h hhh h h hhh hhh
e|---------------------------------------|
B|---------------------------------------|
G|---------------------------------------|
D|---------------------------------------|
A|-5---4-5---4-----4-5-----5-4-----4-5-2-|
E|-3-0-2-3-0-2-0-0-2-3-0-0-3-2-0-0-2-3-0-|
     *     *   * *     * *     * *
e|-------------------------|
B|-------------------------|
G|-------------------------|
D|-------------------------|
A|-------------------------|
E|-3-3-3-3-333-3-3-333-333-|
   h h h h hhh h h hhh hhh
e|---------------------------------------|
B|---------------------------------------|
G|---------------------------------------|
D|---------------------------------------|
A|-2---1-2---1-----1-2-----2-1-----1-2-2-|
E|-3-0-2-3-0-2-0-0-2-3-0-0-3-2-0-0-2-3-0-|
     *     *   * *     * *     * *


Riff 10 (Solo Rhythm)
e|-------------------------|
B|-------------------------|
G|-------------------------|
D|-------------------------|
A|-------------------------|
E|-0-0-0-0-000-0-0-000-000-|
   * * * * *** * * *** ***
e|---------------------------------------|
B|---------------------------------------|
G|---------------------------------------|
D|---------------------------------------|
A|-5---4-5---4-----4-5-----5-4-----4-5-2-|
E|-3-0-2-3-0-2-0-0-2-3-0-0-3-2-0-0-2-3-0-|
     *     *   * *     * *     * *
e|-------------------------|
B|-------------------------|
G|-------------------------|
D|-------------------------|
A|-------------------------|
E|-0-0-0-0-000-0-0-000-000-|
   * * * * *** * * *** ***
e|---------------------------------------|
B|---------------------------------------|
G|---------------------------------------|
D|---------------------------------------|
A|-2---1-2---1-----1-2-----2-1-----1-2-2-|
E|-3-0-2-3-0-2-0-0-2-3-0-0-3-2-0-0-2-3-0-|
     *     *   * *     * *     * *

Final time:
e|-------------------------------------|
B|-------------------------------------|
G|-------------------------------------|
D|-------------------------------------|
A|-2---1-2---1-----1-2-----2-1-----1-2-|
E|-3-0-2-3-0-2-0-0-2-3-0-0-3-2-0-0-2-3-|
     *     *   * *     * *     * *

Solo (Mustaine)
e|-17^b18-----17^b18-----17^b18--17^b18--17^b18--17^b18-|
B|------------------------------------------------------|
G|------------------------------------------------------|
D|------------------------------------------------------|
A|------------------------------------------------------|
E|------------------------------------------------------|

e|-17-15-12-12----12--------------------|
B|-------------17----17-15-12--17-15-12-|
G|--------------------------------------|
D|--------------------------------------|
A|--------------------------------------|
E|--------------------------------------|

e|----------------------------------|
B|-17-15-12----12-------------------|
G|----------15----15-14-12-15-14-12-|
D|----------------------------------|
A|----------------------------------|
E|----------------------------------|

e|--------------------------|
B|--------------------------|
G|-15-14-12-----12----------|
D|----------14-----14-13-12-|
A|--------------------------|
E|--------------------------|

e|-------------------------------------|
B|-------------------------------------|
G|-------------------------------------|
D|-14p13p12----13p12-------12----------|
A|----------14-------14p13----14p13p12-|
E|-------------------------------------|

e|------------------------------------------|
B|------------------------------------------|
G|------------------------------------------|
D|------------------------------------------|
A|-14p13p12----13p12----12----12----12-12---|
E|----------14-------14----15----15-------0-|

e|--------------------------|
B|--------------------------|
G|--------------------------|
D|--------------------------|
A|--------------------------|
E|-/5-8-5-8-5-8-5-8-4\3-5/--|

e|-------------------------------------------------|
B|-------------------------------------------------|
G|-------------------------------------------------|
D|----------------------12h13p12----12h13h14-12-12-|
A|-12h13p12----12h13h14----------14----------------|
E|----------14-------------------------------------|

e|----------------------------------------------------------------|
B|----------------------------------------12h15p12-15-15-17p15p12-|
G|-------12h14-12-14-15h16-15p12-14-12-14-------------------------|
D|-12h14----------------------------------------------------------|
A|----------------------------------------------------------------|
E|----------------------------------------------------------------|

e|-------------12h15h17----------12h15h17----------|
B|-17-12h15h17----------12h15h17----------12h15h17-|
G|-------------------------------------------------|
D|-------------------------------------------------|
A|-------------------------------------------------|
E|-------------------------------------------------|

e|-12h15h17----------12h15h17----------12h15h17--12h15h17-|
B|----------12h15h17----------12h15h17--------------------|
G|--------------------------------------------------------|
D|--------------------------------------------------------|
A|--------------------------------------------------------|
E|--------------------------------------------------------|

e|-17b18r17--12-17p15p12-------------------------|
B|-----------------------17-17p15p12-12-17p14p12-|
G|-----------------------------------------------|
D|-----------------------------------------------|
A|-----------------------------------------------|
E|-----------------------------------------------|

e|-------------------------------------------|
B|-------------------------------------15-12-|
G|-15-15-12----------------------12-12-------|
D|----------15-15-12-14-14-14-14-------------|
A|-------------------------------------------|
E|-------------------------------------------|

e|-------------------------------------------|
B|-15p12--12-15p12-17p12--12-15p12-17p12--12-|
G|------15--------------15--------------15---|
D|-------------------------------------------|
A|-------------------------------------------|
E|-------------------------------------------|

e|-------------------------------------------|
B|-17p12--12-15p12-17p12--12-15p12-17p12--12-|
G|------15--------------15--------------15---|
D|-------------------------------------------|
A|-------------------------------------------|
E|-------------------------------------------|

e|-------------------------------------------|
B|-17p12--12-15p12-17p12--12-15p12-17p12--12-|
G|------15--------------15--------------15---|
D|-------------------------------------------|
A|-------------------------------------------|
E|-------------------------------------------|

e|-------------------------------------------|
B|-17p12--12-15p12-17p12--12-15p12-17p12--12-|
G|------15--------------15--------------15---|
D|-------------------------------------------|
A|-------------------------------------------|
E|-------------------------------------------|

e|-------------------------------------------------|
B|-15p12----12-17p12----12-15p12----12-17p12----12-|
G|-------15----------15----------15----------15----|
D|-------------------------------------------------|
A|-------------------------------------------------|
E|-------------------------------------------------|

e|-------------------------------------------------|
B|-15p12----12-17p12----12-15p12----12-17p12----12-|
G|-------15----------15----------15----------15----|
D|-------------------------------------------------|
A|-------------------------------------------------|
E|-------------------------------------------------|

e|----------------------------------------|
B|-17p15p12--12-17p15p12--12-17p15p12--12-|
G|---------15-----------15-----------15---|
D|----------------------------------------|
A|----------------------------------------|
E|----------------------------------------|

e|--------------------------------------|
B|-17p15p12--12-17p15p12-----x-12-12-17-|
G|---------15-----------15-x------------|
D|--------------------------------------|
A|--------------------------------------|
E|--------------------------------------|

e|---------------------------------------------|
B|-17p15p12---17p15p12---17p15p12---17p15p12---|
G|---------12---------12---------12---------12-|
D|---------------------------------------------|
A|---------------------------------------------|
E|---------------------------------------------|

e|---------------------------------------------|
B|-18p16p13---18p16p13---18p16p13---18p16p13---|
G|---------13---------13---------13---------13-|
D|---------------------------------------------|
A|---------------------------------------------|
E|---------------------------------------------|

e|---------------------------------------------|
B|-19p17p14---19p17p14---19p17p14---19p17p14---|
G|---------14---------14---------14---------14-|
D|---------------------------------------------|
A|---------------------------------------------|
E|---------------------------------------------|

e|---------------------------------------------|
B|-20p18p15---20p18p15---20p18p15---20p18p15---|
G|---------15---------15---------15---------15-|
D|---------------------------------------------|
A|---------------------------------------------|
E|---------------------------------------------|

e|---------------------------------------------|
B|-21p19p16---21p19p16---22p20p17---22p20p17---|
G|---------16---------16---------17---------17-|
D|---------------------------------------------|
A|---------------------------------------------|
E|---------------------------------------------|

e|-------------------------------------------|
B|-23p21p18---23p21p18---24p22p19---24p22p19-|
G|---------18---------18---------19----------|
D|-------------------------------------------|
A|-------------------------------------------|
E|-------------------------------------------|

e|-22b24----22b24--|
B|-----------------|
G|-----------------|
D|-----------------|
A|-----------------|
E|-----------------|

e|-22b24--22b25--22b24--22b24----|
B|-------------------------------|
G|-------------------------------|
D|-------------------------------|
A|-------------------------------|
E|-----------------------------0-|

e|--------------------------------------------------|
B|--------------------------------------------------|
G|--------------------------------------------------|
D|--[Let note ring and depress with whammy bar]-----|
A|--[        then raise back up to E          ]-----|
E|--(0)----------------(0)*d----------------(raise)-|

End Solo


Riff 11 (Play 4x)
e|----------------------------------------|
B|----------------------------------------|
G|----------------------------------------|
D|----------------------------------------|
A|-5h7-----10p7---------5h7-----5h7-----9-|
E|-----000------0-0-0-0-----000-----0-0-7-|
       ***      * * * *     ***     * *
  "Fill the cracks in ..."


Riff 11a
Guitar 1                                x10
e|----------------------------------------|
B|----------------------------------------|
G|----------------------------------------|
D|----------------------------------------|
A|-5h7-----10p7---------5h7-----5h7-----9-|
E|-----000------0-0-0-0-----000-----0-0-7-|
       ***      * * * *     ***     * *
  "Next thing you know..."

e|------------------------------------|
B|------------------------------------|
G|--------------------------8------7--|
D|------------------------------------|
A|-5h7-----10p7---------6-9----5-8----|
E|-----000------0-0-0-0---------------|
       ***      * * * *
                    "...mercy..."

Guitar 2 (Mustaine)
e|----------------------------------------|
B|----------------------------------------|
G|----------------------------------------|
D|----12----------12----14------9---------|
A|-10----10----10----12-----7-6---9-5/7~--|
E|----------12----------------------------|

e|----------------------------------------|
B|----------------------------------------|
G|------------------------8------7--------|
D|----12----------12----------------------|
A|-10----10----10-----6-9----5-8----5/7~~-|
E|----------12----------------------------|

Riff 12
e|----------------------------------------|
B|----------------------------------------|
G|----------------------------------------|
D|----------------------------------------|
A|-5h7-----10p7---------5h7-----5h7-----9-|
E|-----000------0-0-0-0-----000-----0-0-7-|
       ***      * * * *     ***     * *
   "Killings...                    ...mercy..."
e|----------------------------------------|
B|----------------------------------------|
G|----------------------------------------|
D|----------------------------------------|
A|-5h7-----10p7---------5h7-----5h7-----9-|
E|-----000------0-0-0-0-----000-----0-0-7-|
       ***      * * * *     ***     * *
   "...killings...                  ...mercy..."


Riff 13
e|--------------------------------------------|
B|--------------------------------------------|
G|--------------------------------------------|
D|--------------------------------------------|
A|-5h7-----10p7----------5h7-----10p7---------|
E|-----000------0000000------000------0000000-|
       ***      *******      ***      *******
  "...killings...     ...killings..."
e|-----------------------------------------|
B|-----------------------------------------|
G|-----------------------------------------|
D|-----------------------------------------|
A|-5h7-----10p7----------5h7-----10p7------|
E|-----000------00000000-----000------0000-|
       ***      ********     ***      ****
  "...killings...     ...killings..."


Riff 14
e|---------------------------------|
B|---------------------------------|
G|---------------------------------|
D|---------------------------------|
A|-5---4-5---4-----4-5-----5-4-----|
E|-3-0-2-3-0-2-0-0-2-3-0-0-3-2-0-0-|
     *     *   * *     * *     * *
e|---------------------------------|
B|---------------------------------|
G|---------------------------------|
D|---------------------------------|
A|-2---1-2---1-----1-2-----2-1-----|
E|-3-0-2-3-0-2-0-0-2-3-0-0-3-2-0-0-|
     *     *   * *     * *     * *
e|-----------------------------------|
B|-----------------------------------|
G|-----------------------------------|
D|-----------------------------------|
A|-5---4-5---4-----4-5-----5-4-----4-|
E|-3-0-2-3-0-2-0-0-2-3-0-0-3-2-0-0-2-|
     *     *   * *     * *     * *
   "Next thing you know, they'll take..."

e|--------------|
B|--------------|
G|--------------|
D|--------------|
A|-5-6-7-----2--|
E|-------0-0-0--|
         * *
  "...away!"

13.IN MY DARKEST HOUR

Standard tuning

Intro (guitar 1)

 the first riff is a distorted guitar
 with the volume down low with stereo chorus for f/x

e :----------------0-------------------0----|
B :-------------0-----0-------------0-----0-|
G :----------7-----------7-------7----------|
D :-------5-------------------5-------------|
A :----9-------------------9----------------|
E :-0---------------------------------------|


Intro (guitar 2)

 sustain the note

e :----------------------------------------|
B :----------------------------------------|
G :----------------------------------------|
D :-2~~~~~~~~~~~~~~~~~~~~~~~~~~~~~~~~~~~~~~
A :-2~~~~~~~~~~~~~~~~~~~~~~~~~~~~~~~~~~~~~~
E :-0~~~~~~~~~~~~~~~~~~~~~~~~~~~~~~~~~~~~~~

Intro part 2 (guitar 1)

    PM PM PM
e :----------------------------------------|
B :----------------------------------------|
G :----------------------------------------|
D :------------4-----------------------4---|
A :-2--2--2--5---5-7-5---------------5---5-|
E :-0--0--0------------7-5-3-2-3-5-7-------|

Intro part 2 (guitar 2)

e :-----------------------------------------|
B :-----------------------------------------|
G :-----------------------------------------|
D :-2--2--2~~~~~~~~~~~~~~~~~~~~~~~~~~~~~~~2-|
A :-2--2--2~~~~~~~~~~~~~~~~~~~~~~~~~~~~~~~2-|
E :-0--0--0~~~~~~~~~~~~~~~~~~~~~~~~~~~~~~~0-|

          rpt all x2


Intro part 3 (guitar 1)


e :------------0----------------------------------9-----------------|
B :----------0---0------------10--------------------10--------------|
G :--------7----------------7----9-7------------9------9----------7-|
D :------5----------------5------------------11-----------------5---|
A :----9----------------9-----------------12------------------9-----|
E :-----------------------------------------------------------------|

Intro part 3 (guitar 2)


e :-----------------------------------------------------------------|
B :-----------------------------------------------------------------|
G :-----------------------------------------------------------------|
D :-----------------4-5~~~~~~~~~~~~~~~5-6~~~~~~~~~~~~~~~~~6-5~~~~~~-|
A :2-2~~~~~~~~~~~~~~2-3---------------3-4-----------------4-3~~~~~~-|
E :0-0~~~~~~~~~~~~~~------------------------------------------------|


Intro part 3 "a" (guitar 1)


e :-----------|
B :-----------|
G :-----------|
D :-----------|
A :-7-5-----2-|
E :-----8-7-0-|

Intro part 3 "a" (guitar 2)


e :---------|
B :---------|
G :---------|
D :---------| then return to, "Intro part 3" (guitar 2)x1 bar then back to this
A :-7-5-----| x1 bar
E :-----8-7-|

 guitar 1 returns to "Intro part 3" (guitar 1) then back to Intro part 3 "a"
 (guitar 1) (this is a bit confusing, just listen to the original song)


Intro part 3 "b" (guitars 1+2)


e :-----------------------------------------------------|
B :-----------------------------------------------------|
G :-----------------------------------------------------|
D :--------------------5~~-------------------5~~--------|
A :-7-5-----1~~7-5-----3~~7-5-----1~~7-5-----3~~7-5-----|
E :-----8-7-0~~----8-7--------8-7-0~~----8-7--------8-7-|

Rhythm riff 1 (guitar 1+2)


      pm-
e :------|
B :------|
G :------|
D :------| rpt x8
A :-2-222
E :-0-000

Rhythm riff 2 (guitars 1+2)


      pm-   pm-
e :---------------------------------------------------|
B :---------------------------------------------------|
G :-------------12-11-10------------------------------|
D :---------------------14-13-12---------------- rpt--| x4
A :-2-222-5-555-----------------16-15-14--------------|
E :-0-000-3-333-------------------------18-17-16------|


Rhythm riff 2 "a" (guitars 1+2)
 (vocals start)


      pm-   pm     pm-   pm     pm-   pm     pm-   pm -   pm-----|
e :--------------------------------------------------------------|
B :--------------------------------------------------------------|
G :--------------------------------------------------------------|
D :------------4-5-----5-----------------4-5-----5---------------|
A :-2-222-2-22-2-3-222-3-22-5-2-222-2-22-2-3-222-3-22-5-2-222-2--|
E :-0-000-0-00-----000---00-3-0-000-0-00-----000---00-3-0-000-0--|

Rhythm riff 2 "a" continued (guitars 1+2)


       pm-   -       pm-   pm-   pm
e :-----------------------------------------------------------------------|
B :-----------------------------------------------------------------------|
G :-----------------------------------------------------------------------|
D :987-777-7---7/9-4-444-4-444--------4-4----  rpt all rhythm riff 2 "a---| x2
A :765-555-5-3-5/7-2-222-2-222-5-55-7-2-2-5-4-----------------------------|
E :----------0-----------------3-33-5-----3-2-----------------------------|


Rhythm riff 2 "b" (guitars 1+2)


      pm-   pm     pm-
e :--------------------------------------|
B :--------------------------------------|
G :--------------------------------------|
D :------------4-5-555-5---4h5p4--  rpt--| x2
A :-2-222-2-22-2-3-333---7-------7-------|
E :-0-000-0-00---------------------------|


Rhythem riff 2 "c" (guitars 1+2)


      pm- pm-   pm-               pm-            pm-----------------|
e :-----------------------------------------------------------------|
B :-----------------------------------------------------------------|
G :-----------------4---2h4p2p0-------4---2h4p2p0-------------------|
D :-2-222-252-4-444---5---------2-222---5--------777777777777-7-----|
A :-0-000-030-2-222-------------0-000------------555555555555-5-8-7-|
E :-------------------------------------------------------------6-5-|


Rhythm riff 3 (guitars 1+2)


      pm- pm     pm-   pm-     pm-   pm-     pm-   pm--------|
e :----------------------------------------------------------|
B :----------------------------------------------------------|
G :----------------------------------------------------------|
D :----------4-5-----5-----5-7-----7-----7-5-----5----  rpt--| x2
A :-2-222-22-2-3-222-3-222-3-4-222-4-222-4-3-222-3-545-------|
E :-0-000-00-----000---000-----000---000-----000---323-------|

Rhythm riff 4 (thechnical part) (guitars 1+2)
 played in double time


    pmpmpmpmpmpm   pmpmpmpmpmpmpmpm  pmpm
e :-----------------------------------------------------|
B :-----------------------------------------------------|
G :-----------------------------------------------------|
D :--------------0------------------0-----3--2---  rpt--| x4
A :-2-22-2---0-1---1-0-2-22-2---0-1---1-0-1--0--5-------|
E :-0-00-0-3-----------0-00-0-3-----------------3-------|

 back to Rhythm riff 3 rpt x4 (guitar 2)
 guitar 1 plays rhythm riff 3, x2 then plays a lead like riff

e :-------------------------------------------------------------------|
B :-------------------------------------------------------------------|
G :-------------------------------------------------------------------|
D :-0h2-----2p0h2-----2p0h2-----2p0h2-----2---------------------------|p0h2 continue flow till the
A :-------------------------------------------- end of rhythm riff 3--|
E :----3p2p0-----3p2p0-----3p2p0-----3p2p0----------------------------|


Rhythm riff 5 (guitar 1+2) (half time feel similar riff
 to r/riff 2 "b")


                        pmpm      pm  pmpmpmpm      pmpmpm
e :-------------------------------------------------------|
B :-------------------------------------------------------|
G :-------------------------------------------------------|
D :-----------------4-5--5--4h5p4--------------4-5--5-5-5-|
A :-2-~-~-~-~-~-~-~-2-3-7-7-------7-2-22222222-2-3--3-3-3-|
E :-0-~-~-~-~-~-~-~-----------------0-00000000------------|

Rhythem riff 5 (continued)(guitars 1+2)


                                                       pmpmpmpmpmpm
e :-----------------------------------------------------------------|
B :-----------------------------------------------------------------|
G :-----------------------------------------------------------------|
D :-5--4h5p4-------------------4-5--5--4h5p4---6-~-~-~-777777777777-|
A :--7-------7-2-~-~-~-~-~-~-~-2-3-7-7-------7-4-~-~-~-555555555555-|
E :------------0-~-~-~-~-~-~-~--------------------------------------|

Rhythm riff 5 (continued)

e :-------|
B :-------|
G :-------|
D :-7-----|
A :-5-8-7-|
E :---6-5-|

Faster riff 1 (guitar 2)

e :----------------------------------------------------------|
B :----------------------------------------------------------|
G :----------------------------------------------------------|
D :---------------------------------------------------  rpt--| x2
A :-2-2-------------3-3------------4-4-------------5-5-------|
E :-0-0-------------1-1------------2-2-------------3-3-------|

Faster riff 1(guitar 1)(twiddely part)

e :----------------------------------------------------------------------|
B :----------------------------------------------------------------------|
G :---------0h2p0----------0h2p0-----------0h2p0-----------0h2p0---------|
D :----0h2p0-----2p0--0h2p0-----2p0---0h2p0-----2p0---0h2p0-----2p0 rpt--| x2
A :----------------------------------------------------------------------|
E :----------------------------------------------------------------------|

Faster riff 2 (guitar 1+2)
(double time down stroke style picking)

      pmpm   pmpm   pmpm   pmpm
e :-----------------------------------|
B :-----------------------------------|
G :-----------------------------------|
D :----------------------------  rpt--| x2
A :-2-2222-3-3333-4-4444-5-5555-------|
E :-0-0000-1-1111-2-2222-3-3333-------|


 solo comes in by guitar 2 ??? (a bizarre one by Mr Young)
 at the begining of the 3rd bar and plays till the end of the 4th
 bar.
 guitar 1 plays faster riff 2 for 2 more bar`s (x4)

Faster riff 3 (guitars 1+2)
(double time down stroke style picking)

      pm-     pmpm-  pm-   pm-     pmpm-  pmpmpmpm----------------|
e :---------------------------------------------------------------|
B :---------------------------------------------------------------|
G :---------------------------------------------------------------|
D :-------4-5-55542-----54-444-7-9-99987-------------------  rpt--| x2
A :-2-222-2-3-333207-77732-222-5-7-7776510-101010987-7-10-9-------|
E :-0-000----------5-555----------------8--8-8-8-765-5-8--7-------|

Guitar 2 repeats "faster riff 3" another 2 bars

(guitar 1 mimics lyric`s)(unshure at the mo)


Guitar 1 plays "faster riff 3" for one more bar


Faster riff 4 (guitar 2)

 Solo 2 (guitar 1)comes in straight away ????
 (a bizarre one by Mr Mustaine) X5


e :--------------------------------|
B :--------------------------------|
G :--------------------------------|
D :-2-2222-3-2222-5-2222-10-9 rpt--| x8
A :-0-0000-1-0000-3-0000-8--7------|
E :--------------------------------|


 on "faster riff 4" guitar 3 comes in
 on the 6th bar
 (every note played with a artificial harmonic inc bend "ah")
  this is the basic lead,there are more notes,i`ll finish it soon

e :----------------------------------|
B :----------------------------------|
G :----------------------5/7\5-------|
D :-765---765---765---75------  rpt--| x4
A :----765---765---765--7------------|
E :----------------------------------|


 back to faster riff 2 (guitar 1+2) x2

Faster riff 5 (guitar 2)

e :-------------------------------------------------------------|
B :-------------------------------------------------------------|
G :-------------------------------------------------------------|
D :-------------------------------------------------------------|
A :-2-2222-3-3333-4-4444-5-5555-6-6666-7-7777-8-8888-9-99-9-5-7-|
E :-0-0000-1-1111-2-2222-3-3333-4-4444-5-5555-6-6666-7-77-7-3-5-|

Faster riff 5 (guitar 1)
 (sorry it`s not in time with guitar 2tab will be to long otherwise)


e :-------------------------------------------------------------------|
B :-9999-10101010-111111-12121212-13131313-14141414-15151515-16161616-|
G :-9999-10101010-111111-12121212-13131313-14141414-15151515-16161616-|
D :-------------------------------------------------------------------|
A :-------------------------------------------------------------------|
E :-------------------------------------------------------------------|

Faster riff 5 (guitar 1) continued

e :----
B :----
G :----
D :----
A :9-5-
E :7-3-

 then back to "intro", guitar 1 and guitar 2"

 then back to "intro part 1", guitar 1 and guitar 2"

 then back to "intro", guitar 1 and guitar 2

 then back to "intro part 1", guitar 1 and guitar 2 (slows
 down to the end then sustain the last note)


Exit (guitars 1+2)


e :----
B :----
G :----
D :-12\
A :-10\
E :----

14.PEACE SELLS

Tune down 1/4 step
140bpm

Intro
E|---------------|--------------|----17b----17b----17b-----|
B|---------------|--------------|-----------Lead-----------|
G|-Bass Solo-----|--------------|--------------------------|
D|---------------|--------------|-----7-------Let----------|
A|---------------|-------7\-2---|-----5-------Ring---------|
E|---------------|----------0---|----Rythem----------------|

Lead
E|-12h16p12--12-11h15p11--11-10h14p10--10-9h13p10--9-8h12p8--8-7h11p7--7-6h10p6|
B----------15-----------14-----------13----------12--------11--------10--------|
G|-----------------------------------------------------------------------------|
D|-----------------------------------------------------------------------------|
A|-----------------------------------------------------------------------------|
E|-----------------------------------------------------------------------------|

Rythem
E|-----------------------------------------------------------------------------|
B|-----------------------------------------------------------------------------|
G|-----------------------------------------------------------------------------|
D|----------------------------------------------7----7----7----7----7----7----7|
A|-----------5----5----5----5----5----5----5----5----5----5----5----5----5----5|
E|-----------------------------------------------------------------------------|
             .    .    .    .    .    .    .    .    .    .    .    .    .    .
E|-------------------|
B|-------------------|
G|-------------------|
D|--8---7------------|
A|--8---7------------|
E|--6--5-------------|

Verse 4x
E|----------------------------------------------------------------------------|
B|----------------------------------------------------------------------------|
G|----------------------------------------------------------------------------|
D|-----------------------6-----------------------5--------------------8--7----|
A|-----------------------6-----------------------5--------------------8--7----|
E|--0--0--0--0--0--0--0--4--0--0--0--0--0--0--0--3--0--0--0--0--0--0--6--5----|
    .  .  .  .  .  .  .     .  .  .  .  .  .  .     .  .  .  .  .  .

Chorus
E|--------------------------------------------------------------|
B|--------------------------------------------------------------|
G|---9--9--7--9---12---7--9-----------9--9--7--9---12-----------|
D|---9--9--7--9---12---7--9-----------9--9--7--9---12---4--5----|
A|---7--7--5--7---10---5--7-----------7--7--5--7---12---4--5----|
E|------------------------------------------------------2--3----|

E|--------------------------------------------------|
B|--------------------------------------------------|
G|----------------7---------------------------------|
D|---5--5--4--4---7---4--5-----5-------------5------|
A|---5--5--4--4---5---4--5-----5----5--4--3--3------|
E|---3--3--2--3-------2--3-----3----3--2--1---------|

Solo    Play Verse under the solo
E|------------------------------------------------|
B|-----------------------------12h13-12p10p9------|
G|--12b--13p12-13p12p9-12h13h14-------------12p10-|
D|------------------------------------------------|
A|------------------------------------------------|
E|------------------------------------------------|

E|--------------------------------------------------------|
B|-------12-10-------10-----------------------------------|
G|-12-13-------13-12----12-10-----------------------------|
D|----------------------------14-12-10--------------------|
A|-------------------------------------14-12-10-----------|
E|----------------------------------------------14-12-10--|

E|---------12---------------------------------------|
B|--15--------15-12---------------------------------|
G|------------------14-12b-------\------------------|
D|--------------------------------------------------|
A|--------------------------------------------------|
E|--------------------------------------------------|

Verse 4x
Chorus


Interlude
E|---------------------------------------------------------------------|
B|---------------------------------------------------------------------|
G|---------------------------------------------------------------------|
D|---------------------------------------------------------------------|
A|--------10p3h10--------9p7h9--------7p5h7--------5p4h5--------4p2h2--|
E|--0--0-----------0--0---------0--0---------0--0---------0--0---------|

E|-----------------------------------------|
B|-----------------------------------------|
G|-----------------------------------------|
D|-----------------------------------------|
A|-----------------------------------------|
E|--0--0--7p5h7--0--0--5p4h5--0--0--3p2h3--|

E|---------------------------------------------------------------------|
B|---------------------------------------------------------------------|
G|---------------------------------------------------------------------|
D|---------9p8h9---------7p5h7--------5p4h5--------4p2h4--------2p0h2--|
A|--------10p3h10--------9p7h9--------7p5h7--------5p4h5--------4p2h2--|
E|--0--0-----------0--0---------0--0---------0--0---------0--0---------|

E|----------------------------------------|
B|----------------------------------------|
G|----------------------------------------|
D|----------------------------------6--5--|
A|--------5p4h5--------4p2h4--------6--5--|
E|--0--0--7p5h7--0--0--5p4h5--0--0--4--3--|

E|---------------------------------------------------------------------|
B|--11p12-15-11p12---------------------------12------------------------|
G|-----------------14b--14-12----14----12h14----12---------------------|
D|----------------------------14----14-------------14----12------------|
A|----------------------------------------------------------14-14-10b--|
E|---------------------------------------------------------------------|


Fill 1
E|--------------------------------------------------|
B|--------------------------------------------------|
G|--------------------------------------------------|
D|--4--------------------5-----------4--------5--4--|
A|--4--------------------5-----------4--------5--4--|
E|--2--2--2--2--2--2--2--3--3--3--3--2--2--2--3--2--|

Fill 2
E|------------------------------------------|
B|------------------------------------------|
G|------------------------------------------|
D|---------9p8h9---------7p5h7--------6--5--|
A|--------10p3h10--------9p7h9--------6--5--|
E|--0--0-----------0--0---------0--0--4--3--|


Play with Fill 1
E|-----------------------------------------------------------------------------|
B|-----------------------------------------------------------------------------|
G|---------------------------------2------------------2--5p4--2--4--4p2--------|
D|------------------------------2-----4p2----------2---------------------4--2--|
A|-------------0h2p0-0h2p2-3h4------------4p3-3h4------------------------------|
E|--0h2--2--2------------------------------------------------------------------|

Play Fill 2

Play with Fill 1, Fill 2, and back to Fill 1
              Bends -->  |  1/2  | Full |  1.5  | 20 |
E|-------19-------19-----------------------------------------------------------|
B|-19-20----20-20-----20--20b-20b-20b-20b-20b-20b-20b-------17--20------19-----|
G|------------------------------------------------------------------18------19b|
D|-----------------------------------------------------------------------------|
A|-----------------------------------------------------------------------------|
E|-----------------------------------------------------------------------------|

E|--------------------14h17h14----14-19h14-14-14h17p14----14-19p14-----|
B|-----------------------------17----------------------17----------17--|
G|--19--16-------------------------------------------------------------|
D|----------19--17b----------------------------------------------------|
A|---------------------------------------------------------------------|
E|---------------------------------------------------------------------|

E|--14h17p14----14-19p14----14-19p14-14-14h17p14----14-19p14----14h17p14--|
B|-----------17----------17----------------------17----------17-----------|
G|------------------------------------------------------------------------|
D|------------------------------------------------------------------------|
A|------------------------------------------------------------------------|
E|------------------------------------------------------------------------|

                            Can You Put A Price on Peace?
E|--------------14----------------------------------------|
B|-----14h17p14----17p14-16-----Let-Ring------------------|
G|--17-------------------7--------------------------------|
D|-----------------------7--------------------------------|
A|-----------------------9----Rythem----------------------|
E|--------------------------------------------------------|

End Riff 1  8x I think
E|-------------------------------------------------|
B|-------------------------------------------------|
G|-------------------------------------------------|
D|---------5----------7h8----------5---------------|
A|--7--5-7-------7--5-------7--5-7------7--5-------|
E|-----------0-----------------------0-------5h6---|

With End Riff 1
E|-------------------------------------------------|
B|-------------------------------------------------|
G|-------------------------------------------------|
D|------2------------5-----------4------------9----|
A|------2------------5-----------4------------9----|
E|--0-0----------3-3---------2-2----------7-7------|

E|-------------------------------------------------|
B|-------------------------------------------------|
G|-------------------------------------------------|
D|------9------------5------------4------------9---|
A|--7-7-7------------5------------4------------9---|
E|---------------3-3----------2-2----------7-7-----|


End Riff 2 4x
E|-------------------------------------------------|
B|-------------------------------------------------|
G|-------------------------------------------------|
D|---------5----------7h8----------5---------7h8---|
A|--7--5-7-------7--5-------7--5-7------7--5-------|
E|-----------0-----------------------0-------------|


End Riff 3 5x
E|------------------------------------------------|
B|------------------------------------------------|
G|---------7--------9h10---------7--------9h10----|
D|--9--7-9-----9--7-------9--7-9-----9--7---------|
A|------------------------------------------------|
E|-----------0---------------------0--------------|

Play End Riff 2 4x
     End Riff 3 8x

End 2x
E|-------------------------------------------------------|
B|-------------------------------------------------------|
G|--------------------------------------------7--8--9----|
D|--------------------------------------------5--6--7----|
A|--4--3--2--3--4--3--2--4--5--5--5--5--4--2-------------|
E|--2--1--0--1--2--1--0--2--3--3--3--3--2--2-------------|

15.WAKE UP DEAD

Tuning: 1/4 Step down


Riff 1
e|---------------------------------------------|
B|---------------------------------------------|
G|---------------------------------------------|
D|---------2----------------5----------------7-|
A|----4----0-----------4----3-----------4----5-|
E|-02-2-02----------02-2-02----------02-2-02---|
   **   **          **   **          **   **
    "I sneak in my..."
e|-------------------------|
B|-------------------------|
G|-------------------------|
D|---------9\--------------|
A|----4----7\------4----3--|
E|-02-2-02------02-2-02-1--|
   **   **      **   **
    "...say I've been out..."


Solo (Mustaine)
e|----------------------------------2----------------|
B|-----------------------------------5p2-------------|
G|-4b6r4-4b6----(6)r4d*----4b6--4b6-----4h5p4p2-4p2--|
D|-a-----a-----------------------------------------4-|
A|---------------------------------------------------|
E|---------------------------------------------------|

e|---------------------7p5-9p7p5----------------------|
B|------------------------------8p7p5---8p7p5---------|
G|-2---------------------------------7p5-----7p5------|
D|--4p2--2-4p2----2-4~--------------------------7p6p4-|
A|-----4------2h4-------------------------------------|
E|----------------------------------------------------|

e|------------------------|
B|------------------------|
G|------------------------|
D|-6~----6--6/7~---9---\4-|
A|------------------------|
E|------------------------|

e|-----------------------------------------|
B|-----------------------------------------|
G|-4b6-[slow release and dive ]--(16)-16~~-|
D|-a---[with tremolo bar, then]------------|
A|-----[raise and slide to the]------------|
E|-----[      next note       ]------------|

e|---------------------------------------14h7p14-17-19b20--19b21~-|
B|-14h17p14-14-14-17p14-19p14-14-14-17p14-------------------------|
G|----------------------------------------------------------------|
D|----------------------------------------------------------------|
A|----------------------------------------------------------------|
E|----------------------------------------------------------------|

e|-19p17p14-14-14-19p17p14-14-14-|
B|-------------------------------|
G|-------------------------------|
D|-------------------------------|
A|-------------------------------|
E|-------------------------------|

e|-19p17p14--14-19p17p14--14-19p17p14--14-19p17p14--14-|
B|---------17-----------17-----------17-----------17---|
G|-----------------------------------------------------|
D|-----------------------------------------------------|
A|-----------------------------------------------------|
E|-----------------------------------------------------|

e|-19p17p14--14-19p17p14--14-19p17p14--14-19p17p14--14-|
B|---------17-----------17-----------17-----------17---|
G|-----------------------------------------------------|
D|-----------------------------------------------------|
A|-----------------------------------------------------|
E|-----------------------------------------------------|

e|-19p17p14--14-19p17p14--14-19p17p14--14-19p17p14--14-|
B|---------17-----------17-----------17-----------17---|
G|-----------------------------------------------------|
D|-----------------------------------------------------|
A|-----------------------------------------------------|
E|-----------------------------------------------------|

e|--------------------------------------------|
B|--17----------------------------------------|
G|--16b17---[long hold and then release]------|
D|----------[slowly with tremolo bar vibrato]-|
A|--------------------------------------------|
E|--------------------------------------------|

End Solo


Riff 2
Guitar 1                                   x3
e|------------------------------------------|
B|------------------------------------------|
G|------------------------------------------|
D|-12\11-------12\11------------------------|
A|-10\-9-11/12-10\-9--9-10----9-------11/12-|
E|--------9/10-------------12---10-12--9/10-|
                       * *  * *  *  *
e|------------------------------------|
B|------------------------------------|
G|------------------------------------|
D|-12\11-------12\11------------------|
A|-10\-9-11/12-10\-9--9-10----9-------|
E|--------9/10-------------12---10-12-|
                       * *  * *  *  *
e|--------------------|
B|--------------------|
G|--------------------|
D|--------------------|
A|-11/12-7/8----------|
E|--9/10-5/6--0-0-0-0-|
              * * * *

Guitar 2                                   x3
e|------------------------------------------|
B|------------------------------------------|
G|------------------------------------------|
D|-12\11-------12\11-----9------------------|
A|-10\-9-11/12-10\-9--12---10-12-9-10-11/12-|
E|--------9/10-------------------------9/10-|
                       * *  *  * *  *
e|------------------------------------|
B|------------------------------------|
G|------------------------------------|
D|-12\11-------12\11-----9------------|
A|-10\-9-11/12-10\-9--12---10-12-9-10-|
E|--------9/10------------------------|
                       * *  *  * *  *
e|--------------------|
B|--------------------|
G|--------------------|
D|--------------------|
A|-11/12-7/8----------|
E|--9/10-5/6--0-0-0-0-|
              * * * *


Riff 3 (Play 4x)
e|------------------------------|
B|------------------------------|
G|--------------------------7---|
D|--------------------------5---|
A|-10-9-8-----7-----8---7-------|
E|--8-7-6-0-0-5-0-0-6-0-5-0---0-|
          * *   * *   *   *   *
e|-----------------------------|
B|-----------------------------|
G|-------------7---------------|
D|-------------5---------------|
A|-8-----7---------------------|
E|-6-0-0-5-0-0---0-0-0-0-0-0-0-|
     * *   * *   * * * * * * *


Riff 3a (Play 1x)
e|------------------------------|
B|------------------------------|
G|--------------------------7---|
D|--------------------------5---|
A|-10-9-8-----7-----8---7-------|
E|--8-7-6-0-0-5-0-0-6-0-5-0---0-|
          * *   * *   *   *   *
e|------------------------------------|
B|------------------------------------|
G|-------------7----------------------|
D|-------------5---9----8-7-6---5-4-3-|
A|-8-----7---------7-10-6-5-4-7-3-2-1-|
E|-6-0-0-5-0-0---0----8-------5-------|
     * *   * *   *


Riff 3b (Play 3x)
e|-----------------------|
B|-----------------------|
G|-------------------7---|
D|-------------------5---|
A|-----7-----8---7-------|
E|-0-0-5-0-0-6-0-5-0---0-|
   * *   * *   *   *   *
e|------------------------------------|
B|------------------------------------|
G|-------------7----------------------|
D|-------------5---9----8-7-6---5-4-3-|
A|-8-----7---------7-10-6-5-4-7-3-2-1-|
E|-6-0-0-5-0-0---0----8-------5-------|
     * *   * *   *


Lead into next section:
e|---------------|
B|---------------|
G|---------------|
D|---------5\3---|
A|-3-3-3/5-3\1-3-|
E|-1-1-1/3-----1-|
     *


Riff 4 (Solo Rhythm)          x3
e|-----------------------------|
B|-----------------------------|
G|-------4-------------7--6-4--|
D|-------4-------------7--6-4--|
A|-6-----2--4-5--6-----5--4-2--|
E|-4-444----2-3--4-444---------|
     ***           ***
e|----------------------------|
B|----------------------------|
G|-------4-------------6------|
D|-------4-------------6------|
A|-6-----2--4-5--6-----4--6-7-|
E|-4-444----2-3--4-444----4-5-|
     ***           ***

Solo (Mustaine)
e|-------------------------------------|
B|-------------------------------------|
G|--6b7tm----[long hold, slow release]-|
D|-------------------------------------|
A|-------------------------------------|
E|-------------------------------------|

e|----------------------------------------------------|
B|------------------------------------------4-----4-4-|
G|-6p4---------4------------4-6-4-----4-6b7---6p4-----|
D|-----6-6-4-6---5-6--4-5-6-------6-6-----------------|
A|-------------------4--------------------------------|
E|----------------------------------------------------|

e|-------------------------------------------------------------|
B|-5-6-7-6-7-8-7-8-9-8-9-10-9-10-11-10-11-12-11-12-13-12-13-14-|
G|-------------------------------------------------------------|
D|-------------------------------------------------------------|
A|-------------------------------------------------------------|
E|-------------------------------------------------------------|

e|----------------------------------------|
B|-13-14-15-14-15-16-15-16-17-18-19-18-19-|
G|----------------------------------------|
D|----------------------------------------|
A|----------------------------------------|
E|----------------------------------------|

e|-16-19p16--16-19p16--16-21p16-19p16--16-21p16-21b23~~-|
B|---------19--------19--------------19-----------------|
G|------------------------------------------------------|
D|------------------------------------------------------|
A|------------------------------------------------------|
E|------------------------------------------------------|

End Solo


Riff 4a (Solo Rhythm)
e|----------------------------------|
B|----------------------------------|
G|----------------6---------------8-|
D|----------------6---------------8-|
A|-8--------8-6-8-4---------8-6-8-6-|
E|-6-666666-6-4-6----666666-6-4-6---|
     ****** * * *    ****** * * *
e|--------------------------|
B|--------------------------|
G|--------------9------9-8--|
D|--------------9------9-8--|
A|--------8-6-8-7------7-6--|
E|-666666-6-4-6----666------|
   ****** * * *    ***
e|-------|
B|-------|
G|-------|
D|-------|
A|-------|
E|--X\\--|


Solo (Poland)
e|---------------------------------------------6h9-9b11r9-|
B|-------------------------------------------6------------|
G|-------------------------------6-------6h8--------------|
D|---------------6-------6h8p6h8---8p6h8------------------|
A|-----8-6h8p6h8---8p6h8----------------------------------|
E|-/9-----------------------------------------------------|

e|-6------------6----------------------|
B|---9-6-9b11r9---9p6---6--------------|
G|--------------------8---8b10r8p6-6b8-|
D|-------------------------------------|
A|-------------------------------------|
E|-------------------------------------|

e|------------------------------------|
B|------------------------------------|
G|------------------------------------|
D|-8-6--------------------------------|
A|-----8-6----------------------------|
E|---------9-6--9~~--(9)b10--7b8--4~~-|

End Solo


Riff 5
e|---------------------------------|
B|---------------------------------|
G|---------------------------------|
D|---------6p4---------------------|
A|-------------------------6p4-----|
E|-4-4-4-4-----4-4-4-4-4-4-----4-4-|
   * * * *     * * * * * *     * *
e|-----------------------------|
B|-----------------------------|
G|-----------------------------|
D|-----------------------------|
A|-------------------------7-4-|
E|-4-4-4-4-7-4-4-4-4-4-4-4-5-2-|
   * * * * * * * * * * * *
e|----------------------------------------------|
B|----------------------------------------------|
G|----------------------------------------------|
D|---------6p4----------------------------4-5---|
A|-------------------------6p4-----7-9-6--2-3-5-|
E|-4-4-4-4-----4-4-4-4-4-4-----4-4-5-7-4------3-|
   * * * *     * * * * * *     * *


Riff 6
e|---------------------------------|
B|---------------------------------|
G|---------------------------------|
D|---------4p2---------------------|
A|-------------------------4p2-----|
E|-2-2-2-2-----2-2-2-2-2-2-----2-2-|
   * * * *     * * * * * *     * *
e|---------------------------------|
B|---------------------------------|
G|---------------------------------|
D|---------------------------------|
A|---------------------------------|
E|-2-2-2-2-5-2-2-2-2-2-2-2-0-2-2-2-|
   * * * * * * * * * * * * * * * *
e|-----------------------------------------------|
B|-----------------------------------------------|
G|-----------------------------------------------|
D|-4-2-----2----------------------------6--------|
A|-----4-3---4-3-2-4-3-2---3-2--------5----5---5-|
E|-----------------------5-----5-2--4--------4---|

Riff 7
e|---------------------------|
B|---------------------------|
G|---------------------------|
D|-------2------------5----3-|
A|-4---4-0--2-3-4---4-3--5-1-|
E|-2-0-2----0-1-2-0-2----3---|
     * *          * *
   "Well I wonder..."
e|---------------------------|
B|---------------------------|
G|-------7--6-4--------------|
D|-------5--4-2-------7----7-|
A|-4---4--------4---4-5--6-5-|
E|-2-0-2--------2-0-2----4---|
     * *          * *
   "...bout the other..."
e|---------------------------------------|
B|---------------------------------------|
G|---------------------------------------|
D|-------2------------7--9----6----------|
A|-4---4-0--2-3-4---4-5--7----4--------4-|
E|-2-0-2----0-1-2-0-2------------------2-|
     * *          * *
                          "...named Diana."

Guitar fill over Riff 7 (Mustaine)
e|----------------------------------|
B|----------------------------------|
G|-6p4p2p0--------------------------|
D|---------5p4p2p0-5p4p2p0----------|
A|------------------------4p2p0-----|
E|------------------------------0-2-|

Lead into next section:
e|--------|
B|--------|
G|--------|
D|--------|
A|--4--3--|
E|--2--1--|

Riff 8 (Solo Rhythm)
e|----------------------------------|
B|----------------------------------|
G|----------------------------------|
D|------9---------------------9--7--|
A|-2----7----3--5555---5-7-2--7--5--|
E|-0----0----1-------7-----0--0-----|

Solo (Mustaine)
e|-8p0h8p7p0h7h8p0h8p7p0h7h8p0h8p7p0h7h8p0h8p7-8/10-|
B|--------------------------------------------------|
G|--------------------------------------------------|
D|--------------------------------------------------|
A|--------------------------------------------------|
E|--------------------------------------------------|

e|-12-/24\-2h3p2h3-/14h15p14h15-|
B|------------------------------|
G|------------------------------|
D|------------------------------|
A|------------------------------|
E|------------------------------|

e|-8p0h8p7p0h7h8p0h8p7p0h7h8p0h8p7p0h7h8p0h8p7-8/10-|
B|--------------------------------------------------|
G|--------------------------------------------------|
D|--------------------------------------------------|
A|--------------------------------------------------|
E|--------------------------------------------------|

e|-12--11-10--9--8--/15---------------------------|
B|------------------------------------------------|
G|------------------------------------------------|
D|------------------------------------------------|
A|------------------------------------11----11-12-|
E|-----------------------12~----10-12----12-------|

e|-----------------------------------------|
B|-----------------------------------------|
G|-----------------------------------------|
D|-----------------------------------------|
A|-14-12-11-14-11h12p11----11--------------|
E|----------------------13----13-12-10-12~-|

e|------------------------------------------------|
B|------------------------------------------------|
G|-------------------------------------------13---|
D|----------------------------12--14-12-15-14--15-|
A|-------11--12-11-14-12-15-14--15----------------|
E|-13-12---13-------------------------------------|

e|---------------------12--13---|
B|------12--13-12-15-13--15--15-|
G|-14-13--14--------------------|
D|------------------------------|
A|------------------------------|
E|------------------------------|

e|--------------------------------------|
B|-17~~--15-17-17~~--15-17-17-----------|
G|-----------------------------14-16-16-|
D|--------------------------------------|
A|--------------------------------------|
E|--------------------------------------|

e|--------------------------------------------|
B|--------------------------------------------|
G|-13-14-14-----------------------------------|
D|-----------14-15-15--12-14-14~~--12-14-14~~-|
A|--------------------------------------------|
E|--------------------------------------------|

e|-----------------------------------------|
B|-----------------------------------------|
G|-----------------------------------------|
D|-12-14-14--------------------------------|
A|-----------14-15-15--12-14-14--11-12-12\-|
E|-----------------------------------------|

e|--------------------------------------------------|
B|--------------------------------------------------|
G|--------------------------------------------------|
D|--------------------------------------12-14-15p14-|
A|---------11-12-14p12p11-12-14-15p14p12------------|
E|-12--13-------------------------------------------|

e|----------------------------------------16h17-19p17p16-|
B|----------------------------15h17-18p17----------------|
G|-13h14-16p14p13-14h16-17p16----------------------------|
D|-------------------------------------------------------|
A|-------------------------------------------------------|
E|-------------------------------------------------------|

e|-20p19p17-19p17-16-19p17p16-17p16-----------------------------|
B|---------------------------------18p17p15-17p15---------------|
G|-----------------------------------------------17p16p14-16p14-|
D|--------------------------------------------------------------|
A|--------------------------------------------------------------|
E|--------------------------------------------------------------|

e|-------------------------------------------------------------------|
B|-------------------------------------------------------------------|
G|-16p14p13-14p13----------------------------------------------------|
D|---------------15p14p12-14p12---------------------------------14~~-|
A|-----------------------------16p14p12-14p12\11-12p11--11-----------|
E|----------------------------------------------------13--13p12------|

End Solo


Play Riff 8   "Wake up dead..."

Final time:
e|---------------------------------|
B|---------------------------------|
G|---------------------------------|
D|------9---------------------9--7-|
A|-2----7----3--5555---5-7-2--7--5-|
E|-0----0----1-------7-----0--0----|
      "You.......die....wake up dead!"

16.CAPITOL PUNISHMENT

Don't Know
comments
We did not receive enough feedback on this tab! Please rate:
print report bad tab
1 2 3 4 5
I want to post or [tab]
guest
You may want to rate the tab now too:
select rating
Please do not post tabs as comments. Select "correction" instead!