Oops, an error
Loading. Please wait.

Countdown To Extinction Bass Tab

ver1
ver1
More versions @911Tabs.com
3,678 views 23 this week
2 commentsread comments
1 2 3 4 5
excellent!
x 1
Autoscroll
+/-
esc
set tempo
stop
Contributor
Hey! There's an official Ultimate Guitar app which is ideal
for learning songs when you're away from computer. Get the app
WARNING: You are trying to view
                                    content from Ultimate-Guitar.com
                                    in an unauthorized application,
                                    which is prohibited.

                                    Please use an official Ultimate
                                    Guitar Tabs application for iPhone,
                                    iPad or Android to access legitimate
                                    chords, guitar, bass, and drum tabs
                                    from Ultimate-Guitar.com database.

                                    Type "ultimate guitar tabs" in Apple
                                    App Store's or Android Market's
                                    search to find the application.
Not the hardest album to play the bass for, but still pretty fun. Great way
to warm up. Should be about 97% accurate. Enjoy.

Tuning is E standard


/////////////////////////////////////////////////////////////////////////////


Megadeth-Skin O' My Teeth

Riff 1
|-----------------|-----------------|-----------------||
|-----------------|-----------------|---R-------------||
|-----------------|-----------------|-0---------------||
|-5-----4-----3---|---2-----1---0---|-----------------||

Rest 7 bars

Riff 2
|-----------------|-----------------|-----------------|-----------------|3x this row
|-----------------|-----------------|-----------------|-----------------|
|-0-0-0-3-3-0-5---|---5-5-5-5-5-5-5-|-0-0-0-3-3---0---|---0-0-0-0-0-0-0-|
|-----------------|-----------------|-----------3-----|-----------------|

|-----------------|-----------------|-7-7-7-5-5-5-2---|---2-0-----------||
|-----------------|-----------------|-----------------|-------2-1-0-----||
|-0-0-0-3-3-0-5---|---5-5-5-5-5-5-5-|-----------------|-------------3-0-||
|-----------------|-----------------|-----------------|-----------------||

Riff 3
|-----------------|-----------------|-----------------|-----------------|3x this row
|-----------------|---------5---5---|-----------------|-----------------|
|-----------------|-----------------|---------------5-|-----5-5-5---5---|
|-5-5---5-4---4-3-|-----3-3---------|-1-1---1-0---0---|-----------------|

|-----------------|-----------------|-----------------|-----------------|----||
|-----------------|---------5---5---|-----------------|-----------------|-2x-||
|-----------------|-----------------|---------------5-|(5)--------------|----||
|-5-5---5-4---4-3-|-----3-3---------|-1-1---1-0---0---|-----------------|----||

Play Riff 2
Play Riff 3

Riff 4
|-----------------|-----------------|-----------------|-----------------|
|---------R-------|-----------------|---------R-------|-----------------|
|-0---0-3-----0---|---3-0---0-------|-0---0-3-----0---|---3-0---0-------|
|---3-------3-----|-------3---3-2-0-|---3-------3-----|-------3---3-2-0-|

|-----------------|-----------------|-----------------|-----------------||2x
|-----------------|-----------------|-----------------|-----------------||
|-------------0---|---5-5-5-5-3-----|-0-----3-----0---|-----------0-0---||
|-2-2-2-3-3-3-----|-----------------|---3-0-----3-----|---3-3-3-3-------||

Riff 4a
|---------R-------|-----------------|---------R-------|-----------------|
|-------0---------|---0-------------|-------0---------|---0-------------|
|-2-0-------0-2---|-----2-0-2-0-----|-2-0-------0-2---|-----2-0-2-0-----|
|-----2-----------|-------------4-2-|-----2-----------|-------------4-2-|

|---------R-------|-----------------|---------R-------|-----------------||
|-------0---------|---0-------------|-------0---------|-----------------||
|-2-0-------0-2---|-----2-0-2-0-----|-2-0-------0-2---|---1-----0-------||
|-----2-----------|-------------4-2-|-----2-----------|-------------3---||

Play Riff 3
Play Riff 1
Play Riff 2
Play Riff 3 [hold last note one extra bar]

Outro
|-----------------|-----------------|-----------------||
|-----------------|-----------------|-----------------||
|-0-0-0-3-3-0-5---|---5-5-5-5-5-5-5-|-------5---3-0---||
|-----------------|-----------------|-5-3-0-----------||


/////////////////////////////////////////////////////////////////////////////


Megadeth-Symphony Of Destruction

Intro
|-----------------||
|-----------------||
|-----------------||
|-----------1-3-1-||

Riff 1
|-----------------|-----------------|-----------------|-----------------||4x
|-----------------|-----------------|-----------------|-----------------||
|-----------------|-----------------|-----------------|-----------------||
|-1-0-0-0-0-0-0-0-|-1-0-0-0-0-1-3-1-|-1-0-0-0-0-0-0-0-|-0-0-0-0-0-0-0-0-||

Riff 2
|-----------------|-----------------|-----------------|-----------------|
|-----------------|-----------------|-----------------|-----------------|
|-----------------|-----------------|-----------------|---------------3-|
|-0-0-0-0-0-0-0-0-|-0-0-0-0-0-0-0-3-|---3-3-3-3-3-3-3-|-3-3-3-3-3-3-3---|

|-----------------|-----------------|-----------------|-----------------||
|-----------------|-----------------|---------------0-|-----------------||
|---3-3-3-3-3-3-3-|-3-3-3-3-3-3-3-0-|---0-0-0-0-0-0---|---1-0-----------||
|-----------------|-----------------|-----------------|-------4-3-2-1-0-||

Riff 3
|-----------------|-----------------|-----------------|-------0---------|
|-----------------|-----------------|-----------------|-0-0-0---4-0-----|
|-----------------|-------0-0-0-2-2-|-3-3-3-3-3-3-3-3-|-------------2---|
|---0-0-0-0-2-0-0-|-3-3-3-----------|-----------------|-----------------|

|-----------------|-----------------|-----------------|-----------------||
|-----------------|-----------------|-----------------|-0-0-0-0-0-------||
|-----------------|-------0-0-0-2-2-|-3-3-3-3-3-3-3-3-|-----------------||
|---0-0-0-0-2-0-0-|-3-3-3-----------|-----------------|-----------------||

Play Riff 1 – 4x
Play Riff 2
Play Riff 3

Riff 3a
|-----------------|-----------------|-----------------|-------0---------|2x this row
|-----------------|-----------------|-----------------|-0-0-0---4-0-----|
|-----------------|-------0-0-0-2-2-|-3-3-3-3-3-3-3-3-|-------------2---|
|---0-0-0-0-2-0-0-|-3-3-3-----------|-----------------|-----------------|

|-----------------|-----------------||
|-----------------|-0-0-0-0-0-------||
|-3-3-3-3-3-3-3-3-|-----------------||
|-----------------|-----------0-0-0-||

Riff 4
|-----------------|-----------------|-----------------|-----------------|
|-----------------|-----------------|-----------------|-----------------|
|-----------------|-----------------|-----------------|---------------3-|
|---0-0-0-0-0-0-0-|-0-0-0-0-0-0-0-3-|---3-3-3-3-3-3-3-|-3-3-3-3-3-3-3---|

|-----------------|-----------------|-----------------|-----------------|
|-----------------|-----------------|-----------------|-----------------|
|---3-3-3-3-3-3-3-|-3-3-3-3-3-3-3-0-|---0-0-0-0-0-0-0-|-0-0-0-0-0-0-0---|
|-----------------|-----------------|-----------------|---------------0-|

|-----------------|-----------------|-----------------|-----------------|
|-----------------|-----------------|-----------------|-----------------|
|-----------------|-----------------|-----------------|---------------3-|
|---0-0-0-0-0-0-0-|-0-0-0-0-0-0-0-3-|---3-3-3-3-3-3-3-|-3-3-3-3-3-3-3---|

|-----------------|-----------------|---------------2-|---0-------------||
|-----------------|-----------------|---------0-1-2---|-----2-1-0-------||
|---3-3-3-3-3-3-3-|-3-3-3-3-3-3-3-0-|---0-0-0---------|-----------------||
|-----------------|-----------------|-----------------|-----------1-3-1-||

Play Riff 1 - 4x
Play Riff 2
Play Riff 3

Riff 3a
|-----------------|-----------------|-----------------|-------0---------|2x this row
|-----------------|-----------------|-----------------|-0-0-0---4-0-----|
|-----------------|-------0-0-0-2-2-|-3-3-3-3-3-3-3-3-|-------------2---|
|---0-0-0-0-2-0-0-|-3-3-3-----------|-----------------|-----------------|

|-----------------|-----------------|-----------------||
|-----------------|-0-0-0-0-0-------|-----------------||
|-3-3-3-3-3-3-3-3-|-----------------|-----R---R-------||
|-----------------|-----------------|-1-0---0---------||


/////////////////////////////////////////////////////////////////////////////


Megadeth-Architecture Of Aggression

Machine Gun Fire

Intro
|-----------------|-----------------|-----------------|-----------------|
|-----------------|-----------------|-----------------|---------|3|-----|
|-R---------------|-----------------|-----------------|---------320-|3|-|
|-----------------|-----------------|-----------------|-------------220-|

|-----------------|-----------------|-----------------|-----------------||2x
|-----------------|-----------------|-----------------|---------|3|-----||
|---R-------------|-----------------|-----------------|---------320-|3|-||
|-2---------------|-----------------|-----------------|-------------220-||

Riff 1
|-----------------|-----------------|-----------------|-----------------||4x
|-----------------|-----------------|-----------------|---------|3|-----||
|-----------------|-----------------|-----------------|---------320-|3|-||
|-2-0-3-0-2-0-5-6-|-5-0-2-0-2-3-2-0-|-2-0-3-0-2-0-5-6-|-5-0-2-0-----220-||

Riff 2
|-----------------|-----------------|-----------------|-----------------|
|-----------------|-----------------|-----------------|-----------------|
|-----------------|-----0-0-0---2-2-|-----------------|-----0-0-0---2-2-|
|-0---2-2-2---3-3-|-3---------------|-0---2-2-2---3-3-|-3---------------|

|-----------------|-----------------|-----------------|-----------------||
|-----------------|-----------------|-----------------|-----------------||
|-2---4-4-4---5-5-|-5---7-7-7---4-4-|-----------------|-----0-0-0---2-2-||
|-----------------|-----------------|-0---2-2-2---3-3-|-3---------------||

Riff 3
|-----------------|-----------------|-----------------|-----------------|
|-----------------|-----------------|-----------------|-------------5---|
|-----------------|-----------------|-----------------|-----------5---5-|
|-0-2-2-2-3-3-3-3-|-5-5-5-5-3-3-3-3-|-0-2-2-2-3-3-3-3-|-5-5-5-5-3-------|

|-----------------|---------11------|-----------------|-----------------|
|-----------------|-------------10--|-----------------|-----------------|
|-----------------|-----------------|-5-----------4---|---------3---4---|
|-0-2-2-2-3-3-3-3-|-5-5-5-5---------|-------4---------|---3-------2---3-|

|-----------------|-----------------||
|-----------------|-----------------||
|-----------------|-----------------||
|-0-2-------------|(2)-----------\\\||

Play Riff 1 – 4x
Play Riff 2

Riff 4
|-----------------|---------------|-----------------|---------------|2x this row
|-7h9-9-9-9-9-9-9-|-7---7-7-7-7-7-|-----------------|---------------|
|-----------------|---------------|-7h9-9-9-9-9-9-9-|-7---7-7-7-7-7-|
|-----------------|---------------|-----------------|---------------|

|-----4-----------||
|---4---4---4-----||
|-2-------2-------||
|-------------2-0-||

Riff 5
|-----------------|-----------------|-----------------|-----------------||4x
|-----------------|-----------------|-----------------|-----5-4-3-------||
|---------0-1-0---|(0)--5-4-3-------|---------0-1-0---|(0)--------------||
|-2-3-2-----------|-----------0-2-0-|-2-3-2-----------|-----------0-2-0-||

Riff 5a
|-----------------|-----------------||4x
|-----------------|-----------------||
|---------0-1-0---|---------R-------||
|-2-3-2-----------|-2-0-2-3-----2-0-||

Riff 3a
|-----------------|-----------------|-----------------|-----------------|
|-----------------|-----------------|-----------------|-------------5---|
|-----------------|-----------------|-----------------|-----------5---5-|
|-0-2-2-2-3-3-3-3-|-5-5-5-5-3-3-3-3-|-0-2-2-2-3-3-3-3-|-5-5-5-5-3-------|

|-----------------|-----------------|-----------------|---------11------|
|-----------------|-----------------|-----------------|-------------10--|
|-----------------|-----------------|-----------------|-----------------|
|-0-2-2-2-3-3-3-3-|-5-5-5-5-3-3-3-3-|-0-2-2-2-3-3-3-3-|-5-5-5-5---------|

|-----------------|-----------------|-----------------|-----------------|
|-----------------|-----------------|-----------------|-------------5---|
|-----------------|-----------------|-----------------|-----------5---5-|
|-0-2-2-2-3-3-3-3-|-5-5-5-5-3-3-3-3-|-0-2-2-2-3-3-3-3-|-5-5-5-5-3-------|

|-----------------|-----------------|-----------------|-----------------||
|-----------------|-----------------|-----------------|---------|3|-----||
|-----------------|-----------------|-----------------|---------320-|3|-||
|-0-2-2-2-3-3-3-3-|-5-5-5-5-3-3-3-3-|-0-2-2-2-3-3-3-3-|-5-5-5-5-----220-||

Play Riff 1 – 4x
Play Riff 2

Riff 2a
|-----------------|-----------------|-----------------|-----------------|
|-----------------|-----------------|-----------------|-----------------|
|-----------------|-----0-0-0---2-2-|-----------------|-----0-0-0---2-2-|
|-0---2-2-2---3-3-|-3---------------|-0---2-2-2---3-3-|-3---------------|

|-----------------|-----------------|-----------------||
|-----------------|-----------------|-----------------||
|-2---4-4-4---5-5-|-5---7-7-7---4---|(4)--------------||
|-----------------|-----------------|-----------------||

End
|-----------------|-----------------|-----------------|-----------------||
|-----------------|-----------------|-----------------|-----------------||
|-5-----------4---|---------3---4---|-----------------|-----------------||
|-------4---------|---3-------2---3-|-0-2-------------|(2)-----------\\\||


/////////////////////////////////////////////////////////////////////////////


Megadeth-Foreclosure Of A Dream

Riff 1
|-----------------|-----------------|-----------------|-----------------|
|-----------------|-----------------|-----------------|-----------------|
|-----------------|-----------------|-----------------|-----------------|
|-3---------------|(3)--------------|(3)--------------|---------------1-|

|-----------------|-----------------|-0---------------|-----------------||
|-----------------|-----------0-3---|-------3---------|-----------------||
|-----------------|---------3-------|-------------3---|---2-----1-------||
|-3---------------|(3)--------------|-----------------|-------------1---||

Riff 2
|-----------------|---------------0-|--|--|-2-----1-----0---|-----------------|
|-----------------|-------------0---|-4x--|-----------------|---4-----3---1---|
|-------------3---|---2-----1-------|--|--|-----------------|-----------------|
|-3-----1---------|-----------------|--|--|-----------------|-----------------|

|-----------------|-----------------|-----------------|-----------------||
|-2-----1-----0---|-----------------|-0---------------|-----------------||
|-----------------|---4-----3---2---|-------3-----1---|---0-------------||
|-----------------|-----------------|-----------------|---------3---1---||

Riff 3
|-----------------|-----------------|-----------------|-----------------||2x
|-----------------|-----------------|-----------------|---------R-------||
|---------R-------|-3-----1---111111|---------R-------|-3-----1---3--4--||
|-3-----1---111111|-----------------|-3-----1---111111|-----------------||

Play Riff 1
Play Riff 2
Play Riff 3 – 2x

Riff 4
|-----------------|-----------------||2x
|-----------------|---------R-------||
|---------R-------|-5-----3---5--6--||
|-5-----3---333333|-----------------||

Riff 5
|-----54------24--|-----------------|-----54------24--|-----------------||
|-----------------|-----54------24--|-----------------|-----54----------||
|-2-2-----2-2-----|-2-2-----2-2-----|-2-2-----2-2-----|-2-2-----2--3--4-||
|-----------------|-----------------|-----------------|-----------------||

Play Riff 1
Play Riff 2
Play Riff 3 – 2x
Play Riff 4 – 2x
Play Riff 5
Play Riff 1
Play Riff 3 – 2x

Riff 4a
|-----------------|-----------------|-----------------|-----------------||
|-----------------|---------R-------|-----------------|---------R-------||
|---------R-------|-5-----3---333333|---------R-------|-5-----3---5--6--||
|-5-----3---333333|-----------------|-5-----3---333333|-----------------||

Play Riff 3

Outro
|-----------------|-----------------|--|--|-0---------------|-----------------|
|-----------------|-----------------|-2x--|-------2-----3---|---------0-------|
|-------------3---|---2-----1---3---|--|--|-----------------|---4---------1---|
|-3-----1---------|-----------------|--|--|-----------------|-----------------|

|-0-----------3---|---------0-------|-----------------|-----------------||
|-------2---------|---3-------------|-----------------|-----------------||
|-----------------|-----------------|-----------------|-----------------||
|-----------------|-------------1---|-3---------------|(3)--------------||


/////////////////////////////////////////////////////////////////////////////


Megadeth-Sweating Bullets

Drums

Intro
|-----------------|-----------------|-----------------|-----------------|
|-----------------|-----------------|-----------------|-------0---------|
|---------------2-|-1---------------|---------------2-|-1-------2-------|
|-0-----2-3-------|-------3-2-----23|-0-----2-3-------|---------------3b|

|-----------------|-----------------|-----------------|-----------------||
|-----------------|-----------------|-----------------|-----------------||
|---------------2-|-1---------------|-----------------|-----------------||
|-0-----2-3-------|-------3-2-----23|-0---------------|(0)----------65--||

Riff 1
|-------------|-------------|--|--|-------------|-------------||
|-------------|-------------|-7x--|-------------|-------------||
|----R--------|-------------|--|--|----R--------|-------------||
|-0-----------|---------65--|--|--|-0-----------|----------\\\||

Riff 2
|-------------|-------------|-------------|-------------|
|-------------|-------------|-------------|-------------|
|-------------|-------------|-------------|-------------|
|-0--3--5-03-6|----5--0-65--|-0--3--5-03-6|----5--3-01--|

|-------------|-------------|-------------|-------------|
|-------------|-------------|-------------|-------------|
|-------------|-------------|-------------|-------------|
|-0--3--5-03-6|----5--0-65--|-0--3--5-01-0|(0)----------|

|-------------|-------------|-------------|-------------|
|-------------|-------------|-------------|-------------|
|-------------|-------------|-------------|-------------|
|-0--3--5-03-6|----5--0-65--|-0--3--5-03-6|----5--3-01--|

|-------------|-------------|-------------|-------------|
|-------------|-------------|-------------|-------------|
|-------------|-------------|-------------|-------7-----|
|-0--3--5-03-6|----5--0-65--|-6--5--3--1-0|(0)----------|

|-------------|-------------||
|-------------|-------------||
|-5-7---------|-------------||
|-------------|---------65--||

Play Riff 1
Play Riff 2 [without last two notes]

Riff 3
|-------------|-------------|-------------|-------------|
|-------------|-------------|-------------|-------------|
|---------R---|---R---------|---------R---|---R---------|
|-0000000--000|-0--0000-65--|-0000000--000|-0--0000-65--|

|-------------|-------------|-------------|-------------||4x
|-------------|-------------|-------------|-------------||
|---------R---|-0000001-0---|---------R---|---R---------||
|-3333333--333|----------1--|-0000000--000|-0--0000-65--||


Lead Into Next Section
|-------------|-------------|--|--|-------------|-----------------|-----------------||
|-3-----------|-------------|-4x--|-------------|-----------------|-----------------||
|----3--2-----|-------------|--|--|-------------|-----------------|-----------------||
|----------3--|-0-----------|--|--|(0)----------|-1---------------|(1)----------2---||

Riff 4
|-----------------|-----------------|-----------------|-----------------||4x
|-----------------|-----------------|-----------------|-----------------||
|-5-------4-------|-3-------2-------|-1-------0-------|-----------------||
|---0-2-3---0-2-3-|---0-2-3---0-2-3-|---0-2-3---0-2-3-|-4-3-2-1-0-1-2-3-||

Lead Into Next Section
|-----------------|-------------|-------------|----|-------------||
|-----------------|-------------|-------------|-6x-|-------------||
|---R-------R-----|-------------|-------------|----|-------------||
|-0-------0-------|-0-----------|(0)----------|----|(0)------65--||

Play Riff 1
Play Riff 2 [without last row]

Riff 2a
|-------------|-------------|-------------|-------------|3x this row
|-------------|-------------|-------------|-------------|
|-------------|-111000------|-------------|-111000------|
|-000333555333|-------333555|-000333555333|-------333111|

|-------------|-------------|-------------|-------------|
|-------------|-------------|-------------|-------------|
|-------------|-111000------|-------------|-------7-----|
|-000333555333|-------333555|-6--5--3--1-0|(0)----------|

|-------------|-------------|-----||
|-------------|-------------|-----||
|-5-7---------|-------------|-----||
|-------------|---------65--|-0---||


/////////////////////////////////////////////////////////////////////////////


Megadeth-This Was My Life

Rest 4 Bars

Riff 1
|-----------------|-----------------|-----------------|-----------------|
|-------R---------|-----------------|-2---------------|-----------------|
|-2-1-0-----------|-0-----R---------|-----------------|-----------------|
|-----------3-----|---4-3-----1-----|-----0-0-0-0-0-0-|-0-0-0-0-0-0-0-0-|

|-----------------|-----------------||
|-------R---------|-----------------||
|-2-1-0-----------|-0-----R---------||
|-----------3-----|---4-3-----1-----||

Pre-Riff 2
|-----------------|-----------------|-----------------|-R-------R-------|
|-----------------|-R---------------|-R-------------0-|-------1-------2-|
|-----R---------3-|---------------4-|-----------------|-----------------|
|-0---------------|-----------------|-----------------|-----------------|

|-----------------|-----------------|-----------------|-----------------||
|-R---------------|-R---------------|-----------------|-----------------||
|---------------3-|-----------------|-R-------------2-|---0-----0-------||
|-----------------|---------------2-|-----------------|-----3-2---3-2-1-||

Riff 2
|-----------------|-----------------|-----------------|-----------------|
|-----------------|-----------------|---------------0-|---0-0-1---1-1-2-|
|---------------3-|---3-3-3-3-3-3-4-|---4-4-4-4-4-4---|-----------------|
|-0---0-0-0-0-0---|-----------------|-----------------|-----------------|

|-----------------|-----------------|-----------------|-----------------||
|---2-2-2-2-0-----|-----------------|-----------------|-----------------||
|-------------4-3-|---3-3-3-3-1-0---|---------------2-|---0-----0-------||
|-----------------|---------------2-|---2-2-2-2-2-2---|-----3-2---3-2-1-||

Riff 3
|-----------------|-------0---------|-----------------|-----------------|
|-----------------|-2-1-2---4-2-----|-----------------|-----------------|
|---R-------------|-------------2-3-|---3-3-3-3-3-3---|---------------2-|
|-2---------------|-----------------|---------------2-|---2-2-2-2-2-2---|

|-----------------|-------0---------|-----------------|-----------------|
|-----------------|-2-1-2---4-2-----|-----------------|-----------------|
|---2-2-2-2-2-2-2-|-------------2-3-|---3-3-3-3-3-3---|---------------2-|
|-----------------|-----------------|---------------2-|---2-2-2-2-2-2---|

|-----------------|-----------------|-----------------||
|-----------------|-----------------|-----------------||
|---2-2-2-2-2-2-2-|-7---------------|-----------------||
|-----------------|-----0-0-0-0-0-0-|-0-0-0-0-0-0-0-0-||

Play Riff 1
Play Riff 2 - 2x
Play Riff 3
Play Riff 1

Riff 4
|-----------------|-----------------|-----------------|-----------------|
|-2---------------|-----------------|---------------0-|---------------2-|
|---------------3-|---------------4-|-----------------|-----------------|
|-----0-0-0-0-0---|---0-0-0-0-0-0---|---0-0-0-0-0-0---|---0-0-0-0-0-0---|

|-----------------|-----------------|-----------------|-----------------|
|-----------------|-----------------|-----------------|---------------2-|
|---------------3-|-----------------|---------------2-|(2)--3-----------|
|---0-0-0-0-0-0---|---0-0-0-0-0-0-2-|---0-0-0-0-0-0---|---------3-2-1---|

|-----------------|-----------------|-----------------|-----------------|
|-----------------|-----------------|---------------0-|---------------2-|
|---------------3-|---------------4-|-----------------|-----------------|
|---0-0-0-0-0-0---|---0-0-0-0-0-0---|---0-0-0-0-0-0---|---0-0-0-0-0-0---|

|-----------------|-----------------|-----------------|-----------------||
|-----------------|-----------------|-----------------|---------------2-||
|---------------3-|-----------------|---------------2-|(2)--3-----------||
|---0-0-0-0-0-0---|---0-0-0-0-0-0-2-|---0-0-0-0-0-0---|---------3-2-1---||

Solo
|-----------------|-----------------|-----------------|-----------------|
|---2---------2---|---2---------2---|---2---------2---|---2-----0---1---|
|---------2-----2-|---------3-----3-|---------4-----4-|---------------2-|
|-0---------3-----|-0---------3-----|-0---------3-----|-0---------3-----|

|-----------------|-----------------|-----------------|-----------------||
|---2---------2---|---2---------2---|---2---------2---|---2-----0-------||
|---------2-----2-|---------3-----3-|---------4-----4-|-----------------||
|-0---------3-----|-0---------3-----|-0---------3-----|-0---------3-2-1-||

Riff 5
|-----------------|-----------------||8x
|-----------------|-----------3-----||
|-----------------|-----------------||
|-0-----0-3-----3-|-2-----2-1-----1-||

Riff 5a
|-----------------|-----------------|-----------------|-----------------|
|-----------------|-----------------|-----------------|-----------------|
|-----------------|-----------------|-----------------|-----------------|
|-0-0-0-0-3-3-3-3-|-2-2-2-2-1-1-1-1-|-0-0-0-0-3-3-3-3-|-2-2-2-2-1-1-1-1-|

|-----------------|-----------------|-----------------|-----------------|
|-----------------|-----------------|-----------------|-----------------|
|-----------------|-----------------|-----------------|-|3|-|3|-|3|-|3|-|
|-0-0-0-0-3-3-3-3-|-2-2-2-2-1-1-1-1-|-0-0-0-0-3-3-3-3-|-222-222-111-111-|

|-----||
|-----||
|-----||
|-0---||


/////////////////////////////////////////////////////////////////////////////


Megadeth-Countdown To Extinction

Intro
|-----------------|-----------------|-----------------|-----------------|
|-----------------|-3---------------|-----------------|-----3-2---------|
|-0-----------2-3-|-------------2-3-|-------------2-3-|-------------3-0-|
|-----------------|-----------------|-3-3-3-3-3-3-----|-4-4-------------|

|-----------------|-1010101010101010|-7-7-7-7-7-7-7-7-|---------9-9-9-9-|
|-7---7-7-7-7-7-8-|-----------------|-----------------|-5-5-5-5---------|
|-----------------|-----------------|-----------------|-----------------|
|-----------------|-----------------|-----------------|-----------------|

|-----------------14-|-1010101010109109-|-7-7-7-7-7-7-----9-|---------9-9-9-9-||
|-7-7-7-7-7-7-1214---|------------------|-------------1012--|-5-5-5-5---------||
|--------------------|------------------|-------------------|-----------------||
|--------------------|------------------|-------------------|-----------------||

Riff 1
|-----------------|-----------------|-----------------|-----------------||4x
|-----------------|-3-3-3-3-3-3-3-3-|-0-0-0-0-0-0-0-0-|---------2-2-2-2-||
|-0-0-0-0-0-0-3/--|-----------------|-----------------|-----------------||
|-----------------|-----------------|-----------------|-3-3-3-3---------||

Riff 2
|-----------------|-----------------|-----------------|-----------------||
|-----------------|-3-----3-3-------|-----------------|-----3-2---------||
|-0-----0-0---2-3-|-------------2-3-|-------------2-3-|-------------3---||
|-----------------|-----------------|-3-3-3-3-3-3-----|-4-4-----------3-||

Riff 3
|-----------------|-----------------|-----------------|-----------------|
|-----------------|-----------------|-----------------|-----------------|
|-0-000-000-000-00|-----------------|-3-333-333-333-33|-5-555-553-333-33|
|-----------------|-3-333-333-333-33|-----------------|-----------------|

|-----------------|-----------------|-----------------|-----------------|
|-----------------|-----------------|-----------------|-----------------|
|-0-000-000-000-00|-2-222-222-222-22|-3-333-333-333-33|-5-555-553-333-33|
|-----------------|-----------------|-----------------|-----------------|

|-----------------|-----------------|-----------------|-----------------|
|-----------------|-----------------|-----------------|-----------------|
|-0-000-000-000-00|-----------------|-3-333-333-333-33|-5-555-553-333-33|
|-----------------|-3-333-333-333-33|-----------------|-----------------|

|-----------------|-----------------|-----------------|-----------------||
|-7-777-777-777-77|-5-555-555-555-55|-7---------------|-----------------||
|-----------------|-----------------|-------8-----7---|-----------------||
|-----------------|-----------------|-----------------|---3-----0--/6---||

Lead Back Into Verse
|-----------------|-----------------||
|-----------------|-----------------||
|-0---------------|(0)--------------||
|-----------------|-----------------||

Play Riff 1 – 4x
Play Riff 2
Play Riff 3 – 2x

Solo
|-----------------|-----------------|-----------------|-----------------|
|-----------5-----|-----------------|-----------5-----|-----------------|
|-0-0-----0-------|-------------2-3-|-----------------|-----------------|
|-----------------|-3-3-------------|-2-2-----2-------|-1-1---------3---|

|-----------------|-----------------|-----------------|-----------------|
|-----------5-----|-----------5-----|-----------5-----|-----------------|
|-0-0-----0-------|-----------------|-3-3-----3-------|-5-5-5-5-5-5-5-5-|
|-----------------|-3-3-----3-------|-----------------|-----------------|

|-----------------|-----------------|-----------------|-----------------|
|-----------------|-----------------|-----------------|-----------------|
|-0---------------|-----------------|-----------------|-----------------|
|-----------------|-3---------------|-2---------------|-1-----------3---|

|-----------------|-----------------|-----------------|-----------------||
|-----------------|-----------------|-----------------|-----------------||
|-0---------------|-2---------------|-3---------------|-5---------------||
|-----------------|-----------------|-----------------|-----------------||

Play Riff 1 – 4x
Play Riff 3

End
|-----||
|-----||
|-0---||
|-----||


/////////////////////////////////////////////////////////////////////////////


Megadeth-High Speed Dirt

Intro
|-----------------|-----------------|-----------------|-----------------|
|-----R-----------|-----------------|-----------------|-----------------|
|-0---------------|-----------------|-----------------|---------------0-|
|-----------------|-----------------|-----------------|-----------------|

|-----------------|-----------------|-----------------|-----------------||
|-----R-----------|-----------------|-----------------|-----------------||
|(0)--------------|-----------------|-----------3-4-5-|---3-4-5---3-4-5-||
|-----------------|-----------------|-----------------|-----------------||

Riff 1  [it's a long one]
|-----------------|-----------------|-----------------|-----------------|
|-----------------|-----------------|-----------------|-----------------|
|-3---0-0-0-3-0---|-------5---3-0-3-|(3)--0-0-0-3-0---|-------5---3-0-3-|
|---------------2-|---2-2-----------|---------------2-|---2-2-----------|

|-----------------|-----------------|-----------------|-----------------|2x this row
|-----------------|-----------------|-----------------|-----------------|
|(3)--0-0-0-3-0---|-------5---3-0-3-|(3)--0-0-0-3-0---|-------5---3-0-3-|
|---------------2-|---2-2-----------|---------------2-|---2-2-----------|

|-----------------|-----------------|-----------------|-----------------|
|-----------------|-----------------|-----------------|-----------------|
|(3)--0-0-0-3-0---|-------5---3-0-3-|(3)--0-0-0-3-0---|-------5-----0-0-|
|---------------2-|---2-2-----------|---------------2-|---2-2-----2-----|

|-----------------|-----------------|-----------------|-----------------|
|-----------------|-----------------|-----------------|-------------5---|
|(0)--0-0-0-2-0-3-|-0-5-0-6---5-3-0-|(0)--0-0-0-2-0-3-|-0-5-0-6---7---0-|
|-----------------|-----------------|-----------------|-----------------|

|-----------------|-----------------|-----------------|-----------------|
|-----------------|-----------------|-----------------|-------------5---|
|(0)--0-0-0-2-0-3-|-0-5-0-6---5-3-0-|(0)--0-0-0-2-0-3-|-0-5-0-6---7---3-|
|-----------------|-----------------|-----------------|-----------------|

|-----------------|-----------------|-----------------|-----------------|
|-----------------|-----------------|-----------------|-----------------|
|(3)--0-0-0-0-0-0-|-0-0-0-0-0-0-0-0-|-----------3-4-5-|---3-4-5---3-4-5-|
|-----------------|-----------------|-2---2-2-2-------|-----------------|

|-----------------|-----------------|-----------------|-----------------|2x this row
|-----------------|-----------------|-----------------|-----------------|
|-3---0-0-0-0-0-0-|-0-0-0-0-0-0-0-0-|-----------3-4-5-|---3-4-5---3-4-5-|
|-----------------|-----------------|-2---2-2-2-------|-----------------|

|-----------------|-----------------|-----------------|-----------------|
|-----------------|-----------------|-----------------|-----------------|
|-3---0-0-0-0-0-0-|-0-0-0-0-0-0-0-0-|-----------3-4-5-|---3-4-5---------|
|-----------------|-----------------|-2---2-2-2-------|-----------0-3-0-|

|-----------------|-----------------|-----------------|-----------------||2x whole riff
|-----------------|-----------------|-----------------|-------------10--||
|---------7-------|---------8---9---|---------10------|---------11------||
|(0)--------------|-0-0---0---------|-0---------------|-0-0---0---------||

Riff 2
|-----------------|-----------------|-----------------|-----------------||4x
|-----------------|-----------------|-----------------|-----------------||
|-3---0-0-0-0-0-0-|-0-0-0-0-0-0-0---|-----------3-4-5-|---3-4-5---3-4-5-||
|-----------------|---------------3-|-2---2-2-2-------|-----------------||

Riff 3
|-----------------|-----------------|
|-----R-----------|-----R-----------|
|-0----------0--0-|-0----------0--0-|
|-----------------|-----------------|

|-----------------|-----------------|-----------------|-----------------|
|-----------------|-----------------|-----------------|-----------------|
|-0---0-0-0-0-----|-------5---3---0-|(0)--0-0-0-0-----|-------5---3---0-|
|-------------3-2-|---2-2-------3---|-------------3-2-|---2-2-------3---|

|-----------------|-----------------|-----------------|-----------------|3x this row
|-----------------|-----------------|-----------------|-----------------|
|(0)--0-0-0-0-----|-------5---3---0-|(0)--0-0-0-0-----|-------5---3---0-|
|-------------3-2-|---2-2-------3---|-------------3-2-|---2-2-------3---|

|-----------------|-----------------||
|-----R-----------|-----R-----------||
|-0----------0--0-|-0----------0--0-||
|-----------------|-----------------||

Riff 1a
|-----------------|-----------------|-----------------|-----------------|
|-----------------|-----------------|-----------------|-----------------|
|-3---0-0-0-3-0---|-------5---3-0-3-|(3)--0-0-0-3-0---|-------5---3-0-3-|
|---------------2-|---2-2-----------|---------------2-|---2-2-----------|

|-----------------|-----------------|-----------------|-----------------|2x this row
|-----------------|-----------------|-----------------|-----------------|
|(3)--0-0-0-3-0---|-------5---3-0-3-|(3)--0-0-0-3-0---|-------5---3-0-3-|
|---------------2-|---2-2-----------|---------------2-|---2-2-----------|

|-----------------|-----------------|-----------------|-----------------|
|-----------------|-----------------|-----------------|-----------------|
|(3)--0-0-0-3-0---|-------5---3-0-3-|(3)--0-0-0-3-0---|-------5-----0-0-|
|---------------2-|---2-2-----------|---------------2-|---2-2-----2-----|

|-----------------|-----------------|-----------------|-----------------||2x this row
|-----------------|-----------------|-----------------|-------------5---||
|(0)--0-0-0-2-0-3-|-0-5-0-6---5-3-0-|(0)--0-0-0-2-0-3-|-0-5-0-6---7---0-||
|-----------------|-----------------|-----------------|-----------------||

Break 2
|-----------------|-----------------|-----------------|-----------------|
|---R-------------|-----------------|-----------------|-----------------|
|(0)--------------|-----------------|-----------------|---------------0-|
|-----------------|-----------------|-----------------|-----------------|

|-----------------|-----------------|-----------------|-----------------||
|---R-------------|-----------------|-----------------|-----------------||
|(0)--------------|-----------------|-----------------|-----------------||
|-----------------|-----------------|-----------------|-----------------||

Riff 4
|-----------------|-----------------|--|--|-----------------|----||
|-----------------|-----------------|-8x--|-----R-----------|-4x-||
|-0---0-0-0-------|-----0-5---0-3---|--|--|-0----------0--0-|----||
|-----------3-0-2-|---2-------------|--|--|-----------------|----||

Outro
|-----------------|-----------------|-----------------|-----------------|
|-----------------|-----------------|-----------------|-----------------|
|-3---0-0-0-3-0---|-------5---3-0-3-|(3)--0-0-0-3-0---|-------5---3-0-3-|
|---------------2-|---2-2-----------|---------------2-|---2-2-----------|

|-----------------|-----------------|-----------------||
|-----------------|-----------------|-----------------||
|(3)--0-0-0-3-0---|-------5---3-0-3-|(3)--0-0-0-0-0---||
|---------------2-|---2-2-----------|---------------2-||


/////////////////////////////////////////////////////////////////////////////


Megadeth-Psychotron

Intro
|-----------------|-----------------|-----------------|-----------------|
|-----2-----------|-----------------|-----2-----------|-------------4-3-|
|-----------2-----|-2/3-------------|-----------2-----|-2/3-------------|
|-0---------------|-----0-3---0-2-1-|-0---------------|-----0-3---0-----|

|-----------------|-----------------|-----------------|-----------------|
|-2---2-----------|-----------------|-----2-----------|-------------4-3-|
|-----------2-----|-2/3-------------|-----------2-----|-2/3-------------|
|-----------------|-----0-3---0-2-1-|-0---------------|-----0-3---0-----|

|---R-------------|-----------------|-----------------|-----------------|
|-2---------------|-----------------|-----------------|-----------------|
|-----------------|-----------------|-----------------|-------------R---|
|-----------------|-----------------|-----------------|-----------1---1-|

|-----------------|-----------------|-----------------|-----------------|
|-----------------|-----------------|-----------------|-----------------|
|---R---R---------|---R---R---------|---R---R---------|-----------------|
|-0---0-----0-1/-3|-0---0-----0-1---|-0---0-----0-1/-3|-0-001-----------|

|-----------------||
|-----------------||
|-----------------||
|(1)------------1-||

Riff 1
|-----------------|-----------------|-----------------|-----------------|
|-----------------|-----------------|---------------2-|---0-------------|
|-----R-----R-----|-----R-----R-----|-----R-----R-----|-----2-1-0---0-1-|
|-0-0---0-0-------|-0-0---0-0-------|-0-0---0-0-------|-----------3-----|

|-----------------|-----------------|-----------------|-----------------||2x
|-----------------|-----------------|-----------------|---------0-------||
|-----R-----R-----|-----R-----R-----|-----R-----R---2-|---0-3-2---3-----||
|-0-0---0-0-------|-0-0---0-0-------|-0-0---0-0-------|-------------2-3-||

Riff 2
|-----------------|-----------------|-----------------|-----------------||
|-----------------|-----------------|-----------------|-----------------||
|-----R---7\------|-----R---7\------|-----R---7\------|-----------------||
|-0-0---0---------|-0-0---0---------|-0-0---0-----3---|-------------1---||

Riff 3
|-----------------|-----------------|-----------------|-----------------|
|-----2-----------|-----------------|-----2-----------|-------------4-3-|
|-----------2-----|-2/3-------------|-----------2-----|-2/3-------------|
|-0---------------|-----0-3---0-2-1-|-0---------------|-----0-3---0-----|

|-----------------|-----------------|-----------------|-----------------|
|-2---2-----------|-----------------|-----2-----------|-----------------|
|-----------2-----|-2/3-------------|-----------2-----|-2/3-3-3-3-3-3-3-|
|-----------------|-----0-3---0-2-1-|-0---------------|-----------------|

|-----------------||
|-----------------||
|-3-2-0---2-0-----||
|-------3-----3-1-||

Play Riff 1 – 2x
Play Riff 2
Play Riff 3 – 2x

Solo
|-----------------|-----------------|-----------------|-----------------|
|-----------------|-----------------|-----------------|-----------------|
|-R-----R-----R---|-------R-----R---|-------R-----R---|-------R-----R---|
|---222---222---5-|-2-222---222---3-|-2-222---222---5-|-2-222---2-3---3-|

|-----------------|-----------------|-----------------|-----------------|
|-----------------|-----------------|-----------------|-----------------|
|-------R-----R---|-------R-----R---|-------R-----R---|-----------------|
|-2-222---222---5-|-2-222---222---3-|-2-222---222---5-|-2-223-----------|

|-----------------||
|-----------------||
|-----------------||
|(3)------------1-||

Play Riff 1

Riff 1a
|-----------------|-----------------|-----------------|-----------------|
|-----------------|-----------------|---------------2-|---0-------------|
|-----R-----R-----|-----R-----R-----|-----R-----R-----|-----2-1-0---0-1-|
|-0-0---0-0-------|-0-0---0-0-------|-0-0---0-0-------|-----------3-----|

|-----------------|-----------------|-----------------|-----------------||
|-----------------|-----------------|-----------------|-----------------||
|-----R-----R-----|-----R-----R-----|-----R-----R-----|-----------------||
|-0-0---0-0-------|-0-0---0-0-------|-0-0---0-0-----3-|(3)----------1---||

Play Riff 3 – 2x

Outro
|-----------------|-----------------|-----------------|-----------------|3x this row
|-----------------|-----------------|-----------------|-----------------|
|---R---R---------|---R---R---------|---R---R---------|---R---R-----R---|
|-0---0-----0-1/-3|-0---0-----0-1---|-0---0-----0-1/-3|-0---0-----1---1-|

|-----------------|-----------------|-----------------|-----------------|-----||
|-----------------|-----------------|-----------------|-----------------|-----||
|---R---R---------|---R---R---------|---R---R---------|---R-----------0-|-----||
|-0---0-----0-1/-3|-0---0-----0-1---|-0---0-----0-1/-3|-0---1---0-3-----|-0---||


/////////////////////////////////////////////////////////////////////////////


Megadeth-Captive Honour

Rest 32 bars (about a minute)

Intro
|-----------------|-----------------|-----------------|-----------------|3x this row
|-----------------|-----------------|-----------------|-----------------|
|-----------------|-----------------|-----------------|-3---------------|
|-2---------------|-1---------------|-0---------------|---------3-------|

|-----------------|-----------------|-----------------|-----------------|
|-----------------|-----------------|-----------------|-----------------|
|-----------------|-----------------|-----------------|-3-2-0---2---0-2-|
|-2---------------|-1---------------|-0---------------|-------2---2-----|

|-----------------|-----------------|-----------------|-----------------|4x this row
|-----------------|-----------------|-----------------|-----------------|
|-----------------|-----------------|-----------------|-2-3-------------|
|-2---2-2-2---2---|-1---1-1-1---1---|-0---0-0-0---0---|-----0-0-2-3-0-0-|

|-----------------|-----------------|-----------------|-----------------|
|-----------------|-----------------|-----------------|-----------------|
|-----------------|-----------------|-----------------|-----------------|
|-2---2---2---2---|-2---2---2---2---|-2---2---2---2---|-2---2---2---2---|

|-----------------|-----------------|-----------------|-----------------||
|-----------------|-----------------|-----------------|-----------------||
|-----------------|-----------------|-----------------|-3-2-0---2---0-2-||
|-2---2---2---2---|-2---2---2---2---|-2---2---2---2---|-------2---2-----||

Riff 1
|-----------------|-----------------|-----------------|-----------------||2x
|-----------------|-----------------|-----------------|-----------------||
|-----------------|-3---3-3-3-3-3-3-|-2---2-2-2-2-2-2-|-0-0-0-0-2-2-2---||
|-2---2-2-2-2-2-2-|-----------------|-----------------|---------------3-||

Riff 2
|-----------------|-----------------|-----------------|-----------------||4x
|-----------------|-----------------|-----------------|-----------------||
|-----------------|-----------------|-2---2-2-2-2-2-2-|-3-2-0---2---0-2-||
|-2---2-2-2-2-2-2-|-1---1-1-1-1-1-1-|-----------------|-------2---2-----||

Play Riff 1 – 2x

Riff 3
|-----------------|-----------------|-----------------|-----------------||4x
|-----------------|-----------------|-----------------|-----------------||
|---------0-------|-0-0-0---0-0-3---|---------0-------|-----------------||
|-2---2-2-----0---|-----------------|-2---2-2-----0---|-0-0-3---0-0-3---||

Play Riff 2 – 4x
Play Riff 1 – 2x
Play Riff 3 – 4x

Riff 4
|-----------------|-----------------|-----------------|-----------------||4x
|-----------------|-----------------|-----------------|-----------------||
|---------0-------|---------0-------|---------0-------|-3-2-0-----------||
|-2-----2-----3-2-|-1-----1-----3-1-|-0-----0-----2-0-|---------3-2-0---||

Outro
|-----------------|-----------------|-----------------|-----------------|
|-----------------|-----------------|-----------------|-----------------|
|-----------------|-----------------|-2---------------|-0-------2-------|
|-2---------------|-1---------------|-----------------|-----------------|

|-----------------|-----------------|-----||
|-----------------|-----------------|-----||
|-----------------|-3-2-0---2---0-2-|-----||
|-2---------------|-------2---2-----|-2---||


/////////////////////////////////////////////////////////////////////////////


Megadeth-Ashes In Your Mouth

Intro
|-----------------|-----------------|-----------------|-----------------|3x this row
|---------8-------|-------7---------|-----------------|-----------------|
|-----8-----------|-----7-----------|-------------5432|-------------5432|
|-6-------------6-|-5-------3---1---|-00-01-10-00-----|-00-01-10-00-----|

|-----------------|-----------------|-----------------|-----------------|
|---------8-------|-------7---------|-----------------|-----------------|
|-----8-----------|-----7-----------|-0000000000000000|-1111111111111111|
|-6-------------6-|-5-------3---1---|-----------------|-----------------|

|-----------------|-----------------|-------------------------|
|-----------------|---------------R-|-------------------------|
|-2222222222222222|-3333333377777---|---R---------------------|
|-----------------|-----------------|-0-----------------------|

|---------------------------||
|---------------------------||
|---------------------------||
|-----------------------3-2-||

Riff 1 (weird timing)
|-------------------------|---------------------------||
|-------------------------|---------------------------||
|---R---3-----R---3-------|---R---3-----R---3---------||
|-0---0---3-0---0---3-0-3-|-0---0---3-0---0---3-0-3-2-||

Riff 2
|-----------------|-----------------|-----------------|-----------------|
|-----------------|-----------------|-----------------|-----------------|
|-----R---R---R---|-----R---R---R---|-----R---R---R---|-----R---R-1-00--|
|-0-0---0---0-----|-0-0---0---0-----|-0-0---0---0-----|-0-0---0-------3-|

|-----------------|-----------------|-----------------|-----------------|---------|
|-----------------|-----------------|-----------------|-----------------|---------|
|-----R---R---R---|-----R---R---R---|-----R---R---R---|-----R---R-1-00--|-R-1-00--|
|-0-0---0---0-----|-0-0---0---0-----|-0-0---0---0-----|-0-0---0-------3-|-------3-|

|-----------------|-----------------|-----------------|-----------------|
|-----------------|-----------------|-----------------|-----------------|
|-----R---R---R---|-----R---R---R---|-----R---R---R---|-----R---R-1-00--|
|-0-0---0---0-----|-0-0---0---0-----|-0-0---0---0-----|-0-0---0-------3-|

|-----------------|-----------------|-----------------|-----------------|
|-----------------|-----------------|-----------------|-----------------|
|-----R---R---R---|-----R---R---R---|-----R---R---R---|-----R---R-1-00--|
|-0-0---0---0-----|-0-0---0---0-----|-0-0---0---0-----|-0-0---0-------3-|

|-----------------||
|-----------------||
|-R-1-00--R-1-00--||
|-------3-------3-||

Play Riff 1
play Riff 2
Play Riff 1

Riff 3
|-----------------|-----------------|-----------------|-----------------|
|-----------------|---------R-------|-----------------|---------R-------|
|-7-7-7-7-7-7-7-7-|-6-6-6-7---7-6---|-5-5-5-5-5-5-5-5-|-4-4-4-5---4-5---|
|-----------------|-----------------|-----------------|-----------------|

|-----------------|-----------------|-----------------|---------------5-||
|-----------------|---------R-------|-----------------|-------------8---||
|-3-3-3-3-3-3-3-3-|-2-2-2-3---3-2---|-1-1-1-1-1-1-----|---3-2-----8-----||
|-----------------|-----------------|-------------1-3-|-0-----0-6-------||

Riff 4
|-----------------|-----------R-----|-----------------|-----------------||4x
|---------5-------|-5-4-----5---4---|-----4-------2---|-------7---------||
|-----7-------7---|-----6-----------|-5-----5-3-----0-|---4-5---5-------||
|-0-0---0---0---0-|-------7---------|-----------------|-----------3-2---||

Play Riff 3

Riff 5
|-----------------|-----------------|-----------------|-----------------|
|-----------------|-----------------|-----------------|-----------------|
|-----------------|-----------------|-----------------|---------------1-|
|-0-0000-00-0000-0|-0-0000-00-00001-|-0-0000-00-0000-0|-0-0000-00-0000--|

|-----------------|-----------------|-----------------|-----------------||
|-----------------|-----------------|-----------------|---R-------------||
|---------------2-|---------------3-|-----------------|-2---------------||
|-0-0000-00-0000--|-0-0000-00-0000--|-0-0000-00-000000|-----------------||

Riff 6
|-----------------|-----------------|-----------------|-----------------|
|-----------------|-----R---R---R---|-----------------|-----------------|
|-----------------|---2---3---2-----|-----------------|-----23455432----|
|-0-0000-00-0000-0|-0-------------3-|-2-22222222222222|-0235--------5432|

|-----------------|-----------------|-----------------|-----------------||
|-----------------|-----R---R---R---|-----------------|---R-------------||
|-----------------|---2---3---2-----|-----------------|-2---------------||
|-0-0000-00-0000-0|-0-------------3-|-2-22222222222222|-----------------||

Riff 5a
|-----------------|-----------------|-----------------|-----------------||
|-----------------|-----------------|-----------------|-----------------||
|-----------------|-----------------|-----------------|---------------1-||
|-0-0000-00-0000-0|-0-0000-00-00001-|-0-0000-00-0000-0|-0-0000-00-0000--||

Play Riff 6 - 2x

Bass Solo
|----4------------||
|-4-----5-4--0----||
|---------------2-||
|-----------------||

Riff 5b
|-----------------|-----------------|-----------------|-----------------|2x this row
|-----------------|-----------------|-----------------|-----------------|
|-----------------|-----------------|-----------------|-----------------|
|-0-0000-00-0000-0|-0-0000-00-0000-0|-0-0000-00-0000-0|-0-0000-00-00003-|

|-----------------|-----------------|-----------------|-----------------|
|-----------------|-----------------|-----------------|-----------------|
|-----------------|-----------------|-----------------|-----------------|
|-0-0000-00-0000-0|-0-0000-00-00003-|-0-0000-00-0000-0|-0-0000-00-00003-|

|-----------------|-----------------|----4------------|-----------------||
|-----------------|-----------------|-4-----5-4--0----|------------0----||
|-----------------|-----------------|---------------2-|----2----------2-||
|-0-0000-00-00003-|-0-0000-00-00003-|-----------------|-2-----3-2-------||

Pre-Riff 1
|-------------------------|---------------------------||
|-------------------------|---------------------------||
|---R---------------------|---------------------------||
|-0-----------------------|-----------------------3-2-||

Play Riff 1

Riff 3a
|-----------------|-----------------|-----------------|-----------------|
|---R-------------|---------R-------|-----------------|---------R-------|
|-7---------------|-------7---7-6---|-5-5-5-5-5-5-5-5-|-4-4-4-5---4-5---|
|-0---------------|-----------------|-----------------|-----------------|

|-----------------|-----------------|-----------------|---------------5-||
|-----------------|---------R-------|-----------------|-------------8---||
|-3-3-3-3-3-3-3-3-|-2-2-2-3---3-2---|-1-1-1-1-1-1-----|---3-2-----8-----||
|-----------------|-----------------|-------------1-3-|-0-----0-6-------||

Riff 4a
|-----------------|-----------------|-----------------|-----------------||4x
|-----------------|-----------------|-----------------|-----------------||
|---R-------------|-----------------|-5-------3-----0-|---0-0-0-0-------||
|-0---------------|-----------------|-----------------|-----------3-2---||

Play Riff 3 – 2x

Outro
|-R---------5-R---|---------5-------|-5-R---------5-R-|---------5-|
|---------8-------|-------8-------8-|-----------8-----|-------8---|
|-------8---------|-----8-------8---|---------8-------|-----8-----|
|-----6-----------|---6-------6-----|-------6---------|---6-------|

|-----------------|-----------------||
|-----------------|-----------------||
|-----------------|-----------------||
|-0---------------|(0) drum solo ---||

End
|---------||repeat and Fade
|---------||
|-----R---||
|-0-------||


questions or comments, send to my ultimate-guitar profile.
comments
We did not receive enough feedback on this tab! Please rate:
print report bad tab
1 2 3 4 5
2 comments total.
0 reply
wangatangs wrote on March 13 2012, 04:16 pm

Thanks! This was an awesome album to play along with! Again, you're awesome.

0 reply
fraberjam wrote on May 3 2012, 08:03 pm

thanks man

I want to post or [tab]
guest
You may want to rate the tab now too:
select rating
Please do not post tabs as comments. Select "correction" instead!