Oops, an error
Loading. Please wait.

Countdown To Extinction Tab

ver1
ver1

Album

Whole song

Video

More versions @911Tabs.com
39,420 views 48 this week
1 commentread comment
1 2 3 4 5
accurate
x 6
Autoscroll
+/-
esc
set tempo
stop
Contributor
Hey! There's an official Ultimate Guitar app which is ideal
for learning songs when you're away from computer. Get the app
WARNING: You are trying to view
                                    content from Ultimate-Guitar.com
                                    in an unauthorized application,
                                    which is prohibited.

                                    Please use an official Ultimate
                                    Guitar Tabs application for iPhone,
                                    iPad or Android to access legitimate
                                    chords, guitar, bass, and drum tabs
                                    from Ultimate-Guitar.com database.

                                    Type "ultimate guitar tabs" in Apple
                                    App Store's or Android Market's
                                    search to find the application.
Band- Megadeth
Album- Countdown To Extinction

1.SKIN O' MY TEETH

Standard Tuning

  Fast Rock = 192
 |-------------------------------------------------------------------------|
 |-------------------------------------------------------------------------|
 |-------------------------------------------------------------------------|
 |-------------------------------------------------------------------------|
 |---7-----6------5-------4------1-----2-----------------------------------|
 |---5-----4------3-------2------3-----0-----------------------------------|


 |-------------------------------------------------------------------------|
 |-------------------------------------------------------------------------|
 |-------------------------------------------------5---7br½--(7)---5-------|
 |---7-------------7-------------7-----------------5---7br½--(7)---5-------|
 |---0----0---0----0----0---0----0-----0---0---0-----------------------0---|
 |-------------------------------------------------------------------------|
          .   .         .   .          .   .   .                       .

 |-------------------------------------------------------------------------|
 |-------------------------------------------------------------------------|
 |-------------------------------------------------5---7br½--(7)---5-------|
 |---7-------------7-------------7-----------------5---7br½--(7)---5-------|
 |---0----0---0----0----0---0----0-----0---0---0-----------------------0---|
 |-------------------------------------------------------------------------|
          .   .         .   .          .   .   .                       .


 |-----------------------------------------|
 |-----------------------------------------|
 |-----------------------------------------|
 |---7-------------7-------------7---------|
 |---0----0---0----0----0---0----0-----0---|
 |-----------------------------------------|
          .   .         .   .          .


  Verses 1,2,& 3.-

 |-------------------------------------------------------------------------|
 |-------------------------------------------------------------------------|
 |---------------5------------7----------5---7br½-(7)---5------------------|
 |--7------------5------------7------7---5---7br½-(7)---5----7-------------|
 |--0----0---0--------0---0----------7-------------------------------------|
 |-------------------------------------------------------------------------|
         .   .        .   .

 |-------------------------------------------------------------------------|
 |-------------------------------------------------------------------------|
 |---------------5-----------2----------5---7br½-(7)----5------------------|
 |--7------------5-----------2------7---5---7br½-(7)----5-----7------------|
 |--0----0---0---------------0------7--------------------------------------|
 |----------------------3--------------------------------------------------|
         .   .          .

  Repeat twice, then.-

 |-------------------------------------------------------------------------|
 |-------------------------------------------------------------------------|
 |---------------5------------7----------5---7br½-(7)---5------------------|
 |--7------------5------------7------7---5---7br½-(7)---5----7-------------|
 |--0----0---0--------0---0----------7-------------------------------------|
 |-------------------------------------------------------------------------|
         .   .        .   .

 |-------------------------------------|
 |-------------------------------------|
 |---------------5-----------2---------|
 |--7------------5-----------2---------|
 |--0----0---0---------------0---------|
 |----------------------3--------------|
         .   .          .


  Chorus.-
  Hold----------------------------|
 |-------------------------------------------------------------------------|
 |-------------------------------------------------------------------------|
 |---2----------2----------2--------------5--7br½-(7)----5-----------------|
 |------------------------------------7---5--7br½-(7)----5-----7-----------|
 |--------0---------------------------7------------------------------------|
 |-------------------4----------3------------------------------------------|

  Hold-------|     Hold----|
 |-------------------------------------------------------------------------|
 |-------------------------------------------------------------------------|
 |--------------------------------------5----7--7br½-(7)----5--------------|
 |--3----------3----------3---------7---5----7--7br½-(7)----5----7---------|
 |---------------------------5------7--------------------------------------|
 |------1-----------0------------------------------------------------------|

  Repeat twice, then.-

  Hold----------------------------|
 |-------------------------------------------------------------------------|
 |-------------------------------------------------------------------------|
 |---2----------2----------2--------------5--7br½-(7)----5-----------------|
 |------------------------------------7---5--7br½-(7)----5-----7-----------|
 |--------0---------------------------7------------------------------------|
 |-------------------4----------3------------------------------------------|


 |-------------------------------------------------------------------------|
 |-------------------------------------------------------------------------|
 |-------------------------------------------------------------------------|
 |--3----------3----------3------------------------------------------------|
 |---------------------------5gb½------------------------------------------|
 |------1-----------0------------------------------------------------------|


  Play verse 2, chorus and then the solo.-
  Gtr. 2             /\/\/\/\/\
 |--------------------------------/12--------------------------------------|
 |--8bf-----------(8)-------------------13--12--13--12---------------------|
 |------------------------------------------------------14-----------------|
 |----------------------------------------------------------14-------------|
 |-------------------------------------------------------------------------|
 |-------------------------------------------------------------------------|
 |Gtr. 1                                                                   |
 |-------------------------------------------------------------------------|
 |-------------------------------------------------------------------------|
 |-------------------------------------------------------------------------|
 |-------------------------------------------------------------------------|
 |--0-------------3----------0-------3---0-----0---------------------------|
 |-------3----3----------3------------------3------3---2---0---------------|
    .    .    .   .      .           .   .  .  .   .   .   .
                                              w/bar
  Gtr. 1          /\/\/\/\/\/\               /\/\/\/\/\/\/\/\/\/\/\/\/\/\/\
 |--------------------------------15bf-------------------------------------|
 |--12gb½-----(12)-----------------------15bf------------------------------|
 |-------------------------------------------------------------------------|
 |-------------------------------------------------------------------------|
 |-------------------------------------------------------------------------|
 |-------------------------------------------------------------------------|
 |Gtr. 1                                                                   |
 |-------------------------------------------------------------------------|
 |-------------------------------------------------------------------------|
 |-------------------------------------------------------------------------|
 |-------------------------------------------------------------------------|
 |---0-----------3----------0------3---0--------0--------------------------|
 |-------3---0---------3-------------------3---------3----2---0------------|
     .   .   .   .     .           .   .   .    .    .    .   .

  Gtr. 2                                   /\/\/\/\/\/\
 |---15brf-(15)---12---14br½-(14)---------12---------------|
 |-----------------------------------15--------------------|
 |---------------------------------------------------------|
 |---------------------------------------------------------|
 |---------------------------------------------------------|
 |---------------------------------------------------------|
 |Gtr. 1                                                   |
 |---------------------------------------------------------|
 |---------------------------------------------------------|
 |------------------------------------------2--------------|
 |-----------------4---------------5--------2--------------|
 |----------4----------------5--------------0--------------|
 |---2-----------------3-----------------------------------|
     .      .      .   .     .     .

  Gtr. 2
 |-------------------------------------------------------------------------|
 |------13h15p13-------15p13--------13--------------------13---15--15br2---|
 |----------------------------14----------14gbrf----(14)-------------------|
 |-------------------------------------------------------------------------|
 |-------------------------------------------------------------------------|
 |-------------------------------------------------------------------------|
 |Gtr. 1                                                                   |
 |-------------------------------------------------------------------------|
 |-------------------------------------------------------------------------|
 |--7------7--------7-------7-------5--------------------------------------|
 |--7------7--------7-------7-------5--------------------------------------|
 |--5------5--------5-------5-------3----------------0------------3------0-|
 |--------------------------------------------------------3---0-------3----|
                                                     .    .   .   .   .

  Gtr. 2     /\/\/\/\/\/\/\/\/\/\/\/\
 |-------------------------------------------------------|
 |---(15)p13------------------------------------17-------|
 |-----------14-------------------------17h18------------|
 |-------------------------------------------------------|
 |-------------------------------------------------------|
 |-------------------------------------------------------|
 |Gtr. 1                                                 |
 |-------------------------------------------------------|
 |-------8---8-------8------8/10-----10------------------|
 |-------7---7-------7------7/-9------9------------------|
 |-------5---5-------5------5/-7------7------------------|
 |-------5---5-------5------5/-7------7------------------|
 |-------------------------------------------------------|

  Gtr. 2
 |-------------------------------------------------------------------------|
 |---22p17---------17---20p19p17--------17h20p17---------------------------|
 |----------18h19-----------------19---------------------------------------|
 |-------------------------------------------------------------------------|
 |-------------------------------------------------------------------------|
 |-------------------------------------------------------------------------|
 |Gtr. 1                                                                   |
 |-------------------------------------------------------------------------|
 |-------------------------------------------------------------------------|
 |-------------------------------------------------------------------------|
 |-------------------------------------------------------------------------|
 |---0--------------------3-----------------0------------------------------|
 |-----------3-------3---------------3-------------------------------------|


  Gtr. 2                           /\/
 |--19-------------------------------------------------|
 |------17------17-------------------------------------|
 |----------19------19p17------17-19--19-19--19p17-----|
 |-------------------------19--------------------------|
 |-----------------------------------------------------|
 |-----------------------------------------------------|
 |Gtr. 1                                               |
 |-----------------------------------------------------|
 |-----------------------------------------------------|
 |-----------------------------------------------------|
 |-----------------------------------------------------|
 |---3-----0----------0--------------------------------|
 |--------------3--------------3------2-------0--------|
     .     .    .     .        .      .       .


  Gtr. 2
 |-------------------------------------------------------------------------|
 |-------------------------------------------------------------------------|
 |-----17-----19---16h17p16------16----------------------------------------|
 |--19-----------------------19------19---17--15h17p15---------------------|
 |-------------------------------------------------------19----------------|
 |-------------------------------------------------------------------------|
 |Gtr. 1                                                                   |
 |-------------------------------------------------------------------------|
 |-------------------------------------------------------------------------|
 |-------------------------------------------------------------------------|
 |-------------------------------------------------------------------------|
 |---0---------------------------3------------------0----------------------|
 |------------3--------0-----------------------3---------------------------|
     .        .        .         .


  Gtr. 2 /\/\/\/\/\/\/\/\/\
 |-----------------------------------------|
 |-----------------------------------------|
 |-----------------------------------------|
 |---\10----------------------(10)/19\-----|
 |-----------------------------------------|
 |-----------------------------------------|
 |Gtr. 1                                   |
 |-----------------------------------------|
 |-----------------------------------------|
 |-----------------------------------------|
 |-----------------------------------------|
 |----------3---0------0-------------------|
 |------------------3---------3---2---0----|
            .   .   .  .      .   .   .


  Gtr. 2                                                        /\/\/\/\/\/
 |-------------------------------------------------------------------------|
 |---7----7----7----8----8----8-----10----10----10-------------------------|
 |----------------------------------------------------9brf---(9)brf½-------|
 |---4----4----4----5----5----5------7-----7-----7-------------------------|
 |-------------------------------------------------------------------------|
 |-------------------------------------------------------------------------|
 |                                                                         |
 |-------------------------------------------------------------------------|
 |-------------------------------------------------------------------------|
 |-----------------------------------2-----------------7---7---7---7---5---|
 |-------------4--------------5------2-----------------7---7---7---7---5---|
 |--------4--------------5-----------0-----------------5---5---5---5---3---|
 |---2--------------3------------------------------------------------------|
     .    .    .    .    .    .

  Gtr. 2
 |---------------------------------------------|
 |---------------------------------------------|
 |-----7bf---7pb½-----------7----------5-------|
 |---------------------------------------------|
 |---------------------------------------------|
 |---------------------------------------------|
 |Gtr. 1                                       |
 |---------------------------------------------|
 |---------------------------------------------|
 |---------------------------------------------|
 |---------------------------------------------|
 |--0---------------3------------------0-------|
 |-----3------0------------------3-------------|
    .  .      .     .


  Gtr. 2           /\/\/\/\/\                           /\/\/\/\/\/\/\/\/\
 |------------------------------------------------8------------------------|
 |------------------------------------8----10------------------------------|
 |----5----5-------------------/9---------------------10bf-----------------|
 |---------------7---------------------------------------------------------|
 |-------------------------------------------------------------------------|
 |-------------------------------------------------------------------------|
 |Gtr. 1                                                                   |
 |-------------------------------------------------------------------------|
 |------------8----8---8-----8/10------10----------------------------------|
 |------------7----7---7-----7/-9-------9----------------------------------|
 |------------5----5---5-----5/-7-------7----------------------------------|
 |------------5----5---5-----5/-7-------7-------------2-------------5------|
 |---------------------------------------------------------5---2-----------|


  Gtr. 2
 |-------7-----------------------------7-----------------------------------|
 |---7----------10p7---------------------10p7-----7--10--------7-----------|
 |-----------------------9brf--(9)bf----------9bf----------9---------------|
 |-------------------------------------------------------------------------|
 |-------------------------------------------------------------------------|
 |-------------------------------------------------------------------------|
 |Gtr. 1                                                                   |
 |-------------------------------------------------------------------------|
 |-------------------------------------------------------------------------|
 |-------------------------------------------------------------------------|
 |-------------------------------------------------------------------------|
 |----------------2--------------------5--2--------2-----------------------|
 |-5------------------------------------------5-------5-----4----2---------|
                                       .  .   .    .  .     .    .

  Gtr. 2
 |------------------7------------------------------------|
 |----------------------10p7--------7--------------------|
 |---9brf--(9)bf---------------10-------10p9p7-----------|
 |------------------------------------------------9------|
 |-------------------------------------------------------|
 |-------------------------------------------------------|
 |Gtr. 1                                                 |
 |-------------------------------------------------------|
 |-------------------------------------------------------|
 |-------------------------------------------------------|
 |-------------------------------------------------------|
 |------2--------------5------------------------2--------|
 |-----------5---2----------------------5----------------|
        .    .   .     .                .


  Gtr. 2      /\/\/\/\/\/\/\/\
 |----------------------------------------10--12p10----10-12-9h10p9--------|
 |--------------------------------------------------12---------------------|
 |---9bf-----7------------------(7)/---------------------------------------|
 |-------------------------------------------------------------------------|
 |-------------------------------------------------------------------------|
 |-------------------------------------------------------------------------|
 |Gtr. 1
 |-------------------------------------------------------------------------|
 |-------------------------------------------------------------------------|
 |-------------------------------------------------------------------------|
 |-------------------------------------------------------------------------|
 |------------5---2------2-----------------2--------------------5----------|
 |-------------------5--------5---4---2--------5------2--------------------|
              .   .  .   .    .   .   .


  Gtr. 2                                                      /\/\/\/\
 |-------9----------7h9p7----------7h9p7-------7---------------------------|
 |--12--------12------------10-------------10------10p9h10----7---------10-|
 |-------------------------------------------------------------------------|
 |-------------------------------------------------------------------------|
 |-------------------------------------------------------------------------|
 |-------------------------------------------------------------------------|
 |Gtr. 1                                                                   |
 |-------------------------------------------------------------------------|
 |-------------------------------------------------------------------------|
 |-------------------------------------------------------------------------|
 |-------------------------------------------------------------------------|
 |------------------2----------------------5----2---------2----------------|
 |-------5-------------------------------------------5----------5---4---2--|
                                           .    .    .    .     .   .   .

  Gtr. 2
 |---------7----10----9----12---10--14--12--10--14--11---------------------|
 |----9--------------------------------------------------12----------------|
 |-------------------------------------------------------------------------|
 |-------------------------------------------------------------------------|
 |-------------------------------------------------------------------------|
 |-------------------------------------------------------------------------|
 |Gtr. 1                                                                   |
 |-------------------------------------------------------------------------|
 |-------------------------------------------------------------------------|
 |-------------------------------------------------------------------------|
 |---------------------------------------------4---------------------------|
 |----2-----------------5----------------------2---------------------------|
 |---------5-----2-----------------------5---------------------------------|
      .    .     .      .                .


  Gtr. 2
 |---11----13---10--------10-----12----9-----------11-----8----------------|
 |------------------11-----------------------10----------------9-----------|
 |-------------------------------------------------------------------------|
 |-------------------------------------------------------------------------|
 |-------------------------------------------------------------------------|
 |-------------------------------------------------------------------------|
 |Gtr. 1                                                                   |
 |-------------------------------------------------------------------------|
 |-------------------------------------------------------------------------|
 |-------------------------------------------------------------------------|
 |----------3-------------------------2------------------------------------|
 |----------1-------------------------0------------6-----------------------|
 |-------------------------------------------------4-----------------------|


  Gtr. 2
 |-------------------------------------------17----------------------------|
 |--------------17-----------------------17------17------------------------|
 |-------17--18-----18--17------17--18----------------18-----17------------|
 |---19---------------------19---------------------------------------------|
 |-------------------------------------------------------------------------|
 |-------------------------------------------------------------------------|
 |Gtr. 1                                                                   |
 |-------------------------------------------------------------------------|
 |-------------------------------------------------------------------------|
 |-------------------------------------------------------------------------|
 |-------------------------------------------------------------------------|
 |----0---------------3-----------------------0----------------------------|
 |----------3----3-------------------3-------------------------------------|
      .     .    .    .              .


  Gtr. 2                                 /\/\/\/\/\/\
 |--------------14---------------------------------------------------------|
 |-------13/14-------17p14----17p14---17bf---------------------------------|
 |------------------------------------------------------14h17--------------|
 |--19---------------------------------------------------------------------|
 |-------------------------------------------------------------------------|
 |-------------------------------------------------------------------------|

 |-------------------------------------------------------------------------|
 |-------------------------------------------------------------------------|
 |-------------------------------------------------------------------------|
 |-------------------------------------------------------------------------|
 |--------3-----0-------------------------0--------------------------------|
 |------------------------------3--------------3----2---0------------------|
          .     .               .         .    .    .   .


  Gtr. 2
 |-------------------------------17-----------------------15---------------|
 |---14-17p14---------------14--------14-15p14----16/17--------------------|
 |--------------17p14--17--------------------------------------------------|
 |-------------------------------------------------------------------------|
 |-------------------------------------------------------------------------|
 |-------------------------------------------------------------------------|
 |Gtr. 1                                                                   |
 |-------------------------------------------------------------------------|
 |-------------------------------------------------------------------------|
 |-------------------------------------------------------------------------|
 |-------------------------------------------------------------------------|
 |--0------------------------3----------------0----------------------------|
 |--------3-------0--------------------3-----------------------------------|
    .     .       .          .         .


  Gtr. 2                /\/\/\/\/\/\
 |-------------------------------------17-------------|
 |-----17----20p17----20bf-------------------20p17----|
 |----------------------------------------------------|
 |----------------------------------------------------|
 |----------------------------------------------------|
 |----------------------------------------------------|
 |Gtr. 1                                              |
 |----------------------------------------------------|
 |----------------------------------------------------|
 |----------------------------------------------------|
 |----------------------------------------------------|
 |------3-----0--------------0------------------------|
 |---------------------3---------------3---2---0------|
        .     .        .     .         .   .   .


  Gtr. 2                               /\/\/\/\
 |-------------------------------------------------17----------------------|
 |---20bf------20bf--------20bf------20bf-----------------20p17------------|
 |-------------------------------------------------------------------------|
 |-------------------------------------------------------------------------|
 |-------------------------------------------------------------------------|
 |-------------------------------------------------------------------------|
 |Gtr. 1                                                                   |
 |-------------------------------------------------------------------------|
 |-------------------------------------------------------------------------|
 |---------------------------------------------------------2---------------|
 |--------------------------4---------------------5--------2---------------|
 |--------------4---------------------------5--------------0---------------|
 |-----2------------------------------3------------------------------------|
       .        .           .         .     .     .


  Gtr. 2
 |------------------------------------------------------------------17-----|
 |-------------------------------------------------------------17----------|
 |---19brf--(19)-----17---19---17bf½-----17brf--(17)----19bf---------------|
 |-------------------------------------------------------------------------|
 |-------------------------------------------------------------------------|
 |-------------------------------------------------------------------------|
 |Gtr. 1                                                                   |
 |-------------------------------------------------------------------------|
 |-------------------------------------------------------------------------|
 |--------------------7---------7-------7------7-----5---------------------|
 |--------------------7---------7-------7------7-----5---------------------|
 |--------------------5---------5-------5------5-----3---------------------|
 |-------------------------------------------------------------------------|


  Gtr. 2
 |----20bf--------20------17----------------------------------------17-----|
 |-------------------------------20p17----------------17-------------------|
 |------------------------------------------19bf------------19bf-----------|
 |-------------------------------------------------------------------------|
 |-------------------------------------------------------------------------|
 |-------------------------------------------------------------------------|
 |Gtr. 1                                                                   |
 |-------------------------------------------------------------------------|
 |-------------------------------------------------------------------------|
 |-------------------------------------------------------------------------|
 |-------------------------------------------------------------------------|
 |------0-------------------------3---------------------------------0------|
 |-----------------3-------0------------------------------------3----------|
        .          .       .      .                             .


  Gtr. 2                                       /\/\/\/\/\/\
 |-------------------------------------------------------------------------|
 |---------17--------------------------------------------------------------|
 |---20------------17------19b2--------17----------------------------------|
 |--------------------------------------------19------------(19)\----------|
 |-------------------------------------------------------------------------|
 |-------------------------------------------------------------------------|

 |-------------------------------------------------------------------------|
 |------------------8----------8--------8------8/10----------10------------|
 |------------------7----------7--------7------7/-9-----------9------------|
 |------------------5----------5--------5------5/-7-----------7------------|
 |------------------5----------5--------5------5/-7-----------7------------|
 |-------------------------------------------------------------------------|


  Interlude:
  Gtr. 2            /\/\/\/\
 |-------------------------------------------------------------------------|
 |-------------------------------------------------------------------------|
 |-------------------------------------------------------------------------|
 |----7-----6------5----------4-----3------2-------------------------------|
 |-------------------------------------------------------------------------|
 |-------------------------------------------------------------------------|

 |-------------------------------------------------------------------------|
 |-------------------------------------------------------------------------|
 |-------------------------------------------------------------------------|
 |-------------------------------------------------------------------------|
 |-----7----6------5----------4-----3-------2------------------------------|
 |-----5----4------3----------2-----1-------0------------------------------|


  Gtrs. 1 & 2
 |-------------------------------------------------------------------------|
 |-------------------------------------------------------------------------|
 |-------------------------------------------------5---7br½--(7)---5-------|
 |---7-------------7-------------7-----------------5---7br½--(7)---5-------|
 |---0----0---0----0----0---0----0-----0---0---0-----------------------0---|
 |-------------------------------------------------------------------------|
          .   .         .   .          .   .   .                       .


  Repeat it twice, then.-

 |-------------------------------------------------------------------------|
 |-------------------------------------------------------------------------|
 |-------------------------------------------------------------------------|
 |---7-------------7-------------7-----------------------------------------|
 |---0----0---0----0----0---0----0-----0-----------------------------------|
 |-------------------------------------------X\---X\---X\---X\---X\---X\---|
          .   .         .   .          .     Pick slide


  Play verse 3, chorus, then
      Hold bend--------------------------------------------|
 |-------------------------------------------------------------------------|
 |-------------------------------------------------------------------------|
 |-------------------------------------------------------------------------|
 |-------------------------------------------------------------------------|
 |--b½-------------------------------------------------------(5)-----------|
 |-------------------------------------------------------------------------|

  Guitar 1
 |-------------------------------------------------------------------------|
 |-------------------------------------------------------------------------|
 |---2------5---5---5---7br½--(7)----5-------------------------------------|
 |---2------5---5---5---7br½--(7)----5-----7-------------------------------|
 |---0-------------------------------------------0---------------3----0----|
 |---------------------------------------------------4---3---0-------------|
                                                 .   .   .   .   .

Solo: Play triplets!

    ^       ^   v   v   ^    v   ^   ^   v   ^   v
E|-17-P12----------12--15-|-14--12------12--15--12-|
B|---------14--15---------|---------15-------------|
G|------------------------|------------------------|
D|------------------------|------------------------|
A|------------------------|------------------------|
E|------------------------|------------------------|

    ^       ^   v   ^   v    ^   v   ^   v   ^   v
E|-19-P12------12---------|------------------------|
B|---------15------15--13-|-----13--15--16--15--13-|
G|------------------------|-14---------------------|
D|------------------------|------------------------|
A|------------------------|------------------------|
E|------------------------|------------------------|

    ^   v   ^   v        ^  v    ^   v   ^
E|------------------------|------------------------|
B|-----13--15--12H13P12---|-12---------------------|
G|-14-------------------14|-----14--12--11H12P11P9-|
D|------------------------|------------------------|
A|------------------------|------------------------|
E|------------------------|------------------------|

   v
E|------------------------|------------------------|
B|------------------------|------------------------|
G|-9\5--------------------|------------------------|
D|------------------------|------------------------|
A|------------------------|------------------------|
E|------------------------|------------------------|


Some nanosecundums later...


E|-------------------------|----------------------------|
B|-15H17P15P12-15H17-14B15-|R14-12-14\12-10H12H14-12-10-|
G|-------------------------|----------------------------|
D|-------------------------|----------------------------|
A|-------------------------|----------------------------|
E|-------------------------|----------------------------|


E|---------------------------|-------------------------|
B|-10H12H14-12-10-12\10-9-10-|-------------------------|
G|---------------------------|-11----------------------|
D|---------------------------|-------------------------|
A|---------------------------|-------------------------|
E|---------------------------|-------------------------|


===================================

THIRD: A piece from High Speed Dirt
      (Megadeth, Countdown to Extinction)

Note: Play triplets!


E|-17-P16-P15-P14-H15-H16-|-17-P12------15-P12-----|
B|------------------------|---------14----------14-|
G|------------------------|------------------------|
D|------------------------|------------------------|
A|------------------------|------------------------|
E|------------------------|------------------------|


E|-14-P12--------------12-|------------------------|
B|---------15--14--15-----|-15-P14-P12--14-\-------|
G|------------------------|------------------------|
D|------------------------|------------------------|
A|------------------------|------------------------|
E|------------------------|------------------------|


E|------------------------|------------------------|
B|-13------12-------------|------------------------|
G|-----14------12--14--12-|-11--12--14--12--11-----|
D|------------------------|---------------------14-|
A|------------------------|------------------------|
E|------------------------|------------------------|

   __________               __________
   |  |  |  |               |  |  |  |
E|------------------------|------------------------|
B|------------------------|------------------------|
G|------------------------|------------------------|
D|-16P15P14----14-H16-P14-|-14P13P12----14---------|
A|----------17------------|----------15-----15-B16-|
E|------------------------|------------------------|


E|------------------------|
B|------------------------|
G|------------------------|
D|------------------------|
A|-12---------------------|
E|------------------------|

2.SYMPHONY OF DESTRUCTION

Tunning E A D G B E

 intro/verse
|----------|----------|----------|
|----------|----------|----------|
|----------|----------|----------|  very simple
|-3--2--2--|-3--2--2--|----------|
|-3--2--2--|-3--2--2--|----------|
|-1--0--0--|-1--0--0--|-1--3--1--|
  x  x  x    x  x  x    .  .  .

prechorus
guitar 1
|------|--------------------------------------------------------------|
|------|--------------------------------------------------------------|
|------|------------------------------4h5p4-------------4h5p4---------|
|------|-7---6---5--5h7p5--7---6---5----------7---6---5---------------|
|------|-7---6---5---------7---6---5----------7---6---5---------------|
|-0--0-|---0---0-------------0---0--------------0---0-----------------|
  .  .   x . x . x         x . x . x          x . x . x
|------------------------------------------------------------------------|
|-------------5h6p5---------------5h6p5--------------5h6p5---------------|
|------------------------------------------------------------------------|
|-7---6---5-----------7---6---5----------7---6---5---------7---6---5-----|
|-7---6---5-----------7---6---5----------7---6---5---------7---6---5-----|
|---0---0---------------0---0--------------0---0-------------0---0-------|
  x . x . x           x . x . x          x . x . x         x . x . x

prechorus
guitar 2
|------|--------------------------------------------------------------|
|------|--------------------------------------------------------------|
|------|--------------------------------------------------------------|
|------|-7---6---5--5h7p5--7---6---5---5h7p5--7---6---5-5h7p5---------|
|------|-7---6---5---------7---6---5----------7---6---5---------------|
|-0--0-|---0---0-------------0---0--------------0---0-----------------|
  .  .   x . x . x         x . x . x          x . x . x
|------------------------------------------------------------------------|
|------------------------------------------------------------------------|
|------------------------------------------------------------------------|
|-7---6---5---5h7p5---7---6---5---5h7p5--7---6---5---5h7p5-7---6---5-----|
|-7---6---5-----------7---6---5----------7---6---5---------7---6---5-----|
|---0---0---------------0---0--------------0---0-------------0---0-------|
  x . x . x           x . x . x          x . x . x         x . x . x


both guitars
|-------------------------|
|-------------------------|
|-------------------------|
|-------------------------|
|--------5~---------------|
|-0--0-------6-5-4-3-2-1--|
  .  .       . . . . . .

chorus

|-----------------------------------|------------------------------|
|-----------------------------------|------------------------------|
|-----------------------------------|------------------------------|
|----9-----8--------7-----6---------|----5---4-----0----5--4-------|
|-------7-----7--------5-----5------|----3---3-------0-------5-----|
|-0--------------0--------------7\0-|-0----------0--------------7--|

guitar 2 plays the prechorus
(without all the hammerons/pulloffs)
during the solo

3.ARCHITECTURE OF AGGRESSION

Gtr I (E A D G B E) - 'Untitled'
Gtr II (E A D G B E) - 'Untitled'
Gtr III (E A D G B E) - 'Untitled'

 Intro
  Moderately Slow Q=92
 4/4
  Gtrs I, II
              PM--------------|       PM--|       PM-
  H..       S S     S S S S S S S S S S S S S S S S
|---------------||----------------------------------|
|---------------||o---------------------------------|
|---------------||----------------------------------|
|---------------||----------------------------------|
|---------------||o-------------7-8-7-------4-5-4---|
|-------------0-||--2-0-3-0-2-0-5-6-5-0-2-0-2-3-2-0-|


 -----------|       PM--------------|
                          |-3-| |-3-|
  S S S S S S S S S S S S S S S S S S
|---------------------------------------||
|--------------------------------------o||
|---------------------------------------||
|---------------------------------------||
|-------------7-8-7-----0-2-2----------o||
|-2-0-3-0-2-0-5-6-5-0-2-------5-2-2-0---||


   Verse
    $
    Gtrs I, II
     PM--------|       PM--|       PM---------------|       PM--------------|
                                                                  |-3-| |-3-|
     S S S S S S S S S S S S S S S S     S  S S S S S S S S S S S S S S S S S
||-----------------------------------|-----------------------------------------|
||o----------------------------------|-----------------------------------------|
||-----------------------------------|-----------------------------------------|
||-----------------------------------|-----------------------------------------|
||o--------------7-8-7-------4-5-4---|----------------7-8-7-----0-2-2----------|
||---2-0-3-0-2-0-5-6-5-0-2-0-2-3-2-0-|---2--0-3-0-2-0-5-6-5-0-2-------5-2-2-0--|
|
|   Gtr III
|    ~~~~~~~~~~~~~~~~~~~~~~~~~~~~~~~~~~~~~~~
|    W                                  +W
||-----------------------------------|-----------------------------------------|
||o----------------------------------|-----------------------------------------|
||-----------------------------------|-----------------------------------------|
||--16-------------------------------|-(16)------------------------------------|
||o----------------------------------|-----------------------------------------|
||-----------------------------------|-----------------------------------------|


  Gtrs I, II
  PM--------|       PM--|       PM------------|       PM-----------------
                                                            |-3-| |-3-|
  S S S S S S S S S S S S S S S S   S S S S S S S S S S S S S S S S S S
|---------------------------------|-------------------------------------|
|---------------------------------|-------------------------------------|
|---------------------------------|-------------------------------------|
|---------------------------------|-------------------------------------|
|-------------7-8-7-------4-5-4---|-------------7-8-7-----0-2-2---------|
|-2-0-3-0-2-0-5-6-5-0-2-0-2-3-2-0-|-2-0-3-0-2-0-5-6-5-0-2-------5-2-2-0-|


 -----------|       PM--|       PM
  S S S S S S S S S S S S S S S S
|-----------------------------------|
|-----------------------------------|
|-----------------------------------|
|-----------------------------------|
|-------------7-8-7-------4-5-4-----|
|-2-0-3-0-2-0-5-6-5-0-2-0-2-3-2-0---|


  PM--------|       PM----------------------------|       PM--|       PM-
                          |-3-| |-3-|
  S S S S S S S S S S S S S S S S S S   S S S S S S S S S S S S S S S S
|-------------------------------------|---------------------------------|
|-------------------------------------|---------------------------------|
|-------------------------------------|---------------------------------|
|-------------------------------------|---------------------------------|
|-------------7-8-7-----0-2-2---------|-------------7-8-7-------4-5-4---|
|-2-0-3-0-2-0-5-6-5-0-2-------5-2-2-0-|-2-0-3-0-2-0-5-6-5-0-2-0-2-3-2-0-|


 -----------|       PM--------------|
                          |-3-| |-3-|
  S S S S S S S S S S S S S S S S S S
|-------------------------------------||
|-------------------------------------||
|-------------------------------------||
|-------------------------------------||
|-------------7-8-7-----0-2-2---------||
|-2-0-3-0-2-0-5-6-5-0-2-------5-2-2-0-||


 Chorus
  Gtr I
   S S S S S S S S S S S S S S S S    S S S S S S S S S S S S S S S S
|----------------------------------|----------------------------------|
|----------------------------------|----------------------------------|
|------------------------------4-4-|----------------------------------|
|------4-4-----4-4-----4-4-----4-4-|------4-4-----4-4-----4-4---------|
|--------------------------0h2-----|----------------------------2-4---|
|--0h2-----2h3-----3h5-------------|--0h2-----2h3-----3h5-----2-----3-|
|
| Gtr II
|  W                                  W
|----------------------------------|----------------------------------|
|----------------------------------|----------------------------------|
|-/6-------------------------------|-/7-------------------------------|
|----------------------------------|----------------------------------|
|-/4-------------------------------|-/5-------------------------------|
|----------------------------------|----------------------------------|


                                                              To Coda
   S S S S S S S S S S S S S S S S     S S S S S S S S S S S S S S S S
|----------------------------------|--------------------------------------|
|----------------------------------|--------------------------------------|
|----------------------------------|--------------------------------------|
|------4-4-----4-4-----4-------4---|-------4-4-----4-4-----4-4------------|
|--2s4-----4h5-----5h7---7-4h5---5-|-----------------------------2-4------|
|----------------------------------|---0h2-----2h3-----3h5-----2-----3----|
|
|  W                                   W
|----------------------------------|--------------------------------------|
|----------------------------------|--------------------------------------|
|-/9-------------------------------|-/11----------------------------------|
|----------------------------------|--------------------------------------|
|-/7-------------------------------|--/9----------------------------------|
|----------------------------------|--------------------------------------|


  1.
                                           |---3---|
   Q            +E.     +S    S   S  S  S  S  S    S  S  S
|----------------------------------------------------------|
|----------------------------------------------------------|
|-18b22========(18)----(18)r(18)s17-16-14-16h17p==16-14-16h|
|----------------------------------------------------------|
|----------------------------------------------------------|
|----------------------------------------------------------|
|
|  S     S S S   S S S   S    S   S  S  S  S    S     S  S
|----------------------------------------------------------|
|----------------------------------------------------------|
|----------------------------------------------------------|
|----------------------------------------------------------|
|--2h====4-x-x---4s5-x---x----5s==7--x--x--4s===5-----x--x-|
|--0h====2-x-x---2s3-x---x----3s==5--x--x--2s===3-----x--x-|


                                                 ~~~
                           |---3---|  |---3---|
   S  S  S  S  S  S  S  S  S  S    S  S  S    S  E.      S
|----------14----------------------------------------------|
|----------------17-14-18----------------------------------|
|-17-14-16----17----------16h17p==16h17p16p==14------------|
|-----------------------------------------------16------16-|
|----------------------------------------------------------|
|----------------------------------------------------------|
|
|                                                PM-----|
|  S  S  S  S  S  S  S  S  S    S     S    S     S  S S  S
|----------------------------------------------------------|
|----------------------------------------------------------|
|----------------------------------------------------------|
|----------------------------------------------------------|
|--2h=4--x--x--4s=5--x--x--5s===7-----x----x--------5----5-|
|--0h=2--x--x--2s=3--x--x--3s===5-----x----x-----2----2----|


                                             ~~~~~~~~~~~
   S  S  S  S  S     +S   S  S  S     S      E    Q
|------------------------------------------------------|
|-14----------16b17r(16)-------16b18-------------------|
|-------17----16b18r(16)-------------16pb18r16---14----|
|----16----16------------16-14-------------------------|
|------------------------------------------------------|
|------------------------------------------------------|
|
|  S  S  S  S  S      S   S  S  S     S      S S  E E
|------------------------------------------------------|
|------------------------------------------------------|
|------------------------------------------------------|
|-------------------------------------------------4----|
|--2h=4--x--x--4s=====5---x--x--5s====7------x-x----3\-|
|--0h=2--x--x--2s=====3---x--x--3s====5------x-x-------|


 ~~~~~~
   +S   +E.     Q     H               W
|-----------------------------------|------------------||
|-----------------------------------|-----------------o||
|-(14)-(14)\------------------------|------------------||
|-----------------------------------|------------------||
|-----------------------------------|-----------------o||
|-----------------------------------|------------------||
|
|   E.       S +E  E +S  E. S S S S   S E. +H     Q
|-----------------------------------|------------------||
|-----------------------------------|-----------------o||
|-----------------------------------|-------------x\---||
|-----------------------------------|---4--(4)----x\---||
|---5--------------4-(4)----2---4---|-2-4--(4)--------o||
|------------4-(4)-------3----0---2-|-0-2--(2)---------||


 Riffs
  2.
 7/8
  Gtrs I, II
  S S S S S S S S S S S S S S   S S S S S S S S S S S S S S
|-----------------------------|-----------------------------|
|-----------------------------|-----------------------------|
|-----4-------2-----4-------2-|-----4-------2-----4-------2-|
|---------2-4-----------2-4---|---------2-4-----------2-4---|
|-0h2---3-------0h2---3-------|-0h2---3-------0h2---3-------|
|-----------------------------|-----------------------------|


                                                             2/4
  S S S S S S S S S S S S S S   S S S S S S S S S S S S S S   S S S S S S S S
|-----------------------------|-----------------------------|-----------------|
|-----------------------------|-----------------------------|-----------------|
|-----4-------2-----4-------2-|-----4-------2-----4-------2-|-----4-----4-----|
|---------2-4-----------2-4---|---------2-4-----------2-4---|-2s4---4s5-------|
|-0h2---3-------0h2---3-------|-0h2---3-------0h2---3-------|-------------2-0-|
|-----------------------------|-----------------------------|-----------------|


   4/4
    PM--------|        PM-----------
    S S S S S S E +E   S S S S S S
||---------------------------------|
||o--------------------------------|
||---------------------------------|
||---------------------------------|
||o--------------------5-4-3-------|
||--2-3-2p0-5-7-5-(5)\-------5-2-0-|


 -----------|                PM|
  S S S S S S E +E   S S S S S S  4x E H..         Wx3
|---------------------------------||-------------|--------||
|--------------------8-7-6s5-----o||-------------|--------||
|--------------------7-6-5s4------||-------------|--------||
|--------------------5-4-3s2------||-------------|--------||
|--------------------------------o||-4-----------|--------||
|-2-3-2p0-5-7-5-(5)\---------2-0--||-2-----------|--------||


 Guitar Solo
  Gtr I
   ~~~~~              ~~~~~              ~~~~~              ~~~~~
           |---3---|          |---3---|          |---3---|
   E       S  S    S  E       S  S    S  E       S  S    S  Q
|---------14-----------------14-----------------14---------------------|
|-17b19------17p==14-17b19------17p==14-17b19------17p==14-17b19-------|
|----------------------------------------------------------------------|
|----------------------------------------------------------------------|
|----------------------------------------------------------------------|
|----------------------------------------------------------------------|
|
| Gtr II
|  S    S  S    S     S    S  S    S     S    S  S    S     S    S S S
|----------------------------------------------------------------------|
|----------------------------------------------------------------------|
|----------------------------------------------------------------------|
|----------------------------------------------------------------------|
|--2h===4--x----x-----4s===5--x----x-----5s===7--x----x-----4s===5-x-x-|
|--0h===2--x----x-----2s===3--x----x-----3s===5--x----x-----2s===3-x-x-|


                                                       ~~~~~~~
   |---3---|  |---3---|  |---3---|  |---3---|  |---3---|             |---3---|
   S  S    S  S  S    S  S  S    S  S  S    S  S  S    S  +Q         S  S    S
|---------14--------------------14------------------------------------------------|
|---------------------------------------------------------------------------------|
|-16h17------17p16p==14-16h17------17p16p==14-16h17---14-(14)-------16h17p==14----|
|---------------------------------------------------------------------------------|
|---------------------------------------------------------------------------------|
|---------------------------------------------------------------------------------|
|
|                                                               PM--------|
|  S    S     S    S     S    S     S    S     S    S      S  S S S  S    S
|---------------------------------------------------------------------------------|
|---------------------------------------------------------------------------------|
|---------------------------------------------------------------------------------|
|---------------------------------------------------------------------------------|
|--2h===4-----x----x-----4s===5-----x----x-----5s===7------x--x---5-------5-------|
|--0h===2-----x----x-----2s===3-----x----x-----3s===5------x--x-2----2------------|


   S  S  S  S  S  S  S  S  S  S  S  S  S  S  S  S
|-17----14----16----17----14----16-------14-------|
|-------------------------------------------------|
|----16----17----14----16----17----14-11----11-11-|
|-------------------------------------------------|
|-------------------------------------------------|
|-------------------------------------------------|
|
|  S  S  S  S  S  S  S  S  S  S  S  S  S  S  S  S
|-------------------------------------------------|
|-------------------------------------------------|
|-------------------------------------------------|
|-------------------------------------------------|
|--2h=4--x--x--4s=5--x--x--5s=7--x--x--4s=5--x--x-|
|--0h=2--x--x--2s=3--x--x--3s=5--x--x--2s=3--x--x-|


                         ~~
   S S  S  S S   +S  S S H
|------12-12---------------------------|
|--------------------------------------|
|-11s9--9--9s8b9r(8)-6-5-6-------------|
|--------------------------------------|
|--------------------------------------|
|--------------------------------------|
|
|  S S  S  S S    S  S S S S S S E E
|--------------------------------------|
|--------------------------------------|
|--------------------------------------|
|--------------------------------4-----|
|--2h4--x--x-4s===5--x-x-5s7-x-x---3\--|
|--0h2--x--x-2s===3--x-x-3s5-x-x-------|


                                                                       PM-------|
   |---3---|  |---3----|  |---3---|  |---3---|  |---3---|              |----3----|
   S  S    S  S  S     S  S  S    S  S  S    S  S  S    S  T  T  T  T  E    E    E
|------------------------------------------------------------------------------------|
|-----------------------------------13h14--------------14-17h18h19p18-17---18---19---|
|------------13h14-------13h14h==16---------16-14h16---------------------------------|
|-11h13h==14---------h16-------------------------------------------------------------|
|------------------------------------------------------------------------------------|
|------------------------------------------------------------------------------------|
|
|  S    S     S    S      S    S     S    S     S    S     S     S     S S    S    S
|------------------------------------------------------------------------------------|
|------------------------------------------------------------------------------------|
|------------------------------------------------------------------------------------|
|------------------------------------------------------------------------------------|
|--2h===4-----x----x------4s===5-----x----x-----5s===7-----x-----x-----4s5----x----x-|
|--0h===2-----x----x------2s===3-----x----x-----3s===5-----x-----x-----2s3----x----x-|


                                                       ~~~~~~~~~~~~~~~
   |---3---|  |---3---|  |-----------7-----------|
   S  S    S  S  S    S  S  S    S  S    S  S    S  T  E..        +Q
|-19-14----------------------------------------------------------------------|
|---------17-14--------------------------------------------------------------|
|---------------16---14----------------------------16-14---------(14)--------|
|-----------------------16-14--------------14---16---------------------------|
|-------------------------------16-14---16-----------------------------------|
|----------------------------------------------------------------------------|
|
|                                                                  PM-----|
|  S    S     S    S     S    S       S       S     S      S S S   S  S S S
|----------------------------------------------------------------------------|
|----------------------------------------------------------------------------|
|----------------------------------------------------------------------------|
|----------------------------------------------------------------------------|
|--2h===4-----x----x-----4s===5-------x-------x-----5s=====7-x-x------5---5--|
|--0h===2-----x----x-----2s===3-------x-------x-----3s=====5-x-x---2----2----|


                                                                     ~~~~~~~~~~~~~~
   |---3---|  |---3---|  |---3---|  |---3---|  |---3---|  |---3---|
   S  S    S  S  S    S  S  S    S  S  S    S  S  S    S  S  S    S  E    E
|-14------------------------------------------------------------------------------|
|----14-----------------18-14-----------------17-14-----------------16---19b21====|
|---------17p16p14--------------17p16p14--------------17p16p14--------------------|
|--------------------16--------------------16--------------------16---------------|
|---------------------------------------------------------------------------------|
|---------------------------------------------------------------------------------|
|
|  S    S     S    S     S    S     S    S     S    S     S    S     S S  S     S
|---------------------------------------------------------------------------------|
|---------------------------------------------------------------------------------|
|---------------------------------------------------------------------------------|
|---------------------------------------------------------------------------------|
|--2h===4-----x----x-----4s===5-----x----x-----5s===7-----x----x-----4s5--x-----x-|
|--0h===2-----x----x-----2s===3-----x----x-----3s===5-----x----x-----2s3--x-----x-|


                                             D.S. al Coda
 ~~~~~~~                                             PM
   +E      S  S  S  S  S  S  S  S  E       S    S    E
|------------------------------------------------------------||
|-(19)r---19-18-17-------------------------------------------||
|------------------18-17-16-17-18-18b21---18---16---14-------||
|------------------------------------------------------------||
|------------------------------------------------------------||
|------------------------------------------------------------||
|
|                                          PM------------|
|                                          |--3---|  |-3-|
|   S   S  S  S  S  S  S  S  S  S  S    S  S S    S  S S S
|------------------------------------------------------------||
|------------------------------------------------------------||
|------------------------------------------------------------||
|------------------------------------------------------------||
|---2h==4--x--x--4s=5--x--x--5s=7--x----x--2-2---------------||
|---0h==2--x--x--2s=3--x--x--3s=5--x----x---------5--2-2-0---||


 Out-Chorus
  &
   S S S S S S S S S S S S S S S S    S S S S S S S S S S S S S S S S
|----------------------------------|----------------------------------|
|----------------------------------|----------------------------------|
|------------------------------4-4-|----------------------------------|
|------4-4-----4-4-----4-4-----4-4-|------4-4-----4-4-----4-4---------|
|--------------------------0h2-----|----------------------------2-4---|
|--0h2-----2h3-----3h5-------------|--0h2-----2h3-----3h5-----2-----3-|
|
|  W                                  W
|----------------------------------|----------------------------------|
|----------------------------------|----------------------------------|
|-/6-------------------------------|-/7-------------------------------|
|----------------------------------|----------------------------------|
|-/4-------------------------------|-/5-------------------------------|
|----------------------------------|----------------------------------|


                                   2/4
   S S S S S S S S S S S S  S  E.   +H
|---------------------------------|--------|
|---------------------------------|--------|
|---------------------------------|--------|
|------4-4-----4-4-----4-------3--|-(3)----|
|--2s4-----4h5-----5h7---7--4--5--|-(5)----|
|------------------------------6--|-(6)----|
|
|  H.                      +S  E.   +H
|---------------------------------|--------|
|---------------------------------|--------|
|-/9-----------------------(9)-7--|-(7)----|
|---------------------------------|--------|
|-/7-----------------------(7)-5--|-(5)----|
|---------------------------------|--------|


 4/4
  Gtrs I, II
              PM----|
  E. E. E. E. S S S S   S E. +Q   +E   E Q
|---------------------|---------------------*|
|---------------------|---------------------*|
|-7-----6-------------|---------------------*|
|----6-----5----------|---------------------*|
|-5-----4-----2---4---|-2-4--(4)--(4)\------*|
|----4-----3----0---2-|-0-2--(2)--(2)\------*|

4.FORECLOSURE OF A DREAM

Timing = 69
  Intro
  Hold throughout
 |-------------------------------------------------------------------------|
 |-------------------------------------------------------------------------|
 |---------0--------0--------0--------0--------0--------0------------------|
 |------0--------0--------0--------0---------------------------------------|
 |--10--------7--------8--------4----------5-------1-----------------------|
 |-------------------------------------------------------------------------|


 |-------------------------------------------------------------------------|
 |-------------------------------------------------------------------------|
 |---------0--------0--------0--------0-------0-------0--------------------|
 |------0--------0--------0--------0---------------------------------------|
 |--10--------7-------13--------8--------10------13------------------------|
 |-------------------------------------------------------------------------|


 |-------------------------------------------------------------------------|
 |-------------------------------------------------------------------------|
 |---------0--------0--------0--------0--------0--------0------------------|
 |------0--------0--------0--------0---------------------------------------|
 |--10--------7--------8--------4----------5-------1-----------------------|
 |-------------------------------------------------------------------------|

 
  Guitar 2
 |-------------------------8-----7--------6--------------------------------|
 |---8------------6--------------------------------6-----------------------|
 |-------------------------5-----4--------3--------------------------------|
 |---5------------3--------------------------------3-----------------------|
 |-------------------------------------------------------------------------|
 |-------------------------------------------------------------------------|
 |Guitar 1                                                                        
 |-------------------------------------------------------------------------|
 |-------------------------------------------------------------------------|
 |---------0--------0--------0--------0-------0--------0-------------------|
 |------0--------0--------0--------0---------------------------------------|
 |---------------------3--------2--------1---------------------------------|
 |---3--------1-----------------------------------1------------------------|


  Verse 1,2 & 3
  Guitar 2
 |-------------------------------------------------------------------------|
 |--8----------------------------------------------------------------------|
 |-------------------------------------------------------------------------|
 |--5----------------------------------------------------------------------|
 |-------------------------------------------------------------------------|
 |-------------------------------------------------------------------------|
 |Guitar 1
 |-------------------------------------------------------------------------|
 |-------------------------------------------------------------------------|
 |---------0--------0--------0--------0-------0--------0-------------------|
 |------0--------0--------0--------0---------------------------------------|
 |---------------------3--------2--------1-------1h3-----------------------|
 |---3--------1------------------------------------------------------------|
 
  
  Repeat Guitar's one part twice then continue with this.-
  Guitar 2
 |-------------------------8-----7--------6--------------------------------|
 |---8------------6--------------------------------6-----------------------|
 |-------------------------5-----4--------3--------------------------------|
 |---5------------3--------------------------------3-----------------------|
 |-------------------------------------------------------------------------|
 |-------------------------------------------------------------------------|
 |Guitar 1                                                                 |
 |-------------------------------------------------------------------------|
 |-------------------------------------------------------------------------|
 |---------0--------0--------0--------0-------0--------0-------------------|
 |------0--------0--------0--------0---------------------------------------|
 |---------------------3--------2--------1-------1h3-----------------------|
 |---3--------1------------------------------------------------------------|
 
  Guitar 2
 |-------------------------------------------------------------------------|
 |-10----------------------------------------------------------------------|
 |-----------------------------------------------------------7-------------|
 |--7----------------------------------------7----9----10------------------|
 |-------------------------------------------------------------------------|
 |-------------------------------------------------------------------------|
 |Guitar 1                                                                 |
 |Hold---------------------------------------------------------ª           |
 |-------------------------------------------------------------------------|
 |----------0--------0---------0--------0----------0---------0-------------|
 |------5---------5--------5---------5-------------------------------------|
 |--7----------6--------5---------4----------3----------1------------------|
 |-------------------------------------------------------------------------|
 |-------------------------------------------------------------------------|

  
  Guitar 2
 |-------------------------------------------------------------------------|
 |-------------------------------------------------------------------------|
 |---9---------------------------------------7--------(7)-----------------|
 |-------------------------------------------------------------------------|
 |-------------------------------------------------------------------------|
 |-------------------------------------------------------------------------|
 |Guitar 1                                                                 |
 |Hold---------------------------------------------------------ª           |
 |-------------------------------------------------------------------------|
 |-------------------------------------------------------------------------|
 |----------0--------0---------0--------0----------0---------0-------------|
 |------5---------5--------5---------5-------------------------------------|
 |--7----------6--------5---------4----------3----------2------------------|
 |-------------------------------------------------------------------------|
 
  Guitar 2
 |-------------------------------------------------------------------------|
 |-------------------------------------------------------------------------|
 |-------------------------------------------------------------------------|
 |-------------------------------------------------------------------------|
 |--5----------------------------------------------------------------------|
 |-------------------------------------------------------------------------|
 | Guitar 1                                                                |
 | Hold-------------------------------------------------------------------ª|
 |-------------------------------------------------------------------------|
 |-------------------------------------------------------------------------|
 |--------0--------0--------------0-----------------0--------0--------0----|
 |-----0--------0------------0-----------------0---------------------------|
 |--5--------3-------------------------------------------------------------|
 |--------------------6-----------------5-----------------3-------1--------|
                
  Double time
  Chorus.-
  Both gtrs.
 |-------------------------------------------------------------------------|
 |-------------------------------------------------------------------------|
 |---------------------------------------5------3--------------------------|
 |--5------3-----------------------------5------3--------------------------|
 |--5------3-----------------------------3------1------1--1--1--1--1--1----|
 |--3------1------1--1--1--1--1--1-----------------------------------------|
                  .  .  .  .  .  .                     .  .  .  .  .  . 


 |-------------------------------------------------------------------------|
 |-------------------------------------------------------------------------|
 |---------------------------------------5------3--------------------------|
 |--5------3-----------------------------5------3-----5-----6--------------|
 |--5------3-----------------------------3------1-----3-----4--------------|
 |--3------1------1--1--1--1--1--1-----------------------------------------|
                  .  .  .  .  .  .                                      

  Repeat chorus, then.-
  Half time
 |-------------------------------------------------------------------------|
 |-------------------------------------------------------------------------|
 |-------------------------------------------------------------------------|
 |--5----------------------------------------------------------------------|
 |--5----------------------------------------------------------------------|
 |--3----------------------------------------------------------------------|
 |Gtr. 1                                                                   |
 |-------------------------------------------------------------------------|
 |-------------------------------------------------------------------------|
 |---------0--------0--------0--------0--------0--------0------------------|
 |------0--------0--------0--------0---------------------------------------|
 |--10--------7--------8--------4----------5-------1-----------------------|
 |-------------------------------------------------------------------------|

  Gtr. 1
 |-------------------------------------------------------------------------|
 |-------------------------------------------------------------------------|
 |---------0--------0--------0--------0-------0-------0--------------------|
 |------0--------0--------0--------0---------------------------------------|
 |--10--------7-------13--------8--------10------13------------------------|
 |-------------------------------------------------------------------------|

  Gtr. 1
 |-------------------------------------------------------------------------|
 |-------------------------------------------------------------------------|
 |---------0--------0--------0--------0--------0--------0------------------|
 |------0--------0--------0--------0---------------------------------------|
 |--10--------7--------8--------4----------5-------1-----------------------|
 |-------------------------------------------------------------------------|

 
  Guitar 2
 |-------------------------8-----7--------6--------------------------------|
 |---8------------6--------------------------------6-----------------------|
 |-------------------------5-----4--------3--------------------------------|
 |---5------------3--------------------------------3-----------------------|
 |-------------------------------------------------------------------------|
 |-------------------------------------------------------------------------|
 |Guitar 1                                                                        |
 |-------------------------------------------------------------------------|
 |-------------------------------------------------------------------------|
 |---------0--------0--------0--------0-------0--------0-------------------|
 |------0--------0--------0--------0---------------------------------------|
 |---------------------3--------2--------1---------------------------------|
 |---3--------1-----------------------------------1------------------------|


  Repeat the verse part, then chorus, then the interlude.-
  Gtr. 2        hold bend-----------------------------
 |------------------------------------------------------------------------|
 |------------------------------------------------------------------------|
 |----7pbrf----(7)bf-------(7)t17---(17)p(7)------------(7)----------------|
 |-------------------------------------------------------------------------|
 |-------------------------------------------------------------------------|
 |-------------------------------------------------------------------------|
 |Gtr. 1                                                                   |
 |-------------------------------------------------------------------------|
 |-------------------------------------------------------------------------|
 |-------------------------------------------------------------------------|
 |--------------7-----------5----------------------------------------------|
 |--------------7-----------5----------------------------------------------|
 |--------------5-----------3---------3--3--3--3--3--3---------------------|
                                      .  .  .  .  .  .

  Gtr. 2              ///////
 |-------------------------------------------------------------------------|
 |-------------------------------------------------------------------------|
 |----7---7---7----7p5-----------------5h6p5--------5----------------------|
 |---------------------------------------------7---------7--6--5-----------|
 |-------------------------------------------------------------------7-----|
 |-------------------------------------------------------------------------|
 |Gtr. 1                                                                   |
 |-------------------------------------------------------------------------|
 |-------------------------------------------------------------------------|
 |----7--------5-----------------------------------------------------------|
 |----7--------5---------5-----6-------5------------------------5----------|
 |----5--------3---------7-----8-------5------------------------5----------|
 |-------------------------------------7------------------------3----------|

  Gtr. 2
 |-------------------------------------------------------------------------|
 |-------------------------------------------------------------------------|
 |-------------------------------------------------------------------------|
 |----5h6p5-------------5--------------------------------------------------|
 |---------------7------------7-----6p5------------5h6p5----------5--------|
 |------------------------------------------8---------------8----------8---|
 |Gtr. 1                                                                   |
 |-------------------------------------------------------------------------|
 |-------------------------------------------------------------------------|
 |-------------------------------------------------7-----------------------|
 |-------------------------------------------------7-----------------------|
 |-------------------------------------------------5-----------------------|
 |---------------4-----4-----4----4---4----4-------------------------------|
                 .     .     .    .   .    .

  Gtr. 2                                   let ring             (Gtr. 2 out)
 |-------------------------------------|-----------------------------------|
 |-------------------------------------|-----------------------------------|
 |-------------------------------------|---9-------------------------------|
 |-------------------------------------|-----------------------------------|
 |---5--------2//////(16)\\(13)-----|---7-------------------------------|
 |Gtr. 1                                                                   |
 |-------------------------------------|-----------------------------------|
 |-------------------------------------|-----------------------------------|
 |------------5------------------------|------------5p4---------------2p4--|
 |------------5-------8------5---------|-----------------------------------|
 |------------3-------6------7---------|---2---2--------------2---2--------|
 |-------------------------------------|-----------------------------------|
                                           .   .              .   .

  Gtr. 1  or Gtrs 1 & 2
 |-------------------------------------------------------------------------|
 |-------------------------------------------------------------------------|
 |-------------------------------------------------5p4---------------2h4---|
 |---------------5p4--------------2h4--------------------------------------|
 |---2----2---------------2---2------------2---2------------2---2----------|
 |-------------------------------------------------------------------------|
     .    .               .   .            .   .            .   .
 
 |------------------------------------------|
 |------------------------------------------|
 |------------------------------------------|
 |--------------5p4-------4-----5------6----|
 |--2----2----------------2-----3------4----|
 |------------------------------------------|
    .    .

  Half time
  Gtr. 2
 |-------------------------------------------------------------------------|
 |-------------------------------------------------------------------------|
 |-------------------------------------------------------------------------|
 |--5----------------------------------------------------------------------|
 |--5----------------------------------------------------------------------|
 |--3----------------------------------------------------------------------|
 |gtr. 1
 |----------------------------------------------------------|
 |----------------------------------------------------------|
 |---------0--------0--------0--------0--------0--------0---|
 |------0--------0--------0--------0------------------------|
 |--10--------7--------8--------4----------5-------1--------|
 |----------------------------------------------------------|

  Gtr.1 
 |---------------------------------------------------------|
 |---------------------------------------------------------|
 |---------0--------0--------0--------0-------0-------0----|
 |------0--------0--------0--------0-----------------------|
 |--10--------7-------13--------8--------10------13--------|
 |---------------------------------------------------------|

  Gtr. 1
 |---------------------------------------------------------|
 |---------------------------------------------------------|
 |---------0--------0--------0--------0--------0--------0--|
 |------0--------0--------0--------0-----------------------|
 |--10--------7--------8--------4----------5-------1-------|
 |---------------------------------------------------------|

 
  Guitar 2
 |-------------------------8-----7--------6--------------------------------|
 |---8------------6--------------------------------6-----------------------|
 |-------------------------5-----4--------3--------------------------------|
 |---5------------3--------------------------------3-----------------------|
 |-------------------------------------------------------------------------|
 |-------------------------------------------------------------------------|
 |Guitar 1                                                                        |
 |-------------------------------------------------------------------------|
 |-------------------------------------------------------------------------|
 |---------0--------0--------0--------0-------0--------0-------------------|
 |------0--------0--------0--------0---------------------------------------|
 |---------------------3--------2--------1---------------------------------|
 |---3--------1-----------------------------------1------------------------|

  
  Repeat verse, then the solo

  Solo.-
  Gtr. 1             //////
 |--------15-------15--------------19-------19pbr«-(19)p15-----------------|
 |----18bf-----18bf----------------------------------------18---15---------|
 |--------------------------------------------------------------------17---|
 |-------------------------------------------------------------------------|
 |-------------------------------------------------------------------------|
 |-------------------------------------------------------------------------|
 |Gtr. 2                                                                   |
 |-------------------------------------------------------------------------|
 |-------------------------------------------------------------------------|
 |--------------------------------------------5----------------------------|
 |----5---------3-----------------------------5----------------------------|
 |----5---------3-----------------------------3----------------------------|
 |----3---------1----1--1--1--1--1--1--------------------------------------|
                     .  .  .  .  .  .

  Gtr. 1
 |-------------------------------------------------------------------------|
 |--18p15------------------------------------------------------------------|
 |-----------17---16-------------------------------------14--------------15|
 |-----------------------17--15--14--15--14h15p14----17------17--15--17----|
 |-------------------------------------------------------------------------|
 |-------------------------------------------------------------------------|
 |Gtr.2                                                                    |
 |-------------------------------------------------------------------------|
 |-------------------------------------------------------------------------|
 |---3---------------------------------------------------------------------|
 |---3------------------------------------------------5-------------------3|
 |---1-------------------1--1--1--1--1--1-------------5-------------------3|
 |----------------------------------------------------3-------------------1|
                         .  .  .  .  .  .

  Gtr. 1
 |---------------------------------------------------------15--------------|
 |--------------------------------------------------18bf--------18---15----|
 |-----------------------15--17---17pbrf--(17)p15--------------------------|
 |---17p15-------15h17-----------------------------------------------------|
 |-----------17------------------------------------------------------------|
 |-------------------------------------------------------------------------|
 |Gtr.2                                                                    |
 |-------------------------------------------------------------------------|
 |-------------------------------------------------------------------------|
 |----------------------------------------------------5--------------------|
 |----------------------------------------------------5--------------------|
 |----------------------------------------------------3--------------------|
 |------------------------1---1---1---1---1---1----------------------------|
                          .   .   .   .   .   .

  Gtr. 1                                //////
 |-------------------------------------------------------------------------|
 |-----------15----18---------15-------------------------------------------|
 |---17bf----------------17----------15--------------(15)-----------------|
 |-------------------------------------------------------------------------|
 |-----------------------------------------------------------/17---15--16--|
 |-------------------------------------------------------------------------|
 |Gtr. 2                                                 Repeat last 4 bars|
 |-------------------------------------------------------------------------|
 |-------------------------------------------------------------------------|
 |------------3------------------------------------------------------------|
 |------------3-----------------------5--------------6---------------------|
 |------------1-----------------------3--------------4---------------------|
 |-------------------------------------------------------------------------|

  Gtr. 1
 |-------------------------------------------------------------------------|
 |-----------------------------------------------------------------17bf«---|
 |--------------------15---17h18p17-17pbr«---17(17)p15---------------------|
 |---------15----17-------------------------------------17----15-----------|
 |----17-------------------------------------------------------------------|
 |-------------------------------------------------------------------------|

  Gtr. 1
 |-------------------------------------------------------------------------|
 |-------------------------------------------------------------------------|
 |--17pbrf-------(17)---17p15---17--17p15-------14-------------------------|
 |-----------------------------------------17---------15-------------------|
 |---------------------------------------------------------17(12)--------|
 |-------------------------------------------------------------------------|

  Gtr. 1
 |-------------------------------------------------------------------------|
 |----------15---18------15---------15---18---15---18p15--------15---------|
 |----16-------------17------17bf--------------------------17--------------|
 |-------------------------------------------------------------------------|
 |-------------------------------------------------------------------------|
 |-------------------------------------------------------------------------|

  Gtr. 1
 |--18--17--15---------------------------------------|
 |---------------18--17--15--------------------------|
 |---------------------------17--16--15--------------|
 |---------------------------------------17--16--15--|
 |---------------------------------------------------|
 |---------------------------------------------------|


  Gtr. 1     ///                                 /////////
 |--------------------------------------------------------------------|
 |------------------------------------8brf----(8)8bf------------------|
 |----------------------------7p9-------------------------------------|
 |---5------5------/7----10-------------------------------------------|
 |--------------------------------------------------------------------|
 |--------------------------------------------------------------------|
 |Gtr. 2                                                              |
 |--------------------------------------------------------------------|
 |--------------------------------------------------------------------|
 |------------------------------------7----------5--------------------|
 |---7------5-------------------------7----------5--------7--------8--|
 |---7------5-------------------------5----------3--------5--------6--|
 |---5------3-----3--3--3--3--3--3------------------------------------|
                  .  .  .  .  .  .

  Gtr. 1
 |--/12p11p10---------------------------------------------|
 |-----------h13--10-----10h13----------------------------|
 |-------------------12----------8p7---5------------5-----|
 |-----------------------------------------7--5--7-----7--|
 |--------------------------------------------------------|
 |--------------------------------------------------------|
 |Gtr. 2                                                  |
 |--------------------------------------------------------|
 |--------------------------------------------------------|
 |--------------------------------------------------------|
 |--7----------------5------------------------------------|
 |--7----------------5------------------------------------|
 |--5----------------3----------4---4---4---4---4---4-----|
                                .   .   .   .   .   .

  Gtr. 1
 |------------------5h7h8p7p5-------------------------------------14h15h17-|
 |---------5h7h8-------------h8------------------------14h15h17------------|
 |--5h7h8----------------------------------14h16h17------------------------|
 |-------------------------------14h16h17----------------------------------|
 |-------------------------------------------------------------------------|
 |-------------------------------------------------------------------------|
 |Gtr. 2
 |-------------------------------------------------------------------------|
 |-------------------------------------------------------------------------|
 |---7-----------------5---------------------------------------------------|
 |---7-----------------5----------------8------------------7---------------|
 |---5-----------------3----------------6------------------5---------------|
 |-------------------------------------------------------------------------|

  Gtr. 1 /////////////////////////////////
 |---17bf------------------------------------------------------------------|
 |-------------------------------------------------------------------------|
 |-------------------------------------------------------------------------|
 |-------------------------------------------------------------------------|
 |-------------------------------------------------------------------------|
 |-------------------------------------------------------------------------|
 |Gtr. 2
 |-------------------------------------------------------------------------|
 |-------------------------------------------------------------------------|
 |-------------5p4-------------2h4-----------------------------------------|
 |---------------------------------------------5p4------------2h4----------|
 |----2---2-------------2---2---------2---2------------2---2---------------|
 |-------------------------------------------------------------------------|
      .   .             .   .         .   .            .   .

  Gtr. 2
 |-------------------------------------------------------------------------|
 |-------------------------------------------------------------------------|
 |-----------5p4------------2h4--------------------------------------------|
 |--------------------------------------------5p4------4-----5----6--------|
 |--2---2-----------2---2------------2---2-------------2-----3----4--------|
 |-------------------------------------------------------------------------|
    .   .           .   .            .   .


  Half time
  Verse 4
     let ring
 |-------------------------------------------------------------------------|
 |-------------------------------------------------------------------------|
 |-------------------------------------------------------------------------|
 |---5---------------------------------------------------------------------|
 |---5---------------------------------------------------------------------|
 |---3---------------------------------------------------------------------|

  Repeat 4 first bars, then chorus, then.-

 |-------------------------------------------------------------------------|
 |-------------------------------------------------------------------------|
 |-----------------------------------------7-----5-------------------------|
 |---7--------5----------------------------7-----5-------------------------|
 |---7--------5----------------------------5-----3------3--3--3--3--3--3---|
 |---5--------3-------5--5--5--5--5--5-------------------------------------|
                      .  .  .  .  .  .                  .  .  .  .  .  .


 |-------------------------------------------------------------------------|
 |-------------------------------------------------------------------------|
 |----------------------------------------7------5-------------------------|
 |---7--------5---------------------------7------5------7----8-------------|
 |---7--------5---------------------------5------3------5----6-------------|
 |---5--------3------5--5--5--5--5--5--------------------------------------|
                     .  .  .  .  .  .


 |-------------------------------------------------------------------------|
 |-------------------------------------------------------------------------|
 |---------------------------------------5------3--------------------------|
 |--5------3-----------------------------5------3--------------------------|
 |--5------3-----------------------------3------1------1--1--1--1--1--1----|
 |--3------1------1--1--1--1--1--1-----------------------------------------|
                  .  .  .  .  .  .                     .  .  .  .  .  . 


 |-------------------------------------------------------------------------|
 |-------------------------------------------------------------------------|
 |---------------------------------------5------3--------------------------|
 |--5------3-----------------------------5------3-----5-----6--------------|
 |--5------3-----------------------------3------1-----3-----4--------------|
 |--3------1------1--1--1--1--1--1-----------------------------------------|
                  .  .  .  .  .  .                                      
 
  Half time
  Gtr. 2
 |-------------------------------------------------------------------------|
 |-------------------------------------------------------------------------|
 |----------------------------------------------3/5------------------------|
 |--5-------------------------------------------3/5------------------------|
 |--5-------------------------------------------1/3------------------------|
 |--3----------------------------------------------------------------------|
 |Gtr. 1                                                                   |
 |-------------------------------------------------------------------------|
 |-------------------------------------------------------------------------|
 |---------0--------0--------0--------0-------0--------0-------------------|
 |------0--------0--------0--------0---------------------------------------|
 |---------------------3--------2--------1-------1h3-----------------------|
 |---3--------1------------------------------------------------------------|

  Gtr 2
 |-------------------------------------------------------------------------|
 |-------------------------------------------------------------------------|
 |-------------------------------------------------------------------------|
 |---5---------------------------------------------------------------------|
 |---5------------------------------------------3--------------------------|
 |---3------------------------------------------1--------------------------|
 |Gtr. 1                                                                   |
 |-------------------------------------------------------------------------|
 |-------------------------------------------------------------------------|
 |---------0--------0--------0--------0-------0--------0-------------------|
 |------0--------0--------0--------0---------------------------------------|
 |---------------------3--------2--------1--------1h3----------------------|
 |---3--------1------------------------------------------------------------|

  
  Gtr. 2
 |-------------------------------------------------------------------------|
 |-------------------------------------------------------------------------|
 |-------------------------------------------------------------------------|
 |---5---------------------------------------------------------------------|
 |---5---------------------------------------------3-----------------------|
 |---3---------------------------------------------1-----------------------|
 |Gtr. 1                                                                   |
 |-------------------------------------------------------------------------|
 |-------------------------------------------------------------------------|
 |---------0--------0--------0--------0--------0--------0------------------|
 |------0--------0--------0--------0---------------------------------------|
 |--10--------7--------8--------4----------5-------1-----------------------|
 |-------------------------------------------------------------------------|

  Gtr. 2                                                 let ring
 |-------------------------------------------------------------------------|
 |-------------------------------------------------------------------------|
 |---5---------------------------------------------------------------------|
 |---5--------------------------------------------------5------------------|
 |---3---------------------------------------3----------5------------------|
 |-------------------------------------------1----------3------------------|
 |Gtr. 1
 |-------------------------------------------------------------------------|
 |-------------------------------------------------------------------------|
 |---------0--------0--------0--------0------------------------------------|
 |------0--------0--------0--------0---------------------------------------|
 |--10--------7-------13--------8--------10--------------------------------|
 |-------------------------------------------------------------------------|

5.SWEATING BULLETS

Tunning E A D G B E


Intro:
E[---------------------------------------------------------------------]
B[------------------------------7-4-----------------------------7-4----]
G[------4-7-6-4-3-3h4-----4-7-6---------4-7-6-4-3-3h4-----4-7-6-----0--]
D[--5-7---------------5-7-----------5-7---------------5-7-----------5--]
A[---------------------------------------------------------------------]
E[---------------------------------------------------------------------]

 (verse) 8x
E[---------][         ]
B[---------][         ]
G[---------][ pick    ]
D[------9--][   slide ]
A[--8-7-7--][         ]
E[--6-5-0--][         ]

Chorus:  (1st guitar)
E[---------------------------------------------------------------]
B[---------------------------------------------------------------]
G[---------------------------------------------------------------]
D[---------------------------------------------------------------]
A[--2-5-7-5-5/8-7-------2-5-7-5-5/8-7-------2-5-7-5-5/8-7--------]
E[--0-3-5-3-3/6-5-0-6-5-0-3-5-3-3/6-5-3-2-1-0-3-5-3-3/6-5-0-6-5--]
pm  . . . .       . . . . . . .       . . . . . . .       . . .

   1st time                2nd time                  (2nd guitar)
E[-------------------][---------------------][--12--11--10--9---8---7---6-----]
B[-------------------][---------------------][--14b-13b-12b-11b-10b-9b--8b----]
G[-------------------][---------------------][-----------------------------0--]
D[-------------------][---------------------][-----------------------------5--]
A[--2-5-7-5-7-5-4-2--][--2-5-7-5-8-7-5-3-2--][--------------------------------]
E[--0-3-5-3-5-3-2-0--][--0-3-5-3-6-5-3-1-0--][--------------------------------]
pm  . . . .              . . . .

"Sweating bullets!"    Bridge 2x
E[-----------] [-------------------------------------]
B[------9-7--] [-------------------------------------]
G[--9-9-9-7--] [-------------------------------------]
D[--9-9-7-5--] [--------------------------------3-2--]
A[--7-7------] [--3-3-3-3-3-3-2-3-3-3-2-3-3-3-2-1-0--]
E[--0-0------] [--1-1-1-1-1-1-0-1-1-1-0-1-1-1-0------]
pm                . . . . . .   . . .   . . .

 part2
E[-----------------------------------------]
B[-----------------------------------------]
G[-----------------------------------------]
D[----------------------------------3-2----]
A[--------------6-------1-1-1-1-1-1-1-0-3--]
E[--4-4-4-4-4-4-4-6-6-6-----------------1--]
pm  . . . . . .   . . . . . . . . .

                       4x            after 4th time
E[         ][        ][-------------]---------]
B[         ][        ][-------------]---------]
G[  Bridge ][  part  ][-------------]---------]
D[   3x    ][    2   ][-10----------]---------]
A[         ][        ][-8--10-9-3-2-]-3let--4-]
E[         ][        ][----8--7-1-0-]-1ring-2-]


E[-------------------------------------------------------------------]
B[-------------------------------------------------------------------]
G[-------------------------------------------------------------------]
D[-------------------------------------------------------------------]
A[--5-------4-------3-------2-------1-------0------------------------]
E[----0-2-3---0-2-3---0-2-3---0-2-3---0-2-3---0-2-3-4-3-2-1-0-1-2-4--]
pm    . . .   . . .   . . .   . . .   . . .   . . . . . . . . . . .

             16th notes
E[          ]-------------------------------------------][-----------]
B[          ]-------------------------------------------][-----------]
G[  Chorus  ]-------------------------------------------][-----------]
D[          ]-------------------------------------------][-----------]
A[          ]------------0----------1-----0-------------][-8-7-5-3-2-]
E[          ]-0-----3---------3-----------------3-----0-][-6-5-3-1-0-]


End:
E[---------]
B[---------]
G[---------]
D[------9--]
A[--8-7-7--]
E[--6-5-0--]

6.THIS WAS MY LIFE

VOL SWELL <
|--------------------------------------------------------------------|
|--------------------------------------------------------------------|
|--------------------------------------------------------------------|
|--9-----------------------------(9)---------------------------------|
|--9-----------------------------(9)---------------------------------|
|--7-----------------------------(7)---------------------------------|

            P.M.               P.M.           P.M....................
|--------------------------------------------------------------------|
|--------------------------------------------------------------------|
|--------------------------------------------------------------------|
|--9-------------------------------------/-9-------------------------|
|--9--8--7--------5-----7-6--5-------3---//7-------------------------|
|--7--6--5----0---3-----5-4--3---0---1--/-----0-0-0-0-0-0-0-0-0-0-0-0|

           P.M.              P.M.
|--------------------------------------------------------------------|
|--------------------------------------------------------------------|
|--------------------------------------------------------------------|
|--9----------------------------------------2------------------------|
|--9--8--7------5---7--6--5---------3-------2------------------------|
|--7--6--5----0-3---5--4--3-----0---1-------0------------------------|

w/ "It was just another day"

            P.M.        ...     ....       ...     ....
|--------------------------------------------------------------------|
|--------------------------------------------------------------------|
|--------------------------------------------------------------------|
|-2----0h2-------2----------0h2------2---------0h2-------------------|
|---2------2-------2--3--3------3------3--4--4-----4-----------------|
|-------------0-------------------0-------------------0--------------|


|------------------------------|
|------------------------------|
|------------------------------|
|-2-----------4----------4-----|
|---4--5---5-----6---6------7--|
|------------------------------|
w/ It was words strung into sentances
           P.M.   P.M.    P.M.     P.M.  P.M.     P.M.       P.M.
|--------------------------------------------------------------------|
|--------------------------------------------------------------------|
|--------------------------------------------------------------------|
|----7h9---------9---9--------9h10------10---10-------7h8h--7--------|
|-7-------7--------7----7--7-------7-------7-----7--7---------77--9\-|
|------------0-----------------------0-------------------------------|

 w/ "To not be right"
P.M.......................
|--------------------------------------------------------------------|
|--------------------------------------------------------------------|
|--------------------------------------------------------------------|
|--------------------------------------------------------------------|
|--------------------------------------------------------------------|
|--5--3---2-----5---3---2--0-----------------------------------------|


|--------------------------------------------------------------------|
|--------------------------------------------------------------------|
|------------------------5--4----------------------------------------|
|---4----------------4---------7--5---4~~~~~-------------------------|
|---2------------/6--------------------------------------------------|
|--------------------------------------------------------------------|

CHORUS
"Lying on your bed"
|--------------------------------------------------------------------|
|--------------------------------------------------------------------|
|------------------------------------5--3~~~-------------------------|
|-----------5--4--2-----------2---5-----------5--2-------------------|
|--7--6--7-----------2--3~~~-----------------------------------------|
|----------------------------------------------------2~~~------------|

                         "Part of me that hates"
|--------------------------------------------------------------------|
|--------------------------------------------------------------------|
|--------------------------------------------------------------------|
|----------4--2------------------4------4---5~~~~--------------------|
|-1---4-----------4--2--/6--5-7-----7--------------------------------|
|--------------------------------------------------------------------|

|--------------------------------------------------------------------|
|--------------------------------------------------------------------|
|-----------------------------------5--3~~---------------------------|
|----------5--4--2----------2---5-----------5---2--------------------|
|---7-6-7----------2--3~~~-------------------------------------------|
|--------------------------------------------------2~~---------------|

|--------------------------------------------------------------------|
|--------------------------------------------------------------------|
|-----------------------------------5--4-----------------------------|
|---------4--2----------4--------4---------7--5---4~-----------------|
|-1---4----------4--0---2----/6-----------------------7~~~~----------|
|--------------------------------------------------------------------|

                                  w/"HEY!       THIS WAS MY LIFE!" etc
P.M............................         ....           ...
|--------------------------------------------------------------------|
|--------------------------------------------------------------------|
|--------------------------------------------------------------------|
|------------------------------------------------------------9-------|
|--------------------------------9--8--7-----5--7--6--5---3-/7-------|
|0-0-0-0-0-0-0-0-0-0-0-0-0-0-0-0-7--6--5--0--3--5--4--3-0-1----------|

   W/ "In our life there's" Etc
  P.M............   P.M..........    P.M..........     P.M......
|--------------------------------------------------------------------|
|--------------------------------------------------------------------|
|--------------------------------------------------------------------|
|------------------2----------------6----------------4-----------9\--|
|2-----------------3----------------4----------------5-----------7\--|
|0--0-0-0-0-0-0-0-----0-0-0-0-0-0-0----0-0-0-0-0-0-0---0-0-0-0-0-----|

 P.M.......    P.M..........            P.M....
|--------------------------------------------------------------------|
|--------------------------------------------------------------------|
|--------------------------------------------------------------------|
|------------2-------------------------------------------------------|
|------------3----------------1---2~-3~------------------------------|
|-0-0-0-0-0----0-0-0-0-0-0-0--2---------3-2-1------------------------|

GUITAR SOLO

|12-0-0-12-0-0-0-12-0-12-0-12-0-12-10-01-O0-9-0-0-9-9-80080080080808-|
|--------------------------------------------------------------------|
|--------------------------------------------------------------------|
|--------------------------------------------------------------------|
|--------------------------------------------------------------------|
|--------------------------------------------------------------------|

|-8p0--7p0--6p0--5p0--4p0--3-----------------------------------------|
|--------------------------------------------------------------------|
|--------------------------------------------------------------------|
|--------------------------------------------------------------------|
|--------------------------------------------------------------------|
|--------------------------------------------------------------------|

|--------------------------------------------------------------------|
|--------------------------------------------------------------------|
|--------------------0h2--0-0-----------------------0h2--0-0---------|
|-------0h2--0-0----------------0h2--0-0-----------------------------|
|--------------------------------------------------------------------|
|--0--------------3----------2--------------1------------------------|


|--------------------------------------------------------------------|
|--------------------------------------------------------------------|
|-------4----3----2-------------4---3---2----------------------------|
|--/5---------------------/5-----------------------------------------|
|--------------------------------------------------------------------|
|--------------------------------------------------------------------|

|--------------------------------------------------------------------|
|------5--4---3---------5---4----3-----------------------------------|
|-/4---4--3---2---/4----4---3----2-----------------------------------|
|-/5--------------/5-------------------------------------------------|
|--------------------------------------------------------------------|
|--------------------------------------------------------------------|

"This was my life," etc
   P.M...  P.M...  P.M...  P.M...
|--------------------------------|
|--------------------------------|
|--------------------------------|
|-2-------5-------4-------3------|
|-2-------5-------4-------3------|
|-0-0-0-0-3-3-3-3-2-2-2-2-1-1-1-1|

7.COUNTDOWN TO EXTINCTION

Tuning: Standard


Riff 1
Guitar 1 (Distortion)
e|--------------------------------|
B|--------------------------------|
G|--------------------------------|
D|-2----4-5-10----4-5-------------|
A|-0----2-3--8----2-3-5-5-5-5-5-5-|
E|--------------------3-3-3-3-3-3-|
        * *       * * * * * * * *
e|--------------------------------|
B|--------------------------------|
G|--------------------------------|
D|-4-5-----10-9----5-2-[let ring]-|
A|-2-3-6-6--8-7----3-0------------|
E|-----4-4------------------------|
   * * * *

Guitar 2 (Bass, arranged for clean guitar)
e|-------------------------------------|
B|-------------------------------------|
G|-------------------------------------|
D|-------------------------------------|
A|-0-0-0-0-0-0-2/5-5/7-8-8-8-8-8-8-8-8-|
E|-------------------------------------|

e|---------------------------------|
B|---------------------------------|
G|---------------------------------|
D|---------------------------------|
A|-5-5-5-5-5-5-5-5---------7-7-7-7-|
E|-----------------3-3-3-3---------|

e|---------------------------------------|
B|---------------------------------------|
G|---------------------------------------|
D|-------------------7-------------------|
A|-0-0-0-0-0-3/5-5h7---8-8-8-8-8-8-7h8-7-|
E|---------------------------------------|

e|------------------------------------|
B|------------------------------------|
G|------------------------------------|
D|------------------------------------|
A|--5-5-5-5-5-5-3h5-7---------7-7-7-7-|
E|--------------------3-3-3-3---------|



Riff 2 (Clean)
e|-----------1---------2---------------0----|
B|-----------1---------3---------------0----|
G|-2---------2---------2---------0-----1----|
D|-2---------3---------0---------0-----2----|
A|-0---------3---------0---------x-----2----|
E|-----------1-------------------3-----0----|
   "Endangered..."
e|-----------1---------2---------------0----|
B|-----------1---------3---------3-----0----|
G|-2---------2---------2---------0-----1----|
D|-2---------3---------0---------0-----2----|
A|-0---------3---------0---------x-----2----|
E|-----------1-------------------3-----0----|
   "The stage is set..."



Riff 3 (Distortion)
e|---------------------------------------------|
B|---------------------------------------------|
G|---------------------------------------------|
D|-2----5/-10----(10)\-7----(7)\------/9--(9)\-|
A|-0----3/--8-----(8)\-5----(5)\-5----/7--(7)\-|
E|-------------------------------3-------------|
   "Technology..."


Riff 4
e|--------------------------------|
B|--------------------------------|
G|--------------------------------|
D|-2----4-5-10----4-5-------------|
A|-0----2-3--8----2-3-5-5-5-5-5-5-|
E|--------------------3-3-3-3-3-3-|
        * *       * * * * * * * *
e|---------------------|
B|---------------------|
G|---------------------|
D|-4-5-----10-9----5---|
A|-2-3-6-6--8-7----3---|
E|-----4-4-----------3-|
   * * * *
                "The hunt..."


Riff 5
Guitar 1 (Play 4x)
e|----------------------------------------------|
B|----------------------------------------------|
G|----------------------------------------------|
D|---777---7-9-10-----9----777---7--------------|
A|-0-----0---------10----0-----0---10-8--10-8-7-|
E|----------------------------------------------|
   *     *               *     *
       "All are gone..."

Guitar 2 (Play 4x)
e|----555---5-7-8----7----555---5------------|
B|-----------------8--------------8-6--8-6-5-|
G|-------------------------------------------|
D|-------------------------------------------|
A|-(0)---(0)-----------(0)---(0)-------------|
E|-------------------------------------------|
    *     *             *     *

Guitar 3
e|-----------------------------------------|
B|-----------------------------------------|
G|-----0--------0--------0--------0------0-|
D|---------------------2--------4------2---|
A|---3--------2------3--------5------3-----|
E|-5--------3------------------------------|

e|-----------------------------------------|
B|-----------------------------------------|
G|-----0--------0--------0--------0------0-|
D|---------------------2--------4------2---|
A|---3--------2------3--------5------3-----|
E|-5--------3------------------------------|

e|-----------------|
B|-----------------|
G|-----0--------0--|
D|-----------------|
A|---3--------2----|
E|-5--------3------|


Riff 5a
Guitar 1
e|----------------------------------------------------|
B|----------------------------------------------------|
G|----------------------------------------------------|
D|-7-5------------------------------------------------|
A|-----8-7-5--8-7-5-4----7-5-4------5-4---------------|
E|--------------------6--------6-5------6-5-3---0--/6-|
   "...countdown to extinction..."

Guitar 2
e|-5--------------------------------------------------|
B|---8-6-5----6-5--------5----------------------------|
G|---------7------7-6------7-6------7-6---------------|
D|--------------------8--------8-7------8-7-5------/8-|
A|----------------------------------------------7-----|
E|----------------------------------------------------|

Guitar 3
e|----------------------------|
B|----------------------------|
G|----------------------------|
D|-14---10----9\--------------|
A|-12----8----7\----5---------|
E|------------------3----0-/6-|


Demo version of segue into next verse:
e|------------------------|
B|------------------------|
G|------------------------|
D|------------------5-7-8-|
A|---4-5-7---5-7-8--------|
E|-0-------0--------------|
   *       *
e|------------------------|
B|------------------------|
G|------------------------|
D|------------------8-7-5-|
A|---8-7-5---7-5-4--------|
E|-0-------0--------------|
   *       *
e|------------------------|
B|------------------------|
G|------------------------|
D|------------------5-7-8-|
A|---4-5-7---5-7-8--------|
E|-0-------0--------------|
   *       *
e|----------------------|
B|----------------------|
G|----------------------|
D|----------------------|
A|---8-7-5---7-5-4---7--|
E|-0-------0-------6-5--|
   *       *


Original studio version of segue into next verse:
Guitar 1
e|--------------------------|
B|--------------------------|
G|--------------------------|
D|--------------------------|
A|--0----(0)----(0)----(0)--|
E|--------------------------|

Guitar 2 (Guitar 3 plays notes in () )
e|--------------------------------|
B|-------(5)--(3)--(3)------------|
G|-------(5)--(4)--(2)--(9)--(10)-|  Last two chords blend in
D|--------7----5----4-------------|  with next verse
A|-----------------------7-----8--|
E|--------------------------------|


Play Riff 3  "Tell the truth..."
Play Riff 4  "So courageous..."
Play Riff 5  "All are gone..."
Play Riff 5a "Countdown to..."


Riff 5b (Solo Rhythm)
e|---------------------|
B|---------------------|
G|---------------------|
D|---------------------|
A|-3----2----0----0----|
E|-5----3----2----1--3-|

e|---------------------|
B|---------------------|
G|---------------------|
D|-----------2----4----|
A|-3----2----3----5----|
E|-5----3--------------|


Solo (Friedman)                x3
e|------------------------------|
B|--5-5~---7-7~---5-5~---7-7~---|
G|--5-5~---7-7~---5-5~---7-7~---|
D|------------------------------|
A|------------------------------|
E|------------------------------|

e|------------------------------------|
B|--5-5~---7-7~---5-7b8r7b8r7~---(7)\-|
G|--5-5~---7-7~---5-7b8r7b8r7~---(7)\-|
D|------------------------------------|
A|------------------------------------|
E|------------------------------------|

End solo



Riff 6 (Clean)
Guitar 1
e|-----------------------------------|
B|-----------------------------------|
G|-----------------------------------|
D|---2-3-2-/7---------2-3-2-/7-------|
A|-0----------7----------------7-----|
E|--------------8-7-3------------8-5-|
   "One hour..."

e|----0--3-3/5-3---------------------0------|
B|----3----------5p3\1---------1-3h4---\3-1-|
G|----2----------------------2--------------|
D|----0-------------------/3----------------|
A|----0-------------------------------------|
E|-2--2-----------------1-------------------|
   "...of life form..."

e|------------------------------------|
B|------------------------------------|
G|------------------------------------|
D|---2-3-2-/7---------2-3-2-/7--------|
A|-0----------7-----2----------7------|
E|--------------8-6--------------10-7-|
   "..face of the..."

e|----------------------------3--|
B|--------------------------3----|
G|------------------------5------|
D|---2-3-2-/7-----------4--------|
A|-3----------7--5\---5----------|
E|-------------------------------|
              "...and the rate..."

Guitar 2
e|-----------------------------------|
B|-----------------------------------|
G|-----------------------------------|
D|-----------------------------------|
A|-0------------3-2--------------3-0-|
E|------------------3----------------|

e|-----------------------------------------|
B|----3------------------------------------|
G|----2------------------------------------|
D|----0------------------------------------|
A|----0------------------------------------|
E|-2--2-----------------1----------------3-|

e|---------------------|
B|---------------------|
G|---------------------|
D|---------------------|
A|-0----3-1-2----5-3-2-|
E|---------------------|

e|--------------|
B|--------------|
G|--------------|
D|--------------|
A|-3----6\5-3-5-|
E|--------------|



Riff 7 (Distortion)
Guitar 1
e|---------------------------------------------|
B|---------------------------------------------|
G|---------------------------------------------|
D|-2----5/-10----(10)\-7----(7)\------/9--(9)\-|
A|-0----3/--8-----(8)\-5----(5)\-5----/7--(7)\-|
E|-------------------------------3-------------|

Guitar 2                                            x2
e|------|--------------------------------------------|
B|------|--5---------5-----------5---------6-5--8-10-|
G|------|----7---------7-----------7--5-4------------|
D|--7~--|-------5-7-------7p5------------------------|
A|------|---------------------8----------------------|
E|------|--------------------------------------------|
                                                          x2
e|-12------------12--------------12-----------13-12--15-17-|
B|----15------------15--------------15--13-12--------------|
G|--------12-14---------14p12------------------------------|
D|---------------------------15----------------------------|
A|---------------------------------------------------------|
E|---------------------------------------------------------|

Guitar 3                                           x4
e|------|--8-7-------8-7---------8-7--5----5-4--7-5-|
B|------|-------5-6-------6p5-----------8-----------|
G|------|---------------------7---------------------|
D|--7~--|-------------------------------------------|
A|------|-------------------------------------------|
E|------|-------------------------------------------|


Ending for above harmony on Demo version:
Guitar 1
e|--------------------------------------------|
B|-6-5----10-8----10-9----12-10----6-5--------|
G|----------------------------------------5-0-|
D|--------------------------------------------|
A|--------------------------------------------|
E|--------------------------------------------|

Guitar 2
e|--------------------------------------------|
B|-6-5------------10-9----12-10----6-5--------|
G|---------5-4----------------------------5-0-|
D|--------------------------------------------|
A|--------------------------------------------|
E|--------------------------------------------|



Play Riff 5  "All are gone..."
Play Riff 5a "Countdown to..."

Add this chord to the ending of Riff 5a:
e|-----|
B|-----|
G|-----|
D|-----|
A|--7--|
E|--5--|


Ending (Acoustic)
e|----------0--|
B|--------0----|
G|------5------|
D|----7--------|
A|--0----------|
E|-------------|

8.HIGH SPEED DIRT

Tuning: Standard


Remix/Remaster intro:
Guitar 1
e|------------------------0-------|
B|----------------------0---0---0-|
G|-5--------7---------5-------5---|
D|-5--------7---7---5-------------|
A|----0-0-0---0-7-0---------------|
E|--------------------------------|
      * * *   *   * * * *
e|-------------------------------|
B|-------------------------------|
G|-5--------5/6-5/6-5~--------5~-|
D|-4--------4/5-4/5-4~--------5~-|
A|----0-0-0---------------0-0----|
E|-------------------------------|
      * * *               * *
e|----------------------------------|
B|----------------------------------|
G|-------7-------5---7-------5\4-5~-|
D|-------7---7---5---7---7---5\4----|
A|-0-0-0---0-7-0---0---0-7-0--------|
E|----------------------------------|
   * * *   *   *   *   *   *
e|-----------------------------|
B|-----------------------------|
G|-----------------------------|
D|-------2-3-4\--2-3-4\--2-3-4-|
A|-0-0-0-3-4-5\--3-4-5\--3-4-5-|
E|-----------------------------|
   * * * * *     * *     * * *

Guitar 2 (During last bar)
[fade in, studio effect]
e|----0----|
B|----0----|
G|----x----|
D|----x----|
A|----0----|
E|---------|



Original version intro:

[fade in, studio effect]
e|----0----|
B|----0----|
G|----x----|
D|----x----|
A|----0----|
E|---------|

e|------------------------0-------|
B|----------------------0---0---0-|
G|-5--------7---------5-------5---|
D|-5--------7---7---5-------------|
A|----0-0-0---0-7-0---------------|
E|--------------------------------|
      * * *   *   * * * *
e|-------------------------------|
B|-------------------------------|
G|-5--------5/6-5/6-5~--------5\-|
D|-4--------4/5-4/5-4~--------5\-|
A|----0-0-0---------------0-0----|
E|-------------------------------|
      * * *               * *
e|----------------------------------|
B|----------------------------------|
G|-------7-------5---7-------5\4-5~-|
D|-------7---7---5---7---7---5\4----|
A|-0-0-0---0-7-0---0---0-7-0--------|
E|----------------------------------|
   * * *   *   *   *   *   *
e|-----------------------------|
B|-----------------------------|
G|-----------------------------|
D|-------2-3-4\--2-3-4\--2-3-4-|
A|-0-0-0-3-4-5\--3-4-5\--3-4-5-|
E|-----------------------------|
   * * * * *     * *     * * *



Riff 1
e|-----------------------------|
B|-----------------------------|
G|-5~-------5---5~--5---7--5---|
D|-5~-------5-0-4~--4-0-7--4-0-|
A|----0-0-0--------------------|
E|-----------------------------|
      * * *
   "Do it if you dare..."


Riff 2
e|-----------------------------|
B|-----------------------------|
G|-----------------------------|
D|-2--------4---5---7---8--7-5-|
A|-0--0-0-0-2-0-3-0-5-0-6--5-3-|
E|-----------------------------|
      * * *   *   *   *
e|-----------------------------|
B|-----------------------------|
G|---------------------------7-|
D|-2--------4---5---7---8--9-5-|
A|-0--0-0-0-2-0-3-0-5-0-6--7---|
E|-----------------------------|
      * * *   *   *   *


Riff 3
e|-------------------------------------|
B|-------------------------------------|
G|-5--------7-------5---7-------5\4-5~-|
D|-5--------7---7---5---7---7---5\4-4~-|
A|----0-0-0---0-7-0---0---0-7-0--------|
E|-------------------------------------|
      * * *   *   *   *   *   *
   "Energy of the gods..."
e|-----------------------------|
B|-----------------------------|
G|-----------------------------|
D|-------2-3-4\--2-3-4\--2-3-4-|
A|-0-0-0-3-4-5\--3-4-5\--3-4-5-|
E|-----------------------------|
   * * * * *     * *     * * *
   "...adrenaline surge..."


Riff 3a
e|------------------------------------|
B|------------------------------------|
G|-5--------7-------5---7-------5\4-5-|
D|-5--------7---7---5---7---7---5\4-4-|
A|----0-0-0---0-7-0---0---0-7-0-------|
E|------------------------------------|
      * * *   *   *   *   *   *
   "...on my way..."
e|---------------------------|
B|---------------------------|
G|---------------------------|
D|-------2-3-4\--2-3-4\------|
A|-0-0-0-3-4-5\--3-4-5\------|
E|-----------------------0-3-|
   * * * * *     * *     * *
   "...the high speed dirt..."


Riff 4
e|-----------------------|
B|----8~------------9-10-|
G|----7~------------8--9-|
D|----6~------------7--8-|
A|----7~------------8--9-|
E|-0--------0-0--0-------|
            * *  *
e|-------------------------|
B|----11~------------12-13-|
G|----10~------------11-12-|
D|-----9~------------10-11-|
A|----10~------------11-12-|
E|-0---------0-0--0--------|
             * *  *


Play Riff 1  "Paralyzed with fear..."
Play Riff 2
Play Riff 3  "Energy of the gods..."
Play Riff 3a "...on my way..."
Play Riff 4
Play Riff 3a   Solo Rhythm

Riff 3b (Solo Rhythm)
e|------------------------------------|
B|------------------------------------|
G|-5--------7-------5---7-------5\4-5-|
D|-5--------7---7---5---7---7---5\4-4-|
A|----0-0-0---0-7-0---0---0-7-0-------|
E|------------------------------------|
      * * *   *   *   *   *   *
e|-----------------------------------------------|
B|-----------------------------------------------|
G|-----------------------------------------------|
D|-------2-3-4\--2-3-4\--2-3-4-2----2-2-2----2-2-|
A|-0-0-0-3-4-5\--3-4-5\--3-4-5-0----0-0-0----0-0-|
E|-----------------------------------------------|
   * * * * *     * *     * * *
   "...the high speed dirt..."


Solo (Mustaine)
e|----------------------------|
B|----------------------------|
G|-5----7b9r7p6p5---5---------|
D|-5--------------7---7-6-5-4-|
A|----------------------------|
E|----------------------------|

e|----------------7-7-----------------|
B|----------10b12-----10b12~--(12)r10-|
G|---7~~------------------------------|
D|-4----------------------------------|
A|------------------------------------|
E|------------------------------------|

e|-----------------------------5-------------5-|
B|-8h10p8-7-8\-5h7p5---5-----5---8p7-5-----5---|
G|-------------------7---7b9-----------7b8-----|
D|---------------------------------------------|
A|---------------------------------------------|
E|---------------------------------------------|

e|-------------------------------------------|
B|-8p7p5-----5-------------------------------|
G|-------7b9---8p7p5-7-5h7p5-4h5p4---4-5-7---|
D|-------------------7-5-----------7---5-7-4-|
A|-------------------------------------------|
E|-------------------------------------------|
                                       * * *
e|-----------------------------------------------|
B|--------------------------------5--7-----------|
G|-------------------------5~-----5--7--7--5-7b9-|
D|-----------------5---5-7-----7--5--7-----5-----|
A|-0-3~---3h5-6/7----7---------------------------|
E|------5----------------------------------------|

e|------------------------------------------------------|
B|------------------------13----15----13h15p13----13-17-|
G|-[7]9-[7]9-[7]9r7----14----14----14----------14-------|
D|----a-------------------------------------------------|
A|------------------------------------------------------|
E|------------------------------------------------------|

e|--------------------------------------------------|
B|-15-13h15p13-12h13p12-10h12p10-8h10p8-7h8p7-5h7p5-|
G|--------------------------------------------------|
D|--------------------------------------------------|
A|--------------------------------------------------|
E|--------------------------------------------------|

e|----------------------------------------------|
B|-4-5------------------------------------------|
G|-----7p5----8p7p5----5~-5~----5-5-5----5-5-5~-|
D|---------7--------7---------------------------|
A|----------------------------------------------|
E|----------------------------------------------|

End Solo


Riff 5 (Solo Rhythm)
e|----------------------------|
B|----------------------------|
G|----------------------------|
D|-2--------------------------|
A|-0--0-0-0----------0-5--3---|
E|----------5-3-2--2--------3-|
      * * *        * *    * *

Final time:
e|-----------------------------------------------|
B|-----------------------------------------------|
G|-----------------------------------------------|
D|-2---------------------------2----2-2-2----2-2-|
A|-0--0-0-0----------0-5--0-3^-0----0-0-0----0-0-|
E|----------5-3-2--2-----------------------------|
      * * *        * *


Solo (Friedman)
e|--------8-12----8-11-10-8---------------|
B|-10---8------10-----------10-8-7--------|
G|----9----------------------------8-7----|
D|-------------------------------------10-|
A|----------------------------------------|
E|----------------------------------------|

e|-------------------------------------------------------|
B|---------5---------------------------------------------|
G|-------5------5-8-7-5----------------------------------|
D|-7-6-5------7---------7-5-5-44--------------7--7-7-7-7-|
A|-------------------------------6-5-3-------------------|
E|-------------------------------------5-3/5-------------|

e|-------------------------------------------------------|
B|----------------{20}-----{20}-----{20}-----{20}--------|
G|-----19-19-19b21----19b21----19b21----19b21----(21)r19-|
D|-/17---------------------------------------------------|
A|-------------------------------------------------------|
E|-------------------------------------------------------|

e|------------------------------------------|
B|---------17--------17-20p17--17-----------|
G|-17h19h20--20p17h20--------20--20p19p17---|
D|---------------------------------------19-|
A|------------------------------------------|
E|------------------------------------------|

e|----------------------------------------------|
B|---------17--------17-20p17--17-20p17-19b20~~-|
G|-17h19h20--20p19h20--------20-----------------|
D|----------------------------------------------|
A|----------------------------------------------|
E|----------------------------------------------|

e|---------------------------|
B|-17-19b20r19p17-20-20b22~~-|
G|---------------------------|
D|---------------------------|
A|---------------------------|
E|---------------------------|

e|----------------------19p14--------------------------------|
B|-------------15-17-19------15---------14-12-10-------------|
G|----14-16-18-----------------16-12-14----------12-9--------|
D|-17-------------------------------------------------12-11~-|
A|-----------------------------------------------------------|
E|-----------------------------------------------------------|

e|----17-16-15-14-15-17-17-12--15p12--14-12-10-9-10-12-10p9-------|
B|-/14-----------------------14-----14---------------------12-10\-|
G|----------------------------------------------------------------|
D|----------------------------------------------------------------|
A|----------------------------------------------------------------|
E|----------------------------------------------------------------|

e|-8p5h7---5-----------------------------------------------|
B|-------8---8-7h8h10-8p7---7p6p5---5h7p5---5-------5------|
G|------------------------9-------7-------7---7-6-5---5~---|
D|-------------------------------------------------------7-|
A|---------------------------------------------------------|
E|---------------------------------------------------------|

End Solo


Play Riff 1   "Dropping all my weight..."
Play Riff 2


Interlude:
Guitar 1 (Distortion)
e|------------------------|
B|------------------------|
G|------------------------|
D|-2-----------------14\--|
A|-0-----------------12\--|
E|------------------------|

Guitar 2 (Clean)
e|-5----------------------|
B|-5--------5~------------|
G|-7b8-5-7--5~---------5~-|
D|--------------7--5-7----|
A|------------------------|
E|------------------------|

e|-----------------------------------|
B|-----------------------------------|
G|---5-------------------------------|
D|--5--7--5--------------------------|
A|-7--------7--6-5---6h7p5---5-------|
E|-----------------8-------8---8\5~~-|

e|---------------------------|
B|-5-7b8r7p5-7p5--7b8-7~--5--|
G|-5-7b8r7p5-7p5--7b8-7~--5--|
D|---------------------------|
A|---------------------------|
E|---------------------------|

e|-----5-8~--5-----------------------|
B|-----5-8~--5--8-5------------------|
G|-5h6--------------8p7p5---7b8--5~~-|
D|------------------------7----------|
A|-----------------------------------|
E|-----------------------------------|

e|-----------------------|
B|-----------------------|
G|---5-------------------|
D|--x---7--5-------------|
A|-x----------7--6--5--3-|
E|-----------------------|

End Interlude


Riff 6
e|----------------------------|
B|----------------------------|
G|----------------------------|
D|-2-------------------7----5-|
A|-0--0-0-0-5---5----0-5--0-3-|
E|----------3-0-2--2----------|
      * * *   *    * *    *
e|-------------------------------------|
B|-------------------------------------|
G|-------------------------------------|
D|-2----2-2-2----2-2-2----2-2-2----2-2-|
A|-0----0-0-0----0-0-0----0-0-0----0-0-|
E|-------------------------------------|


Ending:
Guitar 1                      x3
e|-----------------------------|
B|-----------------------------|
G|-5~-------5---5~--5---7--5---|
D|-5~-------5-0-4~--4-0-7--4-0-|
A|----0-0-0--------------------|
E|-----------------------------|
      * * *
e|-----------------|
B|-----------------|
G|-5~------------5-|
D|-5~------------4-|
A|-----0-0-0-0-0---|
E|-----------------|
       * * * * *
  "Shit!"

Guitar 2
e|--------17------------------17-----------------------------|
B|------17--20p19p17--------17--20p19p17------17-------------|
G|-19b21------------20-19b21-------------19b21--20p19p17--17-|
D|------------------------------------------------------19---|
A|-----------------------------------------------------------|
E|-----------------------------------------------------------|

e|--------17------------------17-----------------------------|
B|------17--20p19p17--------17--20p19p17------17-------------|
G|-19b21------------20-19b21-------------19b21--20p19p17--17-|
D|------------------------------------------------------19---|
A|-----------------------------------------------------------|
E|-----------------------------------------------------------|

e|--------17------------------17--------------------------|
B|------17--20p19p17--------17--20p19p17------17----------|
G|-19b21------------20-19b21-------------19b21--20p19p17\-|
D|--------------------------------------------------------|
A|--------------------------------------------------------|
E|--------------------------------------------------------|

e|------------(5)--------------|
B|---------(7)---(7)(6)(5)-----|
G|-7b9r7p5-----5----------(5)--| Harmony guitar in ()'s.
D|-a--------7-----7--6--5--4---|
A|-----------------------------|
E|-----------------------------|
   "Shit!"

9.PSYCHOTRON

Tuning: Standard


Riff 1
e|---------------------------|
B|---------------------------|
G|---------------------------|
D|----9-----4/5--------------|
A|----7--9--2/3---4/5--------|
E|-0-----7------0-2/3--0-2-1-|
                *      * * *
e|-------------------------------|
B|-------------------------------|
G|-------------------------------|
D|----9-----4/5--------(11)-10-9-|
A|----7--9--2/3---/5-----9---8-7-|
E|-0-----7------0-/3--0----------|
                *     *
e|---------------------------|
B|---------------------------|
G|---------------------------|
D|----9-----4/5--------------|
A|----7--9--2/3---4/5--------|
E|-0-----7------0-2/3--0-2-1-|
                *      * * *
e|-------------------------------|
B|-------------------------------|
G|-------------------------------|
D|----9-----4/5--------(11)-10-9-|
A|----7--9--2/3---/5-----9---8-7-|
E|-0-----7------0-/3--0----------|
                *     *


Riff 2
e|------------------------|
B|------------------------|
G|------------------------|
D|------------------------|
A|-x-x-2--x-x-2--3-3-4/5--|
E|-x-x-0--x-x-0--1-1-2/3--|
                 * *
e|----------------------|
B|----------------------|
G|----------------------|
D|----------------------|
A|-x-x-2--x-x-2--3-3-3--|
E|-x-x-0--x-x-0--1-1-1--|
                 * *
e|------------------------|
B|------------------------|
G|------------------------|
D|------------------------|
A|-x-x-2--x-x-2--3-3-4/5--|
E|-x-x-0--x-x-0--1-1-2/3--|
                 * *

1st ending:
e|-----------------|
B|-----------------|
G|-----------------|
D|-----------------|
A|-x-x-2--x-x-3--3-|
E|-x-x-0--x-x-1--1-|

2nd ending:
e|-------------------------|
B|-------------------------|
G|-------------------------|
D|-------------------------|
A|-x-x-3-----------------3-|
E|-x-x-1-----------------1-|
        "Psychotron..."


Riff 3
Guitar 1
e|--------------------------------------|
B|--------------------------------------|
G|--------------------------------------|
D|-----2-----2/3---0------5-----5/6---3-|
A|-----2-----2/3---0------5-----5/6---3-|
E|-0-0---0-0-----0----0-0---0-0-----0---|
   * *   * *     *    * *   * *     *
    "Assassin in stealth..."
e|----------------------------------|
B|----------------------------------|
G|----------------------------------|
D|-----2-----2/3--------------------|
A|-----2-----2/3---7~-5-------5-7-8-|
E|-0-0---0-0-----0------7-6-5-3-5-6-|
   * *   * *     *    * * * *
    "Impervious to damage..."

Guitar 2
e|--------------------------------------|
B|--------------------------------------|
G|--------------------------------------|
D|-----2-----2/3---0------5-----5/6---3-|
A|-----2-----2/3---0------5-----5/6---3-|
E|-0-0---0-0-----0----0-0---0-0-----0---|
   * *   * *     *    * *   * *     *
e|----------------------------------|
B|----------------------------------|
G|----------------------------------|
D|-----2-----2/3---9~-7-------------|
A|-----2-----2/3--------6-5-4-5-7-8-|
E|-0-0---0-0-----0------------3-5-6-|
   * *   * *     *    * * * *


Riff 3a (Solo Rhythm)
Guitar 1
e|--------------------------------------|
B|--------------------------------------|
G|--------------------------------------|
D|-----2-----2/3---0------5-----5/6---3-|
A|-----2-----2/3---0------5-----5/6---3-|
E|-0-0---0-0-----0----0-0---0-0-----0---|
   * *   * *     *    * *   * *     *
e|----------------------------------|
B|----------------------------------|
G|----------------------------------|
D|-----2-----2/3--------------------|
A|-----2-----2/3---2~-0-3-2-5-3-4-5-|
E|-0-0---0-0-----0--------------2-3-|
   * *   * *     *    * * * * *

Guitar 2
e|--------------------------------------|
B|--------------------------------------|
G|--------------------------------------|
D|-----2-----2/3---0------5-----5/6---3-|
A|-----2-----2/3---0------5-----5/6---3-|
E|-0-0---0-0-----0----0-0---0-0-----0---|
   * *   * *     *    * *   * *     *
e|----------------------------------|
B|----------------------------------|
G|----------------------------------|
D|-----2-----2/3---1~-0-2-1-4-2-----|
A|-----2-----2/3----------------4-5-|
E|-0-0---0-0-----0--------------2-3-|
   * *   * *     *    * * * * *


Solo (Friedman, wah pedal)
e|--------------------------------------|
B|-5----8----7----10----8----5---8\7--7-|
G|-4----7----6-----9----7----4---7\6--6-|
D|--------------------------------------|
A|--------------------------------------|
E|--------------------------------------|

e|----------------------------------------|
B|----------------------------------------|
G|-/9p7~----------------------------------|
D|--------9-7------8~-7p5-----7~~----/17\-|
A|------------10p7--------7p5-------------|
E|----------------------------------------|

End Solo

Play Riff 3   "Computer on board..."
Play Riff 3a   Solo Rhythm


Solo (Friedman)
e|-------5---6-------7-----8/9----9-------10-11---------|
B|-----4-------5---6-----7----------8---9-------12b14~~-|
G|-2-2-----3-----4-----5--------6-----7-----------------|
D|------------------------------------------------------|
A|------------------------------------------------------|
E|------------------------------------------------------|

e|-------12-11p10----10-------------------------------|
B|-12p10----------12----12p11p10----10----------------|
G|-------------------------------12----12b14~~--(12)\-|
D|----------------------------------------------------|
A|----------------------------------------------------|
E|----------------------------------------------------|

End Solo


Riff 4
e|-------------------------|
B|-------------------------|
G|-------------------------|
D|--------9\-----------9\--|
A|--------7\-----------7\--|
E|-0-0--0-------0-0--0-----|
   * *  *       * *  *
     "Maybe not..."
e|------------------------|
B|------------------------|
G|------------------------|
D|--------9\--------------|
A|--------7\----5-------3-|
E|-0-0--0-------3-------1-|
   * *  *
     "Maybe a man..."


Riff 1a (Guitar 1 plays notes in () )
e|---------------------------|
B|---------------------------|
G|---------------------------|
D|----9-----4/5--------------|
A|----7--9--2/3---4/5--------|
E|-0-----7------0-2/3--0-2-1-|
                *      * * *
    "Part bionic..."
e|-------------------------------|
B|-------------------------------|
G|-------------------------------|
D|----9-----4/5--------(11)-10-9-|
A|----7--9--2/3---/5-----9---8-7-|
E|-0-----7------0-/3--0----------|
                *     *
    "Not a cyborg..."
e|---------------------------|
B|---------------------------|
G|---------------------------|
D|----9-----4/5--------------|
A|----7--9--2/3---4/5--------|
E|-0-----7------0-2/3--0-2-1-|
                *      * * *
   "Part bionic..."
e|---------------------------|
B|---------------------------|
G|---------------------------|
D|----9-----4/5--------------|
A|----7--9--2/3--3-3-3-3-3-3-|
E|-0-----7-------------------|
                 * * * * * *
   "Not a cyborg..."

Ending:
GUitar 1
e|-----------------|
B|-----------------|
G|-----------------|
D|-----------------|
A|-3-2-----2-------|
E|-----5-3---5-3-1-|

GUitar 2
e|-----------------|
B|-----------------|
G|-----------------|
D|-2-0-------------|
A|-----3-2-5-3-2-0-|
E|-----------------|


Play Riff 3   "Burning inside..."
Play Riff 3a  Solo Rhythm


Solo (Friedman)
e|------18b19~~--15------17b19~~--15------17b19~~-|
B|----17-----------17p15------------17p15---------|
G|-16---------------------------------------------|
D|------------------------------------------------|
A|------------------------------------------------|
E|------------------------------------------------|

e|-15------17b19-17b19^-17b20r17-15------------|
B|---17p15--------------------------17~--------|
G|---------------------------------------(14)\-|
D|---------------------------------------------|
A|---------------------------------------------|
E|---------------------------------------------|

e|-------12----------12-----------------------|
B|-/(12)----12-15b17----15-12--------11-11----|
G|----------------------------14b15^------12~-|
D|--------------------------------------------|
A|--------------------------------------------|
E|--------------------------------------------|

e|---------------------------------------------------------|
B|---------------------------------------------------------|
G|-14p12--12-----------------------------------------------|
D|------14--14p12-14p12--12--------12h14p12--12------------|
A|---------------------14--14p12-14--------14--14p12-10~~\-|
E|---------------------------------------------------------|

End Solo


Play Riff 3    "A killing machine..."
Play Riff 3a   Solo Rhythm


Solo (Friedman)
e|---------------------------------------------------|
B|-----19b20r19\17-15-17~-17-------12-14-15-12-14-12-|
G|---x-----------------------14-15-------------------|
D|-x-------------------------------------------------|
A|---------------------------------------------------|
E|---------------------------------------------------|

e|--------------------------------------|
B|--------------------------------------|
G|-15-14-12-14-14b16-12b14--12~~--------|
D|--------------------------------(12)\-|
A|--------------------------------------|
E|--------------------------------------|

e|-----------------------------------------------|
B|----12^----------------------------------------|
G|----12^----------------------------------------|
D|-14-----14-12----12h14p12----------------------|
A|--------------14----------14-12-10-12/13-12-10-|
E|-----------------------------------------------|

e|--------------------|
B|-12/14-14-14-14-14\-|
G|--------------------|
D|--------------------|
A|-10/12-12-12-12-12\-|
E|--------------------|

End Solo


Play Riff 4   "Maybe not..."
Play Riff 1a  "Part bionic..."


Riff 5 (Solo Rhythm)
e|---------------------|
B|---------------------|
G|---------------------|
D|---------------------|
A|-4-4-4--4-4-4----7-4-|
E|-2-2-2--2-2-2----5-2-|
   * * *  * * *      *
e|---------------------|
B|---------------------|
G|---------------------|
D|---------------------|
A|-4-4-4--4-4-4----5-4-|
E|-2-2-2--2-2-2----3-2-|
   * * *  * * *      *
e|---------------------|
B|---------------------|
G|---------------------|
D|---------------------|
A|-4-4-4--4-4-4----7-4-|
E|-2-2-2--2-2-2----5-2-|
   * * *  * * *      *
1st ending:
e|-------------------|
B|-------------------|
G|-------------------|
D|-------------------|
A|-4-4-4--4--5--5--4-|
E|-2-2-2--2--3--3--2-|
   * * *  *        *
2nd ending:
e|--------------------|
B|--------------------|
G|--------------------|
D|--------------------|
A|-4-4-5------------3-|
E|-2-2-3------------1-|
   * *

Solo (Friedman)
e|------------------------------------------------------------|
B|-17b19r17-14~--14b15r14-10~--12b14r12-9~--9b10r9------------|
G|-------------------------------------------------11~--(11)\-|
D|------------------------------------------------------------|
A|------------------------------------------------------------|
E|------------------------------------------------------------|

e|---------------------------9-------9-10----|
B|-----9-10--9-10-12-9h10h12---10h12------12-|
G|-/11-----11--------------------------------|
D|-------------------------------------------|
A|-------------------------------------------|
E|-------------------------------------------|

e|-9-10-12p10p9-10---9-12b14-12-9-------|
B|-----------------12-------------12b14-|
G|--------------------------------------|
D|--------------------------------------|
A|--------------------------------------|
E|--------------------------------------|

e|--------------------------------|
B|-12-10--------------------------|
G|-------11-9-----------------7~~-|
D|------------11-10-9-7-----------|
A|----------------------9-7-------|
E|--------------------------9-----|

End Solo


Play Riff 3     "Target to destroy..."
Play Riff 3a    Solo Rhythm


Solo (Friedman)
e|--------------------------------------------------------|
B|-----------(10)--------0-----------12-14-14b15-14----12-|
G|----------------7h9~-9---12\9~-9-x-12-14-14b15-14-12h13-|
D|---------------------------------x----------------------|
A|--------------------------------------------------------|
E|-X/-17\-X\----------------------------------------------|

e|-------------------------------------------------|
B|-------------------------------------------------|
G|----------12/14-14-14\12-12-12-12/14-14-14-14\12-|
D|-------------------------------------------------|
A|-12\10/11----------------------------------------|
E|-12\10/11----------------------------------------|

e|-------------------------------------------|
B|-------------------------------------------|
G|-12-12-12\11-11-11-11\9-9-9-9\7-7-7-7b9~~\-|
D|-------------------------------------------|
A|-------------------------------------------|
E|-------------------------------------------|

End Solo


Play Riff 3   "Sensors indicate..."

Riff 3b (Solo Rhythm)
e|--------------------------------------|
B|--------------------------------------|
G|--------------------------------------|
D|-----2-----2/3---0------5-----5/6---3-|
A|-----2-----2/3---0------5-----5/6---3-|
E|-0-0---0-0-----0----0-0---0-0-----0---|
   * *   * *     *    * *   * *     *
e|----------------------------|
B|----------------------------|
G|----------------------------|
D|-----2-----2/3--------------|
A|-----2-----2/3---5--------3-|
E|-0-0---0-0-----0-3--------1-|
   * *   * *     *


Solo (Friedman, wah pedal)
e|-------13-------16-------19\16p13-------------------13-16b19~~-|
B|---------------------------------15---------------15-----------|
G|----10-------13-------16-----------16-13--13-16-16-------------|
D|----------------------------------------15---------------------|
A|-/8-------11-------14------------------------------------------|
E|---------------------------------------------------------------|

e|--------------------------------------------|
B|-------------5h8p5---5h8p5-5-7-7b10--(10)r7-|
G|-2b4r2b4r2b4-------7------------------------|
D|--------------------------------------------|
A|--------------------------------------------|
E|--------------------------------------------|

End Solo


Play Riff 1a  "Part bionic..."


Riff 6
e|------------------------|
B|------------------------|
G|------------------------|
D|------------------------|
A|-x-x-2--x-x-2--3-3-4/5--|
E|-x-x-0--x-x-0--1-1-2/3--|
                 * *
e|----------------------|
B|----------------------|
G|----------------------|
D|----------------------|
A|-x-x-2--x-x-2--3-3-3--|
E|-x-x-0--x-x-0--1-1-1--|
                 * *
e|------------------------|
B|------------------------|
G|------------------------|
D|------------------------|
A|-x-x-2--x-x-2--3-3-4/5--|
E|-x-x-0--x-x-0--1-1-2/3--|
                 * *
1st, 2nd, 3rd ending:
e|-----------------|
B|-----------------|
G|-----------------|
D|-----------------|
A|-x-x-2--x-3----3-|
E|-x-x-0--x-1----1-|

Final time:
e|---------------------|
B|---------------------|
G|---------------------|
D|-----------------0-2-|
A|---x-x-3------5--0-2-|
E|-0-x-x-1----0-3----0-|
   *          *
          "Psychotron!"


Solo (Friedman)
e|--------------------------------|
B|--------------------------------|
G|--------------------------------|
D|----9---------------------------| ----|
A|---------7~-----------------7\--|     |
E|-0-------------7~----6~---7-----|     |
                                        |
e|---------------------------------|    |--> Play 3x
B|----------------------------12~~-|    |
G|-------------------4----/10------|    |
D|----------------3----------------| ---|
A|-----------2~--------------------|
E|-1~---0--------------------------|


e|--------------------------------|
B|--------------------------------|
G|--------------------------------|
D|----9---------------------------|
A|---------7~-----------------7\--|
E|-0-------------7~----6~---7-----|

e|---------------------------------|
B|---------------------------------|
G|---------------------------------|
D|----------------3------------0-2-|
A|-----------2~------3------5--0-2-|
E|-1~---0------------1----0-3----0-|
                          *

10.CAPTIVE HONOUR

Tuning: Standard

Riff 1 (Clean)
Guitar 1
e|---------0----------------0-------|
B|-----------0---0------------0---0-|
G|-------0-----0----------0-----0---|
D|-----2----------------2-----------|
A|---2----------------2-------------|
E|-0----------------3---------------|
  "Madness comes...."

e|----------------------------------|
B|---------0------------------------|
G|-------0---0---0--------0-------0-|
D|-----7-------7--------2-------0---|
A|---7----------------3-------0-----|
E|-5----------------3-------2-------|
  "...and madness goes..."

Guitar fill
e|---------3----------------3-------|
B|---------------0----------------0-|
G|----------------------------------|
D|----------------------------------|
A|----------------------------------|
E|----------------------------------|

e|---------3----------------------0-|
B|---------------0------------------|
G|----------------------------------|
D|----------------------------------|
A|----------------------------------|
E|----------------------------------|


Riff 2 (Clean)
e|---------0------------------------|
B|-----------0---0------------------|
G|-------0-----0----------0-------0-|
D|-----2----------------2-------0---|
A|---2----------------2-------0-----|
E|-0----------------3-------2-------|
  "Breaking him up, just breaking him in..."


Riff 3 (Clean)
Guitar 1
e|---------0------------------------|
B|-----------0---0------------------|
G|-------0-----0----------0-------0-|
D|-----2----------------2-------4---|
A|---2----------------3-------5-----|
E|-0----------------3-------5-------|
  "And when you kill a man..."
e|---------0------------------------|
B|-----------0---0------------------|
G|-------0-----0----------0-------0-|
D|-----2----------------2-------2---|
A|---2----------------2-------2-----|
E|-0----------------3-------0-------|
  "...kill many, and you're a..."
e|---------0------------------------|
B|-----------0---0------------------|
G|-------3-----3----------0-------0-|
D|-----4----------------2-------4---|
A|---4----------------3-------5-----|
E|-2----------------3-------5-------|
  "...conqueror, kill them all..."
e|---------0------------------------|
B|-----------0---0------------------|
G|-------0-----0----------0-------0-|
D|-----2----------------2-------2---|
A|---2----------------2-------2-----|
E|-0----------------3-------0-------|
  "...oh, you're a god!"


Guitar fills
e|---------------------------------0-|
B|-------------------------3---------|
G|-----------------------------------|
D|-----------------------------------|
A|-----------------------------------|
E|-----------------------------------|
  "And when you kill a man..."
e|--------------------------------2-|
B|--------------------------3--5----|
G|----------------------------------|
D|----------------------------------|
A|----------------------------------|
E|----------------------------------|
  "...kill many, and you're a..."
e|-------------------------------0--|
B|---------------------------3-5----|
G|----------------------------------|
D|----------------------------------|
A|----------------------------------|
E|----------------------------------|
  "...conqueror, kill them all..."
e|----------------------------------|
B|---------------------------3------|
G|----------------------------------|
D|----------------------------------|
A|----------------------------------|
E|----------------------------------|
  "...oh, you're a god!"



Riff 4 (Distortion)
e|---------------------|
B|---------------------|
G|---------------------|
D|----------------5----|
A|-4----3----2----3--5-|
E|-2----1----0-------3-|
  "Ladies and gentlemen of the jury..."

Last time
e|--------------------------------|
B|--------------------------------|
G|--------------------------------|
D|--------------------------------|
A|-4----3----2----3-2-0---2---0-2-|
E|-2----1----0----------2---2-----|
                        *   *
  "...against all of humanity..."


Riff 5
e|----------------------------------------------|
B|----------------------------------------------|
G|----------------------------------------------|
D|--------------------------------4/5-----------|
A|-4--xxx--4-3--xxx--3-2--xxx--2--2/3-xx-4/5-xx-|
E|-2--xxx--2-1--xxx--1-0--xxx--0------xx-2/3-xx-|
  "By virtue of this jury's decision..."


Riff 6
e|---------------------------------|
B|---------------------------------|
G|---------------------------------|
D|---------------------------------|
A|-4-4-4-4-4-4-4-4-4-4-4-4-4-4-4-4-|
E|-2-2-2-2-2-2-2-2-2-2-2-2-2-2-2-2-|
     * * * * * * * * * * * * * * *
  "Boy, your soul better belong to jesus..."
e|-----------------------------------------|
B|-----------------------------------------|
G|-----------------------------------------|
D|-----------------------------------------|
A|-4-4-4-4-4-4-4-4-4-4-4-4-3-2-0---2---0-2-|
E|-2-2-2-2-2-2-2-2-2-2-2-2-------2---2-----|
     * * * * * * * * * * *       *   *
  "Cause your ass belongs to me..."


Riff 7
e|------------------------------------|
B|------------------------------------|
G|------------------------------------|
D|-----------4-------------3h4--------|
A|-4--0-2-/4---4-0-3~----3-----3-0-2~-|
E|-2----------------------------------|
                       "Captive honour..."
e|---------------------------|
B|---------------------------|
G|---------------------------|
D|---3h4---------------------|
A|-2-----2-----4-7-----6-9-5-|
E|---------4/5-----5/7-----3-|
     "...ain't no honour..."


Riff 8
e|-------------------------------|
B|-------------------------------|
G|-------------------------------|
D|-------------------------------|
A|-4--------------3--------------|
E|-2--2-2-2-2-2-2-1--1-1-1-1-1-1-|
      * * * * * *    * * * * * *
  "No time for questions..."
e|---------------------------------|
B|---------------------------------|
G|---------------------------------|
D|-4-------------------------------|
A|-2--2-2-2-2-2-2--3-2-0---2---0-2-|
E|-----------------------2---2-----|
      * * * * * *        *   *
   "...no time for games..."


Play Riff 7  "Captive honour, ain't no honour..."


Riff 9  (Solo Rhythm)
e|--------------------------|
B|--------------------------|
G|--------------------------|
D|-------2--------2-----4/5-|
A|-4--xx-0--2--xx-0--xx-2/3-|
E|-2--xx----0--xx----xx-----|

e|----------------------------|
B|----------------------------|
G|----------------------------|
D|-------2--------------------|
A|-4--xx-0--2--xx-4/5--xx-4/5-|
E|-2--xx----0--xx-2/3--xx-2/3-|


Solo (Mustaine)
e|---------------------------|
B|---------------------------|
G|---------------------------|
D|--------4-3-2~-------------|
A|--------------------5-4-3~-|
E|-2--2-2---------2-2--------|

e|----------------------------|
B|----------------------------|
G|----------------------------|
D|--------4-3-2~--x-x-5-x-x-5-|
A|----------------x-x-5-x-x-5-|
E|-2--2-2---------------------|

e|---------------------------|
B|---------------------------|
G|---------------------------|
D|--------4-3-2~-------------|
A|--------------------5-4-3~-|
E|-2--2-2---------2-2--------|

e|-------------------------------|
B|-------------------------------|
G|-------------------------------|
D|-----------------------5-x-x-5-|
A|-2h3p2p0---2-0---------5-x-x-5-|
E|---------2-----2-0-2~----------|
           * * * * *
e|--------------------------------|
B|--------------------------------|
G|--------11-10-9~----------------|
D|----------------------12-11-10~-|
A|-9--9-9-----------9-9-----------|
E|--------------------------------|

e|--------------------------------|
B|--------------------------------|
G|--------11-10-9~--x-x-12-x-x-12-|
D|------------------x-x-12-x-x-12-|
A|-9--9-9-------------------------|
E|--------------------------------|

e|--------------------------------|
B|--------------------------------|
G|--------11-10-9~----------------|
D|----------------------12-11-10~-|
A|-9--9-9-----------9-9-----------|
E|--------------------------------|

e|-14h19p14---14h19p14---14h19p14---14h19p14---|
B|---------17---------17---------17---------17-|
G|---------------------------------------------|
D|---------------------------------------------|
A|---------------------------------------------|
E|---------------------------------------------|

e|-14h19p14---14h19p14---14h19p14---14h19p14---19b21~-|
B|---------17---------17---------17---------17--------|
G|----------------------------------------------------|
D|----------------------------------------------------|
A|----------------------------------------------------|
E|----------------------------------------------------|

End solo


Play Riff 8  "Inside the big house..."
Play Riff 7  "Captive honour, ain't no honour..."
Play Riff 9  Solo Rhythm

Solo (Mustaine)
e|-----------------------------------------14----------------|
B|-[16]17r16-----------17-16--14---------14---17b19r17\16p14-|
G|-[16]17r16--14~-14---17-16--14-------16--------------------|
D|----------------16--------------16-------------------------|
A|-----------------------------------------------------------|
E|-----------------------------------------------------------|

e|-------------------17-16-14--------------------------|
B|----14-------------17-16-14-17-14-17-16-14-----------|
G|-16----17-16-14~~-----------17-14-17-16-14-16-14-16--|
D|-------------------------------------------16-14-16--|
A|-----------------------------------------------------|
E|-----------------------------------------------------|

e|-----------------------------14------16------17------19-----|
B|----------------------------[17]19~-[19]21~-[20]22~-[22]24~-|
G|-15-14----14------------------------------------------------|
D|-15-14-16-14-16-15-14---------------------------------------|
A|-------16----16-15-14---------------------------------------|
E|-----------------------X\\----------------------------------|

e|-------24-------24-------24-------24-------24-|
B|-24b26----24b26----24b26----24b26----24b26----|
G|----------------------------------------------|
D|----------------------------------------------|
A|----------------------------------------------|
E|----------------------------------------------|

e|-[24]26-{26}-{26}-{26}-{26}-{26}-{26}~~-|
B|----------------------------------------|
G|----------------------------------------|
D|----------------------------------------|
A|----------------------------------------|
E|----------------------------------------|

End solo


Riff 10 (Solo Rhythm)
e|--------------------------------------------|
B|--------------------------------------------|
G|--------------------------------------------|
D|--------------------------------------------|
A|-4----4-7\5-----3----3-7\5-----2----2-7\5-2-|
E|-2----2-5\3-2-2-1----1-5\3-1-1-0----0-5\3-0-|
              * *            * *            *
Normal ending
e|--------------|
B|--------------|
G|--------------|
D|-5-4-2--------|
A|-3-2-0--5-4-2-|
E|--------3-2-0-|
   * * *  * * *

Final ending:
e|-----------------|
B|-----------------|
G|-----------------|
D|-----------------|
A|-3-2-0---2---0-2-|
E|-------2---2-----|
         *   *


Solo (Friedman)
e|---------14-----------14--------|
B|-17b19~----17-14------14-16b18~-|
G|----------------16b18-----------|
D|--------------------------------|
A|--------------------------------|
E|--------------------------------|

e|-14-----------14--------|
B|---17-14------14-15b17~-|
G|--------16b18-----------|
D|------------------------|
A|------------------------|
E|------------------------|

e|-14---------------14\-15p12---------12-15-10----------------|
B|----17-14------14-----------13----13---------11---11--------|
G|---------16b18-----------------12---------------12---12-11~-|
D|------------------------------------------------------------|
A|------------------------------------------------------------|

e|-13b14r13-[13]14~--14-13-12------------------------|
B|----------------------------16-15-14--14-15p14--14-|
G|------------------------------------17--------17---|
D|---------------------------------------------------|
A|---------------------------------------------------|
E|---------------------------------------------------|

e|-19-18-17-------------19----19-------------|
B|----------21-20-19\17----17----17\14-15p14-|
G|-------------------------------------------|
D|-------------------------------------------|
A|-------------------------------------------|
E|-------------------------------------------|

e|-14------------------------------|
B|----14----14------14-17p14h17p14-|
G|-------16----16b18---------------|
D|---------------------------------|
A|---------------------------------|
E|---------------------------------|

e|-17b19-(19)b20--17b19r17-14h17p14----14-|
B|----------------------------------17----|
G|----------------------------------------|
D|----------------------------------------|
A|----------------------------------------|
E|----------------------------------------|

e|----------17-17------------17b19r17--|
B|--17b19------17b19--17-14-(17)b19r17-|
G|-(17)b19-----------------------------|
D|-------------------------------------|
A|-------------------------------------|
E|-------------------------------------|

e|-14---------------------------------|
B|----17-14-------------16--------14\-|
G|----------16-14----------14~~---14\-|
D|----------------16-14---------------|
A|------------------------------------|
E|------------------------------------|

e|-19b21-19b21-19-17---------------------14----|
B|-------------------18b19~-----------14----14-|
G|---------------------------14-16-17----------|
D|---------------------------------------------|
A|---------------------------------------------|
E|---------------------------------------------|

e|-------14---14-16-17p16p14h16----14-|
B|-17b19----17------------------17----|
G|------------------------------------|
D|------------------------------------|
A|------------------------------------|
E|------------------------------------|

e|-----------------------------------------------|
B|-15h17p15p14-15----14--------------------------|
G|----------------16----16-14--------------------|
D|----------------------------16-14--------------|
A|----------------------------------15\14-12-----|
E|-------------------------------------------14~-|

End solo


Ending:
e|------------------------------------|
B|------------------------------------|
G|------------------------------------|
D|-----------4------------3h4---------|
A|-4--0-2-/4---4-0-3~---3-----3-0-2~~-|
E|-2----------------------------------|
                       "Captive honour..."
e|-----------------------------|
B|-----------------------------|
G|-----------------------------|
D|---3h4-----------------------|
A|-2-----2-----4-7-----6-9--4--|
E|---------4/5-----5/7------2--|
     "...ain't no honour..."

e|-------------------|
B|-------------------|
G|-------------------|
D|-------------------|
A|-3-2-0---2---0-2-4-|
E|-------2---2-----2-|
         *   *

11.ASHES IN YOUR MOUTH

Tuning: Standard

Riff 1
e|-------------------------------------------|
B|-------------------------------------------|
G|-15---14--12-10----------------------------| --|
D|-15---14--12-10-----2---3---2--------------|   |
A|-13---12--10--8-----2---3---2------5-4-3-2-|   |
E|------------------0---0---0---0-0----------|   |
                    *   *   *   * *  * * * *     |--> Play 3x
e|--------------------------|                    |
B|--------------------------|                    |
G|--------------------------| -------------------|
D|---2---3---2--------------|
A|---2---3---2------5-4-3-2-|
E|-0---0---0---0-0----------|
   *   *   *   * *  * * * *

e|----------------|
B|----------------|
G|-15---14--12-10-|
D|-15---14--12-10-|
A|-13---12--10--8-|
E|----------------|


Lead into next section:
e|----------------------------------------|
B|----------------------------------------|
G|----------------------------------------|
D|-----------6-7-8-9--11-10-9-8--10-9-8-7-|
A|-7-8-9-10-------------------------------|
E|----------------------------------------|

e|--------------------------------------------|
B|--------------------------------------------|
G|--------------------------------------------|
D|------------7-8-9-10--12-11-10-9--11-10-9-8-|
A|-8-9-10-11----------------------------------|
E|--------------------------------------------|

e|------------------------------------------------|
B|------------------------------------------------|
G|------------------------------------------------|
D|-------------8-9-10-11--13-12-11-10--12-11-10-9-|
A|-9-10-11-12-------------------------------------|
E|------------------------------------------------|

e|-------------------------------------|
B|-------------------------------------|
G|-------------------------------------|
D|--------------9-10-11-12--9-9-9-9-9\-|
A|-10-11-12-13--------------7-7-7-7-7\-|
E|-------------------------------------|



Riff 2
e|---------------------------|
B|---------------------------|
G|---------------------------|
D|-------5-----------5-------|
A|-2--/3-3-5-2----/3-3-5-0-5-|
E|-0--/3---3-0----/3---3-0-3-|
                         * *
e|-----------------------------|
B|-----------------------------|
G|-----------------------------|
D|-------5-----------5---------|
A|-2--/3-3-5-2----/3-3-5-0-5-4-|
E|-0--/3---3-0----/3---3-0-3-2-|
                         * * *


Riff 3
e|---------------------------------|
B|---------------------------------|
G|---------------------------------|
D|-2-2---2---2-----2-2---2---2-----|
A|-2-2---2---2-----2-2---2---2-----|
E|-----0---0---0-0-----0---0---0-0-|
       *   *   * *     *   *   * *
   "People have round..."
e|----------------------------------|
B|----------------------------------|
G|----------------------------------|
D|-2-2---2---2-----2-2---2----------|
A|-2-2---2---2-----2-2---2---8-77-5-|
E|-----0---0---0-0-----0---0-6-55-3-|
       *   *   * *     *   *   **
   "...from fairing..."
e|---------------------------------|
B|---------------------------------|
G|---------------------------------|
D|-2-2---2---2-----2-2---2---2-----|
A|-2-2---2---2-----2-2---2---2-----|
E|-----0---0---0-0-----0---0---0-0-|
       *   *   * *     *   *   * *
   "And the soldiers liberate..."

First ending
e|------------------------------------------|
B|------------------------------------------|
G|------------------------------------------|
D|-2-2---2---2-----2-2---2------------------|
A|-2-2---2---2-----2-2---2---8-77-5--8-77-5-|
E|-----0---0---0-0-----0---0-6-55-3--6-55-3-|
       *   *   * *     *   *   **      **
   "...laying mines along..."

Second ending
e|--------------------------------------------------|
B|--------------------------------------------------|
G|--------------------------------------------------|
D|-2-2---2---2-----2-2---2--------------------------|
A|-2-2---2---2-----2-2---2---8-77-5--8-77-5--8-77-5-|
E|-----0---0---0-0-----0---0-6-55-3--6-55-3--6-55-3-|
       *   *   * *     *   *   **      **      **
   "...the wailing wall..."


Play Riff 2
Play Riff 3   "Melting down all metals..."
Play Riff 2


Riff 4                             x3
e|----------------------------------|
B|----------------------------------|
G|---------------------------7--7-6-|
D|--------5---4----8/9-------5--5-4-|
A|----5h7---7---7--6/7--------------|
E|-0-------------------0-0-0---0----|
   *                   * * *   *
   "Where do we go..."
e|----------------------------------------|
B|----------------------------------------|
G|----------------------------------------|
D|--------5---4----------------------8-10-|
A|----5h7---7---7--4/5----10\9-----8------|
E|-0---------------2/3--0--8\7-0-6--------|
   *                    *      * * *
   "God have mercy..."


Riff 5
Guitar 1
e|-------------------------------|
B|-------------------------------|
G|-------------------------------|
D|---------5-------5-4-----5--4~-|
A|-----7-------7-------6---------|
E|-0-0---0---0---0-------7-------|
   * *   *   *   *       *
   "Now we've rewritten..."
e|------------------------------|
B|------------------------------|
G|------------------------------|
D|-----4-------2--------7-------|
A|-/5----5-3~----0--4/5---5-5-4-|
E|--------------------------3-2-|

Guitar 2
e|-----------------------------------|
B|-----------------------------------|
G|-----------------------------------|
D|----------9--------9-8-------9--8~-|
A|-----10-------10-------10----------|
E|-0-0----0---0----0--------11-------|
   * *    *   *    *         *
e|------------------------------|
B|------------------------------|
G|------------------------------|
D|-----4-------2--------7-------|
A|-/5----5-3~----0--4/5---5-5-4-|
E|--------------------------3-2-|


Play Riff 4  "Where do we go..."


Riff 6
e|----------------------------------|
B|----------------------------------|
G|----------------------------------|
D|----------------------------------|
A|--------------------------------3-|
E|-0-0000-00-0000-00-0000-00-0000-1-|
   * **** ** **** ** **** ** ****
            "If you're fighting..."
e|----------------------------------|
B|----------------------------------|
G|----------------------------------|
D|--------------------------------3-|
A|--------------------------------1-|
E|-0-0000-00-0000-00-0000-00-0000---|
   * **** ** **** ** **** ** ****
            "It's okay to die..."
e|-----------------------------------|
B|-----------------------------------|
G|-----------------------------------|
D|----------------4----------------5-|
A|----------------2----------------3-|
E|-0-0000-00-0000---0-0000-00-0000---|
   * **** ** ****   * **** ** ****
     "The answer..."
e|--------------------|
B|--------------------|
G|--------------------|
D|------------------4-|
A|------------------2-|
E|-0-0000-00-000000---|
   * **** ** ******
     "...welcome, to tomorrow!"


Riff 7 (Solo Rhythm)
e|----------------------------|
B|----------------------------|
G|----------------------------|
D|--------------------4-5-4---|
A|-2------------------2-3-2-5-|
E|-0-000000000000000--------3-|
     ***************
e|--------------------------------------------------|
B|--------------------------------------------------|
G|--------------------------------------------------|
D|--------------------------------------------------|
A|-4------------------------1-2-3-4-4-3-2-1---------|
E|-2-22222222222222-1-2-3-4-----------------4-3-2-1-|
     ************** * * * * * * * * * * * * * * * *
e|----------------------------|
B|----------------------------|
G|----------------------------|
D|--------------------4-5-4---|
A|-2------------------2-3-2-5-|
E|-0-000000000000000--------3-|
     ***************
e|--------------------|
B|--------------------|
G|--------------------|
D|------------------4-|
A|-4----------------2-|
E|-2-22222222222222---|
     **************


Solo (Friedman)
e|-------------------------------------------|
B|--8------8------8------8-------------------|
G|-10b12--10b12--10b12--10b12----(12)r10-9~~-|
D|-------------------------------------------|
A|-------------------------------------------|
E|-------------------------------------------|

e|-----------------------------12------------10----------|
B|-----------------------10h12----12p10\8h10----10p8\7h8-|
G|-----9-11-12-11~---------------------------------------|
D|---x---------------------------------------------------|
A|-x-----------------------------------------------------|
E|------------------X\\----------------------------------|

e|-8------------------------------------------10b12--(12)r10-----|
B|---8p7---8p7------10b12--(12)r10---------------------------8~--|
G|-------9-----9-8-----------------9~~--9-9-9--------------------|
D|---------------------------------------------------------------|
A|---------------------------------------------------------------|
E|---------------------------------------------------------------|

e|-----12-15----12-18p12-------------18----15-21p15----15----|
B|-/14-------14----------14-------------17----------------15-|
G|--------------------------15-12/15----------------18-------|
D|-----------------------------------------------------------|
A|-----------------------------------------------------------|
E|-----------------------------------------------------------|

e|-15-----------(15)---\-|
B|-15b17--------(17)r15\-|
G|-----------------------|
D|-----------------------|
A|-----------------------|
E|-----------------------|

End Solo



Riff 7a
e|----------------------------------|
B|----------------------------------|
G|----------------------------------|
D|----------------------------------|
A|--------------------------------3-|
E|-0-0000-00-0000-00-0000-00-0000-1-|
   * **** ** **** ** **** ** ****
e|----------------------------------|
B|----------------------------------|
G|----------------------------------|
D|--------------------------------3-|
A|--------------------------------1-|
E|-0-0000-00-0000-00-0000-00-0000---|
   * **** ** **** ** **** ** ****



Riff 7   Solo Rhythm

Solo (Friedman)
e|-----------------------------------------------|
B|-----------------------------------------------|
G|-----------------------------------------------|
D|-------------------------5-5-5-5-5-5-9-5-5-5-5-|
A|-/7-7-7-7-7-7-10-7-7-7-7-----------------------|
E|-----------------------------------------------|

e|-----------------------/12-10----------------------|
B|------------------------------13-12-11~----12b14~--|
G|-4-4-4-4-4-7-4-4-4---------------------------------|
D|-------------------5~------------------------------|
A|---------------------------------------------------|
E|---------------------------------------------------|

e|------------------------------------------|
B|-12-11------------------------------------|
G|-------14~~----12-14-14b16r14b16r14-14p12-|
D|------------------------------------------|
A|------------------------------------------|
E|------------------------------------------|

e|-------------------------------------------------------------|
B|-------------------------------------------------------------|
G|-16p14----------17-16p14-16p14----------16p14----------------|
D|-------17-16-14----------------17-16-14-------17-16-14\13h14-|
A|-------------------------------------------------------------|
E|-------------------------------------------------------------|

e|-------------------------------------|
B|-------------------------------------|
G|-13----13-16----12-15----12-15-14p12-|
D|----14-------14-------14-------------|
A|-------------------------------------|
E|-------------------------------------|

e|--------------------14/18---------------14p12p10---------|
B|------11-12-14p12p11------11-12-14p12p11--------14p12p11-|
G|-11h12---------------------------------------------------|
D|---------------------------------------------------------|
A|---------------------------------------------------------|
E|---------------------------------------------------------|

e|---------12--------------------------------------|
B|-------12--15p12---------------------------------|
G|-14b16----------[14]15r14p12---------------------|
D|----------------------------14-12----------------|
A|---------------------------------14-13-12--------|
E|------------------------------------------15-12\-|

End Solo


Riff 7b (Solo Rhythm)
e|----------------------------|
B|----------------------------|
G|----------------------------|
D|--------------------4-5-4---|
A|-2------------------2-3-2-5-|
E|-0-000000000000000--------3-|
     ***************
e|--------------------------------------------------|
B|--------------------------------------------------|
G|--------------------------------------------------|
D|--------------------------------------------------|
A|-4------------------------1-2-3-4-4-3-2-1---------|
E|-2-22222222222222-1-2-3-4-----------------4-3-2-1-|
     ************** * * * * * * * * * * * * * * * *
e|----------------------------|
B|----------------------------|
G|----------------------------|
D|--------------------4-5-4---|
A|-2------------------2-3-2-5-|
E|-0-000000000000000--------3-|
     ***************
e|-------------------------|
B|-------------------------|
G|-------------------------|
D|------------------4----4-|
A|-4----------------2----2-|
E|-2-22222222222222--------|
     **************


Solo (Mustaine)
e|-12h15p12--12-12h15p12--12-12h15p12--12-12h15p12--12-|
B|---------15-----------15-----------15-----------15---|
G|-----------------------------------------------------|
D|-----------------------------------------------------|
A|-----------------------------------------------------|
E|-----------------------------------------------------|

e|-12h17p12--12-12h17p12--12-12h17p12--12-12h17p12--12-|
B|---------15-----------15-----------15-----------15---|
G|-----------------------------------------------------|
D|-----------------------------------------------------|
A|-----------------------------------------------------|
E|-----------------------------------------------------|

e|-14h17p14--14-14h17p14--14-14h17p14--14-14h17p14--14-|
B|---------16-----------16-----------16-----------16---|
G|-----------------------------------------------------|
D|-----------------------------------------------------|
A|-----------------------------------------------------|
E|-----------------------------------------------------|

e|-14h19p14--14-14h19p14--14-14h19p14--14-14h19p14--14-|
B|---------16-----------16-----------16-----------16---|
G|-----------------------------------------------------|
D|-----------------------------------------------------|
A|-----------------------------------------------------|
E|-----------------------------------------------------|

e|-12h15p12--12-12h15p12--12-12h15p12--12-12h15p12--12-|
B|---------15-----------15-----------15-----------15---|
G|-----------------------------------------------------|
D|-----------------------------------------------------|
A|-----------------------------------------------------|
E|-----------------------------------------------------|

e|-12h17p12--12-12h17p12--12-12h17p12--12-12h17p12--12-|
B|---------15-----------15-----------15-----------15---|
G|-----------------------------------------------------|
D|-----------------------------------------------------|
A|-----------------------------------------------------|
E|-----------------------------------------------------|

e|-14h17p14--14-14h17p14--14-14h17p14--14-14h17p14--14-|
B|---------16-----------16-----------16-----------16---|
G|-----------------------------------------------------|
D|-----------------------------------------------------|
A|-----------------------------------------------------|
E|-----------------------------------------------------|

e|-/19-19-19-19-19-19-19-19-19-19-19-19-19-19-19-19-19-|
B|-----------------------------------------------------|
G|-----------------------------------------------------|
D|-----------------------------------------------------|
A|-----------------------------------------------------|
E|-----------------------------------------------------|

End Solo



Riff 8
Guitar 1
e|-15-19-15-14---------------------------|
B|-------------15------------------------|
G|----------------14---------------------|
D|-------------------14~~--------12-14~~-|
A|---------------------------------------|
E|---------------------------------------|

e|-15-19-15-14-------------|
B|-------------15----------|
G|----------------14-------|
D|-------------------14~~--|
A|-------------------------|
E|-------------------------|

e|--------------------------------------------------|
B|--------------------12-13p12-13p12----------------|
G|---------12-14p12h14--------------14p12-14p12-----|
D|-14p12h14------------------------------------14~~-|
A|--------------------------------------------------|
E|--------------------------------------------------|

e|-15-19-15-14-------------------------------14-15-17-|
B|-------------15-------------------13-15-17----------|
G|----------------14----------------------------------|
D|-------------------14~~----12-14--------------------|
A|----------------------------------------------------|
E|----------------------------------------------------|

e|-15-19-15-14----------------------17-15-14---------|
B|-------------15---------------------------17-15-13-|
G|----------------14---------------------------------|
D|-------------------14~~----12-14-------------------|
A|---------------------------------------------------|
E|---------------------------------------------------|

e|-15-19-15-14-------15-19-15-14-------|
B|-------------15----------------15----|
G|----------------14----------------14-|
D|-------------------------------------|
A|-------------------------------------|
E|-------------------------------------|

e|-10p7-10p7-11p8-11p8-12p9-12p9-13p10-13p10-14p11-14p11-|
B|-------------------------------------------------------|
G|-------------------------------------------------------|
D|-------------------------------------------------------|
A|-------------------------------------------------------|
E|-------------------------------------------------------|

e|-15p12-15p12-16p13-16p13-17p14-17p14-17b19r17b19~~\-|
B|----------------------------------------------------|
G|----------------------------------------------------|
D|----------------------------------------------------|
A|----------------------------------------------------|
E|----------------------------------------------------|

Guitar 2
e|-19-22-19-17---------------------------|
B|-------------19------------------------|
G|----------------19---------------------|
D|-------------------17~~--------16-17~~-|
A|---------------------------------------|
E|---------------------------------------|

e|-19-22-19-17-------------|
B|-------------19----------|
G|----------------19-------|
D|-------------------17~~--|
A|-------------------------|
E|-------------------------|

e|--------------------------------------------------|
B|--------------------15-17p15-17p15----------------|
G|---------16-17p16h17--------------17p16-17p16-----|
D|-17p16h17------------------------------------17~~-|
A|--------------------------------------------------|
E|--------------------------------------------------|

e|-19-22-19-17------------------------------17-19-20-|
B|-------------19-------------------17-19-20---------|
G|----------------19---------------------------------|
D|-------------------17~~----16-17-------------------|
A|---------------------------------------------------|
E|---------------------------------------------------|

e|-19-22-19-17----------------------20-19-17---------|
B|-------------19---------------------------20-19-17-|
G|----------------19---------------------------------|
D|-------------------17~~----16-17-------------------|
A|---------------------------------------------------|
E|---------------------------------------------------|

e|-19-22-19-17-------19-22-19-17-------|
B|-------------19----------------19----|
G|----------------19----------------19-|
D|-------------------------------------|
A|-------------------------------------|
E|-------------------------------------|

e|-15p12-15p12-16p13-16p13-17p14-17p14-18p15-18p15-19p16-19p16-|
B|-------------------------------------------------------------|
G|-------------------------------------------------------------|
D|-------------------------------------------------------------|
A|-------------------------------------------------------------|
E|-------------------------------------------------------------|

e|-20p17-20p17-21p18-21p18-22p19-22p19-22b24r22b24~~\-|
B|----------------------------------------------------|
G|----------------------------------------------------|
D|----------------------------------------------------|
A|----------------------------------------------------|
E|----------------------------------------------------|


Riff 2a
e|---------------------------|
B|---------------------------|
G|---------------------------|
D|-------5-----------5-------|
A|-2--/3-3-5-2----/3-3-5-0-5-|
E|-0--/3---3-0----/3---3-0-3-|
           *           * * *
e|-----------------------------|
B|-----------------------------|
G|-----------------------------|
D|-------5-----------5---------|
A|-2--/3-3-5-2----/3-3-5-0-5-4-|
E|-0--/3---3-0----/3---3-0-3-2-|
           *           * * * *


Riff 4a
e|----------------------------------|
B|----------------------------------|
G|---------------------------7--7-6-|
D|--------5---4----8/9-------5--5-4-|
A|----5h7---7---7--6/7--------------|
E|-0--------------------\\----------|
   *
   "Where do we go..."
                                   x2
e|----------------------------------|
B|----------------------------------|
G|---------------------------7--7-6-|
D|--------5---4----8/9-------5--5-4-|
A|----5h7---7---7--6/7--------------|
E|-0-------------------0-0-0---0----|
   *                   * * *   *
e|----------------------------------------|
B|----------------------------------------|
G|----------------------------------------|
D|--------5---4----------------------8-10-|
A|----5h7---7---7--4/5----10\9-----8------|
E|-0---------------2/3--0--8\7-0-6--------|
   *                    *      * * *
   "God have mercy..."


Riff 5a
Guitar 1
e|-------------------------------|
B|-------------------------------|
G|-------------------------------|
D|---------5-------5-4-----5--4~-|
A|-----7-------7-------6---------|
E|-0-0---0---0---0-------7-------|
   * *   *   *   *       *
e|------------------------------|
B|------------------------------|
G|------------------------------|
D|-----4-------2--------7-------|
A|-/5----5-3~----0--4/5---5-5-4-|
E|--------------------------3-2-|

Guitar 2
e|-------------------------------|
B|-------------------------------|
G|-------------------------------|
D|---------5-------5-4-----9--8~-|
A|-----7-------7-------6---------|
E|-0-0---0---0---0-------7-------|
   * *   *   *   *       *
e|------------------------------|
B|------------------------------|
G|------------------------------|
D|-----4-------2--------7-------|
A|-/5----5-3~----0--4/5---5-5-4-|
E|--------------------------3-2-|

e|-------------------------------|
B|-------------------------------|
G|-------------------------------|
D|---------5-------5-4-5---9--8~-|
A|-----7-------7---------6-------|
E|-0-0---0---0---0---------------|
   * *   *   *   *       *
e|------------------------------|
B|------------------------------|
G|------------------------------|
D|-----4-------2--------7-------|
A|-/5----5-3~----0--4/5---5-5-4-|
E|--------------------------3-2-|

e|---------------------------------|
B|---------------------------------|
G|---------------------------------|
D|---------5-------9-8-------9--8~-|
A|-----7-------7-------10----------|
E|-0-0---0---0---0--------11-------|
   * *   *   *   *         *
e|------------------------------|
B|------------------------------|
G|------------------------------|
D|-----4-------2--------7-------|
A|-/5----5-3~----0--4/5---5-5-4-|
E|--------------------------3-2-|

e|-----------------------------------|
B|-----------------------------------|
G|-----------------------------------|
D|----------9--------9-8-------9--8~-|
A|-----10-------10-------10----------|
E|-0-0----0---0----0--------11-------|
   * *    *   *    *         *
e|------------------------------|
B|------------------------------|
G|------------------------------|
D|-----4-------2--------7-------|
A|-/5----5-3~----0--4/5---5-5-4-|
E|--------------------------3-2-|


Play Riff 4  "Where do we go from here?"


Ending
e|----------------------------------------|
B|----------------------------------------|
G|----------------------------------------|
D|--------5---4----------------------8-10-|
A|----5h7---7---7--4/5----10\9-----8------|
E|-0---------------2/3--0--8\7-0-6--------|
   *                    *      * * *
      "God have mercy."
e|-------------------------------------------|
B|-------------------------------------------|
G|-------------------------------------------|
D|-----8-10--------8-10-----8-10--------8-10-|
A|---8-----------8--------8-----------8------|
E|-6-----------6--------6-----------6--------|
   * *         * *      * *         * *
e|-------------------------|
B|-------------------------|
G|-------------------------|
D|-----8-10----------------|
A|---8-------2--[let ring]-|
E|-6---------0-------------|
   * *
                  "Mercy, mercy..."

[Drum solo]

e|------------------------------|
B|------------------------------|
G|------------------------------|
D|------------------------------|
A|-2----2----2----2-------------|
E|-0----0----0----0--[fade out]-|
comments
print report bad tab
1 comment total.
0 reply
brett dixon wrote on May 16 2007, 05:24 pm

where the f uck is the solo for symphony of destruction!!!

I want to post or [tab]
guest
You may want to rate the tab now too:
select rating
Please do not post tabs as comments. Select "correction" instead!