Oops, an error
Loading. Please wait.

Cryptic Writings Tab

14,591 views 6 this week
1 commentread comment
1 2 3 4 5
excellent!
x 3
add to favorites launch autoscroll
font size
0
reset
Autoscroll
+/-
esc
set tempo
stop
Contributor
WARNING: You are trying to view
                                    content from Ultimate-Guitar.com
                                    in an unauthorized application,
                                    which is prohibited.

                                    Please use an official Ultimate
                                    Guitar Tabs application for iPhone,
                                    iPad or Android to access legitimate
                                    chords, guitar, bass, and drum tabs
                                    from Ultimate-Guitar.com database.

                                    Type "ultimate guitar tabs" in Apple
                                    App Store's or Android Market's
                                    search to find the application.
Band- Megadeth
Album- Cryptic Writings

1.TRUST

Intro
e|-----------------------------------------------------------------------|
B|----------0------0------3----------------------------------------------|
G|---0------0------0------2----------------------------------------------|
D|---2------2------2------4----------------------------------------------|
A|---2------3------4------5----------------------------------------------|
E|---0-------------------------------------------------------------------|


First riff
e|-----------------------------------------------------------|
B|-----------------------------------------------------------|
G|-----------------------------------------------------------|
D|-----------------------------------------------------------|
A|-------7-------------7--------------7-----------------7----|
E|-----0---8-7-------0---8----7----0----8-7--------0-----8-7-|

e|---------------------------|
B|---------------------------|
G|---------------------------|
D|---------------------------|
A|-------7-----------5-------|
E-|---0----6-5----0---0--6/8-|


play this riff before the verse (pre-verse riff)
e|------------------------------------------------------------------------|
B|------------------------------------------------------------------------|
G|---9---------------5------------------2---------------------------------|
D|---9---------------5------------------2----------------3----------------|
A|---7---------------3------------------0----------------3----------------|
E|------0-0-0-0-0-0------0-0-0-0-0-0-------0-0-0-0-0-0---1---0-0-0-0-0----|
  P.M   ...........      ...........       ...........       .........

e|-----------------------------------------------------------|
B|-----------------------------------------------------------|
G|---9-----------------5-------4-------2-----------------3---|
D|---9-----------------3-------4-------2-----------------3---|
A|---7-----------------3-------2-------0-----------------3---|
E|-------0-0-0-0-0-0------0-0-----0-0-----0-0-0-0-0-0----1---|
   P.M   ...........      ...     ...     ...........

e|------------------|
B|------------------|
G|------------------|
D|--3--3-3-3-3-3-3--|
A|--3--3-3-3-3-3-3--|
E|--1--1-1-1-1-1-1--|
   P.M ...........

this part is done with an acoustic.
e|-------------hp-----------------------------------3---3-5------------|
B|---5-----5h6-565-------6-----4-------4----3-----3---3----------------|
G|-------5--------5--------5-----5---5----------3----------------------|
D|-----7------------7--------7-----3----------5------------------------|
A|---------------------------------------------------------------------|
E|---------------------------------------------------------------------|

e|---6---------------------------0------------------s------------------|
B|-----6---6-p-----------------6---6--------------5-8-5----------------|
G|-------6---65---6----------5-------5----------3-------6--------------|
D|--------------8---8------7-----------7------5-----------7------------|
A|-----------------------0------------------0--------------------------|
E|---------------------------------------------------------------------|


e|-----------------------------------------------------------------------|
B|-----------------------------------------------------------------------|
G|-----------------------0-------0-----2-------------------------2-------|
D|-------0-------0-----0-------0-------0-------------------------2-------|
A|-----0-------0-----1-----1-0---------0--0000000000000000000000-0-------|
E|---1-----1-0-----0---------------3b------------------------------------|


Solo

e|-----------------|----------------|-----------------|------------------|
B|-----------------|-11b--v---------|-----------------|-12b--v-----------|
G|--9---9v-----9---|----------------|-9---9v------9---|------------------|
D|---------------9-|-------------s9-|---------------9-|---------------9--|
A|-----------------|----------------|-----------------|------------------|
e|-----------------|----------------|-----------------|------------------|


e|-----------------|----------------|-----------------|------------------|
B|-----------------|-16-17b-----v---|-17rb-b---17b--s-|------------------|
G|--9v--9v------16-|----------------|-----------------|-2b-2b-2b-rb-b-v--|
D|----------9s17---|----------------|-----------------|------------------|
A|-----------------|----------------|-----------------|------------------|
E|-----------------|----------------|-----------------|------------------|

                                                           h p
e|------------15-------|-18b-18v18b--p17-15-|---------p---151915--15-19--|
B|-----17-17v----17----|--------------------|-17v-17--1719------19-------|
G|-s16--------------16-|--------------------|-------16-------------------|
D|---------------------|--------------------|----------------------------|
A|---------------------|--------------------|----------------------------|
E|---------------------|--------------------|----------------------------|


e|-19b-v---s19-22-|-22b-22-22b22b22b22b22b-22-22b-|-22b22b22v22v22v22s---|
B|----------------|-------------------------------|-------22v22v22v22s-5s|
G|----------------|-------------------------------|----------------------|
D|----------------|-------------------------------|----------------------|
A|----------------|-------------------------------|----------------------|
E|----------------|-------------------------------|----------------------|


e|-12-11----------11-12-11-------------12-14p12----------------12--------|
B|-------12p11-12----------12----12p15----------15-12----12h15-----------|
G|----------------------------14----------------------14-----------------|
D|-----------------------------------------------------------------------|
A|-----------------------------------------------------------------------|
E|-----------------------------------------------------------------------|


e|-14p12-------------15--------------------------------------------------|
B|-------15-12----12----15-12----12-15p12h15p12----12--------------------|
G|-------------14-------------14----------------14----14p12--------------|
D|----------------------------------------------------------14-12--------|
A|-----------------------------------------------------------------------|
E|-----------------------------------------------------------------------|

2.ALMOST HONEST

Intro

3x========================================
-------------------------------------------------------------|
-------------------------------------------------------------|
-------------------------------------------------------------|
-----------2-----------0---2-----------------------------2---|
--------2-----------2------0-----2------------------2----0---|
-----0--------2--3---------------0-------0----------0--------|


                                  Verse:
                                  I lied just a little
-------------------------------------------------------------|
-------------------------------------------------------------|
----------7-------9\-----------------------------------------|
----------7-------9\-----------------------------------------|
---2------5-------7\--------2--------------------------------|
---0------------------------0-------------------0------------|


when I said I need you.  You stretched the truth  when you
-------------------------------------------------------------|
-------------------------------------------------------------|
-------------------------------------------------------------|
-------------------------------------------2-----------0--2--|
----------------------------------------2-----------2-----0--|
---0---------------------0-----------0--------2--3-----------|


said that you knew
-------------------------------------------------------------|
-------------------------------------------------------------|
-------------------------------------------------------------|
--------------------2-----------0---2------------------------|
---2-------------2-----------2------0------2-----------------|
---0--------0----------2--3----------------0------------0----|


Just can't believe it.            There's nothing to say
-------------------------------------------------------------|
-------------------------------------------------------------|
-------------------------------------------------------------|
-----2-----------0---2----------------------------2----------|
--2-----------2------0--------2-------------------0----------|
--------2--3------------------0------------------------------|


I was almost honest        almost
gtr 1
-------------------------------------------------------------|
-------------------------------------------------------------|
-------------------------------------------------------------|
-----------2-----------------0-----1-------------------------|
--2--------0---------2-------0-----1------2~--2--0--1--2--2--|
--0------------------0---------------------------------------|

gtr 2
--------------------------------------------------------------|
--------------------------------------------------------------|
---------------------------------------4--4--x--x--x--x--8--\-|
---------------------------------------------x--x--x--x-------|
---------------------------------------2--2--x--x--x--x--6--\-|
--------------------------------------------------------------|

                             Chorus:
                             Living alone can't stand this place
gtr 1
-------------------------------------------------------------|
-------------------------------------------------------------|
-------------------------------------------------------------|
----------------------------------------------2--------------|
---2--2--0--1--2--1--0-------2----------------0--------------|
-----------------------------0-------------------------------|

gtr2                             =================4x=========
-------------------/7-------7\-------------------------------|
-------------------/7-------7\------5--------5--------2------|
----/11--11---\------------------------4--------4--------2---|
------9---9---\------------------2--------2--------2---------|
-------------------------------------------------------------|
-------------------------------------------------------------|


It's four in the morning and I still see your face
gtr 1
-------------------------------------------------------------|
-------------------------------------------------------------|
-------------------------------------------------------------|
------------------2--------2------------------------------2--|
-----2------------0--------0-----------------------2------0--|
-----0------------------------------2----3--2--0---0---------|


gtr 2 (cont)
=====================
-------------------------------------------------------------|
---2----------3----------------------------------------------|
------2----------2-------------------------------------------|
---------2h4--------4----------------------------------------|
-------------------------------------------------------------|
-------------------------------------------------------------|

I was nearly pure when I said I loved you.  You were semi sincere,
when you said I'd bleed for you.

gtr 1                                            ============
-------------------------------------------------------------|
-------------------------------------------------------------|
-------------------------------------------------------------|
-------------------------2----2---------------------2--------|
-----------2-------------0----0------------------2-----------|
-----------0-----------------------2----3--2--0--------2--3--|

gtr 1
======================================fig B
--------------------------------------|
--------------------------------------|
--------------------------------------|
----0----2----------------------------|
-2-------0-----2----------------------|
---------------0---0--0--0--0--0--0---|


2nd Verse (play fig B)
with fills:
2x===================
---------------------------|
---------------------------|
-------9\7---7----7\-------|
---------------------------|
-------7\5---5----5\-------|
---------------------------|

You were almost honest    almost
-------------------------------------------------------------|
-------------------------------------------------------------|
-------------------------------------------------------------|
------2-----------0---2---------------------2----------------|
---2-----------2------0---2-----------------0----2-----------|
---------2--3-------------0--0--0--0--0--0-------0--0--0--0--|


-------------------------------------------------------------|
-------------------------------------------------------------|
-------------------------------------------------------------|
-------2---------0----1--------------------------------------|
-------0---2-----0----1-----2~---2--0--1--2--2--0--1--2--2---|
-0--0------0-------------------------------------------------|


-------------------------|
-------------------------|
-------------------------|
-------------------------|
-0--1--2------1------0---|
-------------------------|


Chorus (play same chorus)
Living alone, falling from grace I want to atone
but theres just empty space
can't face tomorrow now you're not coming back
walked off in the night and just left me the tracks


Bridge

I question your call by the tone of your voice
I know I should hang up but I don't have a choice
It happened that night whe you told me to go
Don't ask who's to blame I don't know.

Fig 3========================================================
----------0---------0---------0-------------0----------0-----|
-------------------------------------------------------------|
-------------9---------9-------------8----------8------------|
-----9----------9---------9-------9-----9----------9-------7-|
-------------------------------------------------------------|
-------------------------------------------------------------|

=============================================================
---------0--------0-------0---------0--------0-------0-------|
-------------------------------------------------------------|
--7---------7----------------6---------6-------6-----------5-|
-----7---------7------7---------7---------7------7------5----|
-------------------------------------------------------------|
-------------------------------------------------------------|

================
-----0---------0------0--------0-------0-----0--------0------|
-------------------------------------------------------------|
--------5----------------7-------7--------------9-------9----|
-5---------5-------7--------7-------7-----9--------9-------9-|
-------------------------------------------------------------|
-------------------------------------------------------------|


-------------------------------|
-10--------9------9--------9---|
-----9--------9------9---------|play fig 3
--------9---------------9------|
-------------------------------|
-------------------------------|


Lead (w/fig 2 7x)

--------------------------------9--------------------------9-|
------------------------------------8-8-8--8-8--8-8--8-8-----|
---11b(12)--rb11---9-----------------------------------------|
-------------------------------------------------------------|
-------------------------------------------------------------|
-------------------------------------------------------------|


---------------------------9----------------------------9----|
-8-8-8---8-8---8-8---8-8------8-8-8--8-8--8-8--8-8-----------|
-------------------------------------------------------------|
-------------------------------------------------------------|
-------------------------------------------------------------|
-------------------------------------------------------------|


-------------------------------------------------------------|
--------8---8--8---8---7b(8)-rb7-----------------------------|
--------7-------------------------9----9~---9~---9~----------|
--/9-----------9---------------------------------------------|
-------------------------------------------------------------|
-------------------------------------------------------------|


-------------------------------------------------------------|
--10---10b(12)---8-10--------------------9-------/12-15-12---|
-----------------------9----9~----9~-------------------------|
---------------------------------------------11--------------|
-------------------------------------------------------------|
-------------------------------------------------------------|


---------12---------------12------------12-----------------12-|
-15b(16)----15-12-15b(16)----12-14b(15)----15-12--------------|
--------------------------------------------------14b(16)-----|
--------------------------------------------------------------|
--------------------------------------------------------------|
--------------------------------------------------------------|


---------------------------12--------------------------------|
-15-12-15b(17)--15~------x----16-12-----------------15p12----|
-----------------------x------------14b(16)-rb14p12----------|
-------------------------------------------------------------|
-------------------------------------------------------------|
-------------------------------------------------------------|


----------12-------------------------------------------------|
-------------12h15-12--------------------------------15------|
-14b(16)--------------14b(16)-rb14p12----14b(16)hold---------|
-------------------------------------------------------------|
-------------------------------------------------------------|
-------------------------------------------------------------|


----------12---------------------------------18----18b(19)~--|
-------------------------------------------------------------|
-14b(16)------14b(16)--rb14p12--14--12~------15--------------|
-------------------------------------------------------------|
-------------------------------------------------------------|
-------------------------------------------------------------|


--15b(18)---15b(17)---15p12--------15b(17)----15~~~~---15p12-|
------------------------------12-----------------------------|
-------------------------------------------------------------|
-------------------------------------------------------------|
-------------------------------------------------------------|
-------------------------------------------------------------|


------15b(18)-----15~~---15p12-------12----------------------|
-12----------------------------12h15----12-15p12-15p12-------|
-------------------------------------------------------12h14-|
-------------------------------------------------------------|
-------------------------------------------------------------|
-------------------------------------------------------------|


--------------------11--------14--14----------16----17-----18-|
-12---------------------11------------------------------------|
----12-14b(16)hold------------14--14---14/16-----14-----18----|
--------------------------------------------------------------|
--------------------------------------------------------------|
--------------------------------------------------------------|


-----19~~~~~~~-----------------------------------------------|
-16----------------------------------------------------------|
-------------------------------------12-14p12-------------12-|
----------------------------------12----------14p12-12h14----|
----------------------12-12-12h14----------------------------|
-------------------------------------------------------------|


-------------------|
----15p12----------|
-12--------14p12---|
-------------------|
-------------------|
-------------------|


Outro
-------------------------------------------------------------|
-------------12--12-------------12------12---------12--------|
--14b(16)--------------14b(16)------14------14-----------12--|
-------------------------------------------------------------|
-------------------------------------------------------------|
-------------------------------------------------------------|

                     ========================================
--------------------------------------------------------------|
--12----12-----12-------------12--12----------12-----------12-|
--12----12-----------14b(16)----------14b(16)-----14b(16)-----|
--------------------------------------------------------------|
--------------------------------------------------------------|
--------------------------------------------------------------|

==============================play til end
--------------------------------------|
-----12--------12---12--12--12--------|
-14------14----12---12--12--12--------|
--------------------------------------|
--------------------------------------|
--------------------------------------|

I was almost honest
-------------------------------------------------------------|
-------------------------------------------------------------|
----------7---9----------------------------------------------|
--2-------7---9-----------2--------------------0---2---------|
----------5---7-----------0---3--2--0----2--3----------------|
------0------------0--0---------------------------------0----|

almost honest. etc.,
-------------------------------------------------------------|
-------------------------------------------------------------|
---7----9---------------------------------------------7----9-|
---7----9-----------2---------------------0---2-------7----9-|
---5----7-----------0----3--2--0----2--3--------------5----7-|
-------------0--0---------------------------------0----------|


-------------------------------------------------------------|
-------------------------------------------------------------|
---------------------------------------------7---9-----------|
--------2------------------------------------7---9---------2-|
--------0-----------4----5--4---------2------5---7---------0-|
-0--0--------0--0---2----3--2--0------0--0-----------0--0----|

-------------------------------------------------------------|
-------------------------------------------------------------|
-------------------------------7---9-------------------------|
-------------------0--2--------7---9----------2--------------|
--3--2--0----2--3--------------5---7----------0---3--2--0----|
---------------------------0-----------0--0------------------|


-----------|
-----------|
-----------|
-------0---|fade out
-2--3------|
-----------|

3.USE THE MAN

Tuning: Standard

Riff 1 (Acoustic)
e|-0--0--0-0--0-0--0--0-0-|
B|-0--0--0-0--0-0--0--0-0-|
G|-1--1--1-1--4-4--4--4-4-|
D|-2--2--2-2--5-5--5--5-5-|
A|-2--2--2-2--5-5--5--5-5-|
E|-0--0--0-0--3-3--3--3-3-|
   "I heard somebody..."
e|-0-0--0--0-0--0-0--0--0-0-|
B|-0-0--0--0-0--0-0--0--0-0-|
G|-3-3--3--3-3--2-2--2--2-2-|
D|-4-4--4--4-4--3-3--3--3-3-|
A|-4-4--4--4-4--3-3--3--3-3-|
E|-2-2--2--2-2--1-1--1--1-1-|
   "...fixed the days..."


Guitar fills over Riff 1:

#1 (Distortion w/ flanger)
e|----------------------------------|
B|----------------------------------|
G|-14b16----[14]16r14--12b14--------|
D|----------------------------14~~~-|
A|----------------------------------|
E|----------------------------------|
   "...to say..."

#2 (Distortion w/ flanger)
e|-------------------|
B|-------------------|
G|-[12]14----(14)r12-|
D|-------------------|
A|-------------------|
E|-------------------|
   "...dust..."

#3 (Distortion w/ flanger)
e|------------------|
B|-2h3--2p0--2p0----|
G|-2h3--2p0--2p0----|
D|------------------|
A|------------------|
E|----------------0-|
   "...get done..."


Riff 2 (Distortion)
e|---------------------------------------------------|
B|---------------------------------------------------|
G|---------------------------------------------------|
D|---------------------------------------------------|
A|-2--2----x-x-5-5--5--x-x-x-4-4--4-x-x-x-3-3--3-x-x-|
E|-0--0----x-x-3-3--3--x-x-x-2-2--2-x-x-x-1-1--1-x-x-|
   "I've seen..."


Riff 3 (Guitar 2 plays notes in () )
e|---------------------------------------------|
B|---------------------------------------------|
G|----------------------------(7-9-----------)-|
D|----------------------------(----9-8--7-5-2)-|
A|----7--5-7---5----5-7---5----5-7-------------|
E|-0---------7----------7----------7-6--5-3-0--|

Riff 1a (Acoustic)
e|--0-------------------------------|
B|--0-------------------------------|
G|--1-------------------------------|
D|--2-------------------------------|
A|--2-------------------------------|
E|--0-------------------------------|
   "Just one shot..."


Play Riff 1


Riff 1b (Acoustic)
e|--0-------------------------------|
B|--0-------------------------------|
G|--1-------------------------------|
D|--2-------------------------------|
A|--2-------------------------------|
E|--0-------------------------------|
   "Scores and..."


Play Riff 1


Guitar fills over the above Riff 1's

#1 (Distortion w/ flanger)
e|-----------|
B|-----------|
G|-----------|
D|--9/16~~~--|
A|-----------|
E|-----------|
   "...cry..."

#2 (Distortion w/ flanger)
e|-------------------------------------|
B|-12--15b17----12-15--[17]20r17-15b17-|
G|-------------------------------------|
D|-------------------------------------|
A|-------------------------------------|
E|-------------------------------------|
   "...him in..."

#3 (Distortion w/ flanger)
e|-12tm--(12)b13--(13)b14--(14)r12----17\\5\\------|
B|---------------------------------[steady gliss]--|
G|--[keep tremolo picking]-------------------------|
D|-------------------------------------------------|
A|-------------------------------------------------|
E|-------------------------------------------------|
   "...the noose..."

Play Riff 2  "I've seen..."

Riff 2a
e|---------------------------------------------------|
B|---------------------------------------------------|
G|---------------------------------------------------|
D|---------------------------------------------------|
A|-4--4----x-x-7-7--7--x-x-x-6-6--6-x-x-x-5-5--5-x-x-|
E|-2--2----x-x-5-5--5--x-x-x-4-4--4-x-x-x-3-3--3-x-x-|
   "Cryptic writings..."
e|-----------------------------------------------------|
B|-----------------------------------------------------|
G|-----------------------------------------------------|
D|-----------------------------------------------------|
A|-2--2----x-x-5-5--5--x-x-x-4-4--4-x-x-x-3-3--3-x-x---|
E|-0--0----x-x-3-3--3--x-x-x-2-2--2-x-x-x-1-1--1-x-x-0-|
   "I've seen..."

Riff 3 (Solo Rhythm)
e|-------------------------------|
B|-------------------------------|
G|-------------------------------|
D|----------------5--------------|
A|-2----7---5h7---5----7---5h7---|
E|-0--0---0-----0----0---0-----0-|
      *   *     *    *   *     *
e|-------------------------------|
B|-------------------------------|
G|-------------------------------|
D|-4--------------3--------------|
A|-4----7---5h7---3----7---5h7---|
E|----0---0-----0----0---0-----0-|
      *   *     *    *   *     *


Solo (Friedman)
e|-12------12-----12------12-----12------12-----12-----|
B|-15b17~--[15]17-15b17~--[15]17-15b17~--[15]17-15b17~-|
G|-----------------------------------------------------|
D|-----------------------------------------------------|
A|-----------------------------------------------------|
E|-----------------------------------------------------|

e|-15-----12------15------12------15-----17-----|
B|-[18]20-15b17~--18b20~--15b17~--18b20~-20b22~-|
G|----------------------------------------------|
D|----------------------------------------------|
A|----------------------------------------------|
E|----------------------------------------------|

e|-17-17-17-----17-----17-----17-17-17----|
B|-------20b22--20b20--20b22--------20b22-|
G|----------------------------------------|
D|----------------------------------------|
A|----------------------------------------|
E|----------------------------------------|

e|--------17b19--(19)r17-[17]19r17-[17]19r17-[17]19-|
B|-----15-------------------------------------------|
G|-/16----------------------------------------------|
D|--------------------------------------------------|
A|--------------------------------------------------|
E|--------------------------------------------------|

e|-[17]19~~----[17]19~~\--------12----15b17-|
B|-[17]19~~----[17]19~~\----/12----12-------|
G|------------------------------------------|
D|------------------------------------------|
A|------------------------------------------|
E|------------------------------------------|

e|-15-12-14----12----------------------------------------|
B|----------17----15p12----15p12-------12----------------|
G|----------------------14-------14b16----14p12-12-14b16-|
D|-------------------------------------------------------|
A|-------------------------------------------------------|
E|-------------------------------------------------------|

e|----12----------------------------------------|
B|-12----15p12----12----------------------------|
G|-------------14----14b16r14p12-12-14b16r14b16-|
D|----------------------------------------------|
A|----------------------------------------------|
E|----------------------------------------------|

e|-15------------------------|
B|---------------------------|
G|----[14]16r14-12--(12)~~~~-|
D|---------------------------|
A|---------------------------|
E|---------------------------|

End Solo


Riff 4
e|-------------------------------|
B|-------------------------------|
G|-------------------------------|
D|-------------------------------|
A|-2----5----7----3--2-3-2-3-2-3-|
E|-0----3----5-------------------|
   "I've seen..."
e|-------------------------------|
B|-------------------------------|
G|-------------------------------|
D|-------------------------------|
A|-2----5----7----3--2-3-2-3-5-5-|
E|-0----3----5-------------------|
   "I've seen..."


Riff 5
Guitar 1
e|-------------------------------|
B|-------------------------------|
G|-------------------------------|
D|----------------5--------------|
A|-2----7---5h7---5----7---5h7---|
E|-0--0---0-----0----0---0-----0-|
      *   *     *    *   *     *
                                 Final chord
e|-------------------------------|-----|
B|-------------------------------|-----|
G|-------------------------------|-----|
D|-4--------------3--------------|-----|
A|-4----7---5h7---3----7---5h7---|--2--|
E|----0---0-----0----0---0-----0-|--0--|
      *   *     *    *   *     *


Guitar 2
e|-------------------------------|
B|-------------------------------|
G|-------------------------------|
D|------5---4-2--------5---4-2---|
A|-2--------------5--------------|
E|-0--0---0-----0----0---0-----0-|
      *   *     *    *   *     *
                                 Final chord
e|-------------------------------|-----|
B|-------------------------------|-----|
G|-------------------------------|-----|
D|------5---4-2------------------|-----|
A|-4--------------3--2-3-2-3-5-5-|--2--|
E|----0---0-----0----------------|--0--|
      *   *     *

4.MASTERMIND

Tuning: Standard

Intro
e|-----------------------|
B|-----------------------|
G|-----------------------|
D|-----------------------|
A|-5-5-5-5----5-5-5-5-2--|
E|-3-3-3-3----3-3-3-3-0--|

e|-----------------------|
B|-----------------------|
G|-----------------------|
D|-----------------------|
A|-5-5-5-5-2----5-5-5-5--|
E|-3-3-3-3-0----3-3-3-3--|


Riff 1
e|----------------------------------|
B|----------------------------------|
G|----------------------------------|
D|--------------------------5-----7-|
A|---7-6---5-----5----7-6-----6-7---|
E|-0-----7---6-7----0-----7---------|
   *     *          *     *
e|----------------------------------|
B|--------------------------8-8-8-8-|
G|--------------------------7-7-7-7-|
D|--------------------------5-5-5-5-|
A|---7-6---5-----5----7-6-----------|
E|-0-----7---6-7----0-----7---------|
   *     *          *     *
e|----------------------------------|
B|----------------------------------|
G|----------------------------------|
D|--------------------------5-----7-|
A|---7-6---5-----5----7-6-----6-7---|
E|-0-----7---6-7----0-----7---------|
   *     *          *     *
e|----------------------------------|
B|----------------------------------|
G|--------------------------9p7-9p7-|
D|--------------------------9p7-9p7-|
A|---7-6---5-----5----7-6---7---7---|
E|-0-----7---6-7----0-----7---------|
   *     *          *     *


Riff 2
e|--------------------------------------------|
B|--------------------------------------------|
G|--------------------------------------------|
D|-------5----------4----------3----------2---|
A|--------------------------------------------|
E|-3-3-3---3--2-2-2---2--1-1-1---1--0-0-0---0-|
   * * *   *  * * *   *  * * *   *  * * *   *
  "Anonymous existence..."
e|-----------------------------------------------|
B|-----------------------------------------------|
G|------------------------------------------0tr2-|
D|-------5----------4----------3----------2------|
A|-----------------------------------------------|
E|-3-3-3---3--2-2-2---2--1-1-1---1--0-0-0--------|
   * * *   *  * * *   *  * * *   *  * * *
  "Destroy the logic..."
e|---------------------------------------------------|
B|---------------------------------------------------|
G|------------------------------------------0h2p0----|
D|-------5----------4----------3----------2------2p0-|
A|---------------------------------------------------|
E|-3-3-3---3--2-2-2---2--1-1-1---1--0-0-0------------|
   * * *   *  * * *   *  * * *   *  * * *
  "Enmassed and purposeless..."
e|---------------------------------------------------|
B|------------------------------------------Guitar 2-|
G|-----------------------------------------(/16-12~)-|
D|-------5----------4----------3----------2----------|
A|-----------------------------------------------5---|
E|-3-3-3---3--2-2-2---2--1-1-1---1--0-0-0----0-------|
   * * *   *  * * *   *  * * *   *  * * *    *
  "Neo-neuro torture..."


Play Riff 1   "Mastermind..."


Riff 2a
e|---------------------------------------------------|
B|---------------------------------------------------|
G|------------------------------------------0h2p0----|
D|-------5----------4----------3----------2------2p0-|
A|---------------------------------------------------|
E|-3-3-3---3--2-2-2---2--1-1-1---1--0-0-0------------|
   * * *   *  * * *   *  * * *   *  * * *
  "Invade the core..."
e|-----------------------------------------------|
B|-----------------------------------------------|
G|------------------------------------------0tr2-|
D|-------5----------4----------3----------2------|
A|-----------------------------------------------|
E|-3-3-3---3--2-2-2---2--1-1-1---1--0-0-0--------|
   * * *   *  * * *   *  * * *   *  * * *
  "Design vacant beings..."
e|---------------------------------------------------|
B|---------------------------------------------------|
G|------------------------------------------0h2p0----|
D|-------5----------4----------3----------2------2p0-|
A|---------------------------------------------------|
E|-3-3-3---3--2-2-2---2--1-1-1---1--0-0-0------------|
   * * *   *  * * *   *  * * *   *  * * *
  "Encrypted horror codes..."
e|---------------------------------------------------|
B|------------------------------------------Guitar 2-|
G|-----------------------------------------(/16-12~)-|
D|-------5----------4----------3----------2----------|
A|-----------------------------------------------5---|
E|-3-3-3---3--2-2-2---2--1-1-1---1--0-0-0----0-------|
   * * *   *  * * *   *  * * *   *  * * *    *
  "Processing brains..."


Play Riff 1   "Mastermind..."
Lead into next section:
e|-----|
B|-----|
G|-----|
D|-----|
A|--2--|
E|--0--|
  "...real....real...real..."


Riff 3
e|---------------------------------|
B|---------------------------------|
G|---------------------------------|
D|-2-----2-----2h3-2-----2-----2p0-|
A|-2-----2-----2h3-2-----2-----2p0-|
E|---0-0---0-0-------0-0---0-0-----|
     * *   * *       * *   * *
e|--------------------------|
B|--------------------------|
G|--------------------------|
D|-2-----2-----2h3-----0--1-|
A|-2-----2-----2h3--2--0--1-|
E|---0-0---0-0------2-------|
     * *   * *


Riff 4  (Solo Rhythm)
e|-----------------------------------|
B|-----------------------------------|
G|---------------------------------2-|
D|-4-----4-----2h4-2-----3-----4---2-|
A|-4-----4-----2h4-2-----3-----4-----|
E|---2-2---2-2-------2-2---2-2---2---|
     * *   * *       * *   * *   *
e|-----------------------------|
B|-----------------------------|
G|---------------5-5-5-4~--2p0-|
D|-----4-----2---5-5-5-4~--2p0-|
A|-----4-----2-----------------|
E|-2-2---2-2---2---------------|
   * *   * *   *
e|---------------------------------|
B|---------------------------------|
G|-----------------2---------------|
D|-4-----4-----2h4-2-----4-----2h4-|
A|-4-----4-----2h4-------4-----2h4-|
E|---2-2---2-2-------2-2---2-2-----|
     * *   * *       * *   * *
e|----------------------------|
B|----------------------------|
G|----------------------------|
D|---4-2---2-------------3----|
A|-------4---4-3-2-------3----|
E|-2---------------0-0-0----0-|
   *               * * *


Solo (Friedman)
e|-----------------------------------------|
B|-----------------------------------------|
G|------4b6----4b6~~----4b5~~----4b6r4-2~~-|
D|-----------------------------------------|
A|-----------------------------------------|
E|-X\\-------------------------------------|

e|--------15p14-11----------------------------------|
B|------13-------a-12-------------------------------|
G|----12-------------11--16b18r16b18r16b18r16b18r16-|
D|-/14----------------------------------------------|
A|--------------------------------------------------|
E|--------------------------------------------------|

e|----------{14}--------------------|
B|----------------------------------|
G|-(16)b18------{16}--(18)r16-------|
D|----------------------------16b18-|
A|----------------------------------|
E|----------------------------------|

e|---19b21--[19]20-[19]21-[19]20-[19]21-[19]20-[19]21-|
B|-x--------------------------------------------------|
G|-x--------------------------------------------------|
D|----------------------------------------------------|
A|----------------------------------------------------|
E|----------------------------------------------------|

e|-19b21~~--19b20r19--------------|
B|-------------------19p17--------|
G|-------------------------18~~\--|
D|--------------------------------|
A|--------------------------------|
E|--------------------------------|

e|------------------------------------------|
B|---------14-17--------------14-17-17p14---|
G|-/16b18--------14~~--16b18-------------16-|
D|------------------------------------------|
A|------------------------------------------|
E|------------------------------------------|

e|-------------------------------------------------------|
B|-16-16p14----------16----------------------------------|
G|---------16p14--14-16p14-----16p14---------------------|
D|--------------16--------16p14-----16p14--14----(14)~~\-|
A|---------------------------------------16--------------|
E|-------------------------------------------------------|

End Solo


Play Riff 3   Solo Rhythm


Solo (Mustaine)
e|-----------------------------------------------|
B|---------------14-----12-----------------------|
G|---------------14-----12h13--x-x---------------|
D|-14-14~~----14----14---------x-x--12h14~--14~~-|
A|-----------------------------------------------|
E|-----------------------------------------------|

e|-----------------------------------|
B|-----------------------------------|
G|--------------------x\-------------|
D|-12-14-15-14-12-----x\--------14~~-|
A|----------------14------/(13)------|
E|-----------------------------------|

e|------------------------------12-------12-------|
B|----14----12------------15-16-------------15-16-|
G|----14----12h13--x---------------14b16----------|
D|-14----14--------x--12--------------------------|
A|------------------------------------------------|
E|------------------------------------------------|

e|-12-------------------------------------------|
B|-----------12----------------14----12~--(12)\-|
G|----14b16-----14b16r14p12----14----12~--(12)\-|
D|--------------------------14----14------------|
A|----------------------------------------------|
E|----------------------------------------------|

e|--------0------------------------------------------------|
B|------0---3-0-----0-----0--------------------------------|
G|-2b4----------2b4---2b4---2p0---0---0-2-0--2/4/20\-------|
D|------------------------------2---2-------[steady gliss]-|
A|---------------------------------------------------------|
E|---------------------------------------------------------|

e|----------------------------------12-15-17-|
B|-----------------------------12-15---------|
G|---------------------12-14-15--------------|
D|----------------12-14----------------------|
A|-x------12-13-14---------------------------|
E|-x-12-15-----------------------------------|

e|-17b19--{17}{17}{17}{17}{17}{17}{17}{17}...-|
B|--------------------------------------------|
G|--------------------------------------------|
D|--------------------------------------------|
A|--------------------------------------------|
E|--------------------------------------------|

e|-(19)r18-{17}{17}{17}{17}{17}-(18)r17p15-|
B|-----------------------------------------|
G|-----------------------------------------|
D|-----------------------------------------|
A|-----------------------------------------|
E|-----------------------------------------|

End Solo

Play Riff 2a   "Hail to the power age..."


Riff 5
Guitar 1                                                 x3
e|--------------------------------------------------------|
B|--------------------------------------------------------|
G|-------9------------8------------7------------6---7---8-|
D|--------------------------------------------------------|
A|-7-7-7---7~---6-6-6---6~---5-5-5---5~---4-4-4---5---6---|
E|--------------------------------------------------------|
   "I tell you what to think..."
e|--------------------------------------------------------|
B|--------------------------------------------------------|
G|-------9------------8------------7------6-6-6-6-9-9-9-9-|
D|----------------------------------------x-x-x-x-x-x-x-x-|
A|-7-7-7---7~---6-6-6---6~---5-5-5---5~---4-4-4-4-7-7-7-7-|
E|--------------------------------------------------------|
   "I tell you what to get..."

Guitar 2 (comes in the 3rd time)
e|--------------------------------------------------------|
B|--------------------------------------------------------|
G|-------9-----------11-----------12------------6---7---8-|
D|--------------------------------------------------------|
A|-7-7-7---7~---9-9-9---9~--101010--10~---4-4-4---5---6---|
E|--------------------------------------------------------|
   "I tell you what to think..."
e|--------------------------------------------------------|
B|--------------------------------------------------------|
G|-------9-----------11-----------12------6-6-6-6-9-9-9-9-|
D|----------------------------------------x-x-x-x-x-x-x-x-|
A|-7-7-7---7~---9-9-9---9~--101010--10~---4-4-4-4-7-7-7-7-|
E|--------------------------------------------------------|
   "I tell you what to get..."


Play Riff 1   "Mastermind..."

Ending:
e|-----|
B|-----|
G|-----|
D|-----|
A|--2--|
E|--0--|
 "...subject."

5.THE DISINEGRATORS

Tuning: Standard

Intro
e|-------------------------------------------|
B|-------------------------------------------|
G|-------------------------------------------|
D|-2222--2222-2-4--2222-2222-2---------------|
A|-3333--3333-3-5--3333-3333-3---------------|
E|-----------------------------3-----(3)b4r3-|

Riff 1 (Chords implied by bass:  Am->C6->D->Am)
e|-------------------------------------------------|
B|-------------------------------------------------|
G|-------------7p5---------------------7p5---------|
D|-5h7------7------7p5-----5h7------7------7p5-----|
A|-0---0000-0----------7/8-0---0000-0----------7/8-|
E|-------------------------------------------------|
       ****                   ****
  "The slayer's arrived..."


Riff 2                                            x3
e|-------------------------------------------------|
B|-------------------------------------------------|
G|-----2--------0----------------------------------|
D|-------------------2-----2-----------------------|
A|-4-x---xx-4-x---xx-0-----0--xx-xx-xx-xx-xx-xx-xx-|
E|-2-x---xx-2-x---xx---3b4----xx-xx-xx-xx-xx-xx-xx-|
                         "We say retribution..."
e|------------------------------------------------|
B|------------------------------------------------|
G|-----2--------0---------------------------------|
D|-------------------2-----2----------------------|
A|-4-x---xx-4-x---xx-0-----0--xx-xx-xx-xx-xx-x----|
E|-2-x---xx-2-x---xx---3b4----xx-xx-xx-xx-xx-x-3^-|
                         "With a cast iron fist..."

Riff 3
e|--------------------------------------------|
B|--------------------------------------------|
G|--------------------------------------------|
D|----------7-7-7-----------------------------|
A|-2-2-2----5-5-5----5-5-x-5---5--7-7-x-7-8-9-|
E|-0-0-0-------------3-3-x-3-0-3--5-5-x-5-6-7-|
                             * *
  "Coming down the road..."


Riff 4
Guitar 1
e|---------------------------------|
B|---------------------------------|
G|---------------------------------|
D|-2-xxxxxx-2-4-5--4-xxxxxx-4-5-4--|
A|-2-xxxxxx-2-2-2--5-xxxxxx-5-5-5--|
E|-0-xxxxxx----------xxxxxx--------|
  "Anarchy's coming..."
e|--------------------------------|
B|--------------------------------|
G|--------------------------------|
D|-2-xxxxxx-2-4-5--2-xxxxxx-2-4-5-|
A|-4-xxxxxx-4-4-4--3-xxxxxx-3-3-3-|
E|---xxxxxx----------xxxxxx-------|
  "...to town..."
e|---------------------------------|
B|---------------------------------|
G|---------------------------------|
D|-2-xxxxxx-2-4-5--4-xxxxxx-4-5-4--|
A|-2-xxxxxx-2-2-2--5-xxxxxx-5-5-5--|
E|-0-xxxxxx----------xxxxxx--------|
  "Burning it down..."
e|-------------------------------|
B|-------------------------------|
G|-------------------------------|
D|-2-xxxxxx-2-4-5--2222-2222-2-4-|
A|-4-xxxxxx-4-4-4--3333-3333-3-5-|
E|---xxxxxx----------------------|
  "...ground...      the disintegrators..."


Guitar 2 (Harmony guitar in () )
e|-(19)------(17)------(15)-------0--|
B|--20--------19--------17-----------|
G|-----------------------------------|
D|-----------------------------------|
A|-----------------------------------|
E|-----------------------------------|

e|-(19)------(17)------(15)--|
B|--20--------19--------17---|
G|---------------------------|
D|---------------------------|
A|---------------------------|
E|---------------------------|


Play Riff 1   Solo Rhythm

Solo (Friedman)
e|---------------------------------|
B|-1/3/4/5-5-5-5-5-5-5-5-5-5-5-5-5-|
G|---------------------------------|
D|---------------------------------|
A|---------------------------------|
E|---------------------------------|

e|---------------------------------|
B|-5h6p5---5-----------------------|
G|-------8---8-7-5---8h9-5h6-------|
D|-----------------7---------7p5~~-|
A|---------------------------------|
E|---------------------------------|

e|---------------------------------------|
B|---------------------------------------|
G|-----------------------------5---------|
D|-----------------------5-------7p5-----|
A|-3p0--5p0--6--(6)b7------6h7-------6h7-|
E|---------------------------------------|

e|------------------------------------|
B|------------------------------------|
G|-5---------------7\5------11\9/12~~-|
D|---7p5------------------------------|
A|-------7p6p5-7/9-----7/12-----------|
E|------------------------------------|

e|---------------17b20----(20)r19----(19)r17p15-|
B|----------------------------------------------|
G|-14/19b21~~-----------------------------------|
D|----------------------------------------------|
A|----------------------------------------------|
E|----------------------------------------------|

e|---------17-----------15--------------11h12p11-|
B|-17p15h17--17p15\13h15--15p13\10h13-15---------|
G|-----------------------------------------------|
D|-----------------------------------------------|
A|-----------------------------------------------|
E|-----------------------------------------------|

e|-----------------------------------------------------|
B|-15-14-13-12h13p12--12-------------------------------|
G|------------------15--15-14-13-12--14--12-13-14b17~~-|
D|---------------------------------14--14--------------|
A|-----------------------------------------------------|
E|-----------------------------------------------------|

End Solo

Play Riff 2   "We say retribution..."  with pick slide at end
Play Riff 3   "Coming down the road..."
Play Riff 4   "Anarchy's coming..."

Riff 5
Guitar 1
e|-----------------------------------|
B|-----------------------------------|
G|-----------------------------------|
D|-2-2-2------------2-2-2------------|
A|-0-0-0--xx-xx-xx--0-0-0--xx-xx-xx--|
E|--------xx-xx-xx---------xx-xx-xx--|

e|------------------------------|
B|------------------------------|
G|------------------------------|
D|-2-2-2---------2-2-2----------|
A|-0-0-0--3-5-6--0-0-0--xxx-----|
E|----------------------xxx-3b4-|

Guitar 2
e|-------------------------------------|
B|-------------------------------------|
G|-------------------------------------|
D|-------------------------------------|
A|-----[long gradual bend]-------------|
E|-3b5--------(5)b6--------(6)b7--X\\--|

Play Riff 3   Solo Rhythm

Solo (Mustaine)
e|-3p2p0-3p2p0-3p2p0-3p2p0-3p2p0-|
B|-------------------------------|
G|-------------------------------|
D|-------------------------------|
A|-------------------------------|
E|-------------------------------|

e|-5p3p0-5p3p0-5p3p0-5p3p0-5p3p0-|
B|-------------------------------|
G|-------------------------------|
D|-------------------------------|
A|-------------------------------|
E|-------------------------------|

e|-7p5p0-7p5p0-7p5p0-7p5p0-7p5p0-|
B|-------------------------------|
G|-------------------------------|
D|-------------------------------|
A|-------------------------------|
E|-------------------------------|

e|-10p7p0-10p7p0-10p7p0-10p7p0-10p7p0-|
B|------------------------------------|
G|------------------------------------|
D|------------------------------------|
A|------------------------------------|
E|------------------------------------|

e|-12p10p0-12p10p0-12p10p0-12p10p0-12p10p0-|
B|-----------------------------------------|
G|-----------------------------------------|
D|-----------------------------------------|
A|-----------------------------------------|
E|-----------------------------------------|

e|-15p14p0-15p14p0-15p14p0-15p14p0-15p14p0-|
B|-----------------------------------------|
G|-----------------------------------------|
D|-----------------------------------------|
A|-----------------------------------------|
E|-----------------------------------------|

e|-17p15p0-17p15p0-17p15p0-17p15p0-17p15p0-|
B|-----------------------------------------|
G|-----------------------------------------|
D|-----------------------------------------|
A|-----------------------------------------|
E|-----------------------------------------|

e|-19p17p0-19p17p0-19p17p0-22p19p0-22p19p0-22p19p0-22b24~~-|
B|---------------------------------------------------------|
G|---------------------------------------------------------|
D|---------------------------------------------------------|
A|---------------------------------------------------------|
E|---------------------------------------------------------|

End Solo


Play Riff 4   "Anarchy's coming..."

Ending:
Guitar 1
e|---------------------------------|
B|---------------------------------|
G|---------------------------------|
D|-2-xxxxxx-2-4-5--4-xxxxxx-4-5-4--|
A|-2-xxxxxx-2-2-2--5-xxxxxx-5-5-5--|
E|-0-xxxxxx----------xxxxxx--------|
  "Burning it down..."
e|-------------------------------------------------|
B|-------------------------------------------------|
G|-------------------------------------------------|
D|-2-xxxxxx-2-4-5--2222-2222-2-4-2222-2222-2-----2-|
A|-4-xxxxxx-4-4-4--3333-3333-3-5-3333-3333-3-----0-|
E|---xxxxxx----------------------------------3b4---|
  "...ground...      the disintegrators."


Guitar 2 (Harmony guitar in () )
e|-(19)------(17)------(15)--|
B|--20--------19--------17---|
G|---------------------------|
D|---------------------------|
A|---------------------------|
E|---------------------------|


Ending solo
e|------------------------------------------------|
B|-12---------------------------------------------|
G|-14b16~~--------[14]16r14--[14]16r14--[14]16~~--|
D|------------------------------------------------|
A|------------------------------------------------|
E|------------------------------------------------|

e|------------12--------------------------------------|
B|-15-12---------15-12------------15-12---------------|
G|------14p12---------14-12--12--------14-12----------|
D|-------------------------14--14-----------14-12-----|
A|-----------------------------------------------14~~-|
E|----------------------------------------------------|

e|-12----------------------------|
B|-15b17----15b17----(17)\-------|
G|--------------------------4b6--|
D|--------------------------a----|
A|-------------------------------|
E|-------------------------------|

End Solo

6.ILL GET EVEN

Tuning: Standard

Intro (Tremolo effect, neck pickup)
e|-------------------|
B|-------------------|
G|-7------------6----|
D|-5------------7----|
A|-7------------7----|
E|-0------------5----|

e|-------------------|
B|-------------------|
G|-7------------6----|
D|-5------------7----|
A|-7------------7----|
E|-0------------5----|


Riff 1 (Slight distortion w/ tremolo)
e|---------------------------------|
B|---------------------------------|
G|--7-----------7---------9---6----|
D|--5-------------------------7----|
A|--7--------/9------9/10-----7----|
E|--0-------------------------5----|


Play Riff 1  "I'm lonely..."


Riff 2
Guitar 1 (Distortion)
e|-0-0-0-0-0-0-0-0--0-0-0-0---0--0--0--0-|
B|-5-5-5-5-3-3-3-3-/8-8-8-8-/10-10-10-10-|
G|---------------------------------------|
D|---------------------------------------|
A|---------------------------------------|
E|---------------------------------------|

Guitar fill over Riff 2
e|----------|
B|----------|
G|----------|
D|----------|
A|--22-2----|
E|--00-0----|
  "...book..."


Riff 3                         x3
e|------------------------------|
B|------------------------------|
G|------------------------------|
D|----2------2------2------2----|
A|------------------------------|
E|-0----0-2----2-3----3-2----2--|
   "I'll..."
e|--------------------------------|
B|--------------------------------|
G|--------------------------------|
D|----2------2------2-------------|
A|----------------------------5-2-|
E|-0----0-2----2-3----3-2-0-2---0-|
   "...even with you..."


Play Riff 1  "I'm bitter..."

Guitar fill over Riff 1 (wah pedal)
e|-------------------|
B|-------------------|
G|--14b16----(16)----|
D|---------feedback--|
A|-------------------|
E|-------------------|


Play Riff 2   "It's coming true..."


Riff 3a                        x3
e|------------------------------|
B|------------------------------|
G|------------------------------|
D|----2------2------2------2----|
A|------------------------------|
E|-0----0-2----2-3----3-2----2--|
   "I'll..."
e|------------------------------|
B|------------------------------|
G|------------------------------|
D|----2------2------2-----------|
A|--------------------------7---|
E|-0----0-2----2-3----3-/5----5-|
   "...even with you..."


Riff 4
e|-----------------------------|
B|-----------------------------|
G|-----------------------------|
D|-------x-9-------------------|
A|-9--9--x-7--9----9--5-7--4-5-|
E|-7--7-------7----7--3-5--2-3-|
  "...you..."
e|----------------------------|
B|----------------------------|
G|----------------------------|
D|-------x-9------------------|
A|-9--9--x-7--9----9--9-9-8-7-|
E|-7--7-------7----7--7-7-6-5-|


Guitar fill over Riff 4 (Wah pedal)
e|--------------------------------|
B|-------------15b16--------------|
G|-16-16-16-14--------16--(16)~~\-|
D|--------------------------------|
A|--------------------------------|
E|--------------------------------|

e|--------------14b16-------------------|
B|---------------------15b17----(17)r15-|
G|-/16-16-16-14-------------------------|
D|--------------------------------------|
A|--------------------------------------|
E|--------------------------------------|


Riff 5 (Play 2x)
e|-----------------------------|
B|-----------------------------|
G|----7-----7-----7------------|
D|----6-----6-----6------------|
A|----7-----7-----7--5h7-5-----|
E|-0-----0-----0-----------7-6-|
           "You better..."
e|---------------------------|
B|---------------------------|
G|----6-----6-----6----------|
D|----5-----5-----5----------|
A|----7-----7-----7--8-7-8-7-|
E|-5-----5-----5-----6-5-6-5-|
           "Cause there..."


Riff 6 (Play 2x)
Guitar 1
e|------------------------------|
B|----10----10----10------------|
G|-----9-----9-----9------------|
D|-----x-----x-----x--2h4-2-----|
A|-----9-----9-----9--------4-3-|
E|-2/-----2-----2---------------|
              "He's slightly..."
e|-------------------------|
B|-------------------------|
G|----8----8----8----------|
D|----7----7----7--5-4-5-4-|
A|----9----9----9--3-2-3-2-|
E|-7-----7----7------------|
           "Me and me..."
e|------------------------------|
B|----10----10----10------------|
G|-----9-----9-----9------------|
D|-----x-----x-----x--2h4-2-----|
A|-----9-----9-----9--------4-3-|
E|-2/-----2-----2---------------|
              "That you are..."
e|--------------------------------------|
B|--------------------------------------|
G|----8----8----------------------------|
D|----7----7----------------------------|
A|----9----9--x-x-7--x-7--x-7--x-x-7--7-|
E|-7-----7----x-x-5--x-5--x-5--x-x-5--5-|
           "...for what you did to me."


Guitar 2 (w/ chorus modulation and tremolo bar)
e|--------------------|
B|--------------------|
G|-11~--------14\-8~--|
D|--------------------|
A|--------------------|
E|--------------------|


Play Riff 2  "I"ll get..."
Play Riff 3  "I'll get..."

Guitar 2 plays this at the end:
e|-----------------------------------|
B|-----------------------------------|
G|----9-------9--------9--------9----|
D|-----------------------------------|
A|-7~----7-9~----9-10~----10-9~----9-|
E|-----------------------------------|

7.SIN

Tuning: Standard

Intro  (tremolo effect)
e|----------------|
B|----------------|
G|---9------------|
D|---9-[let ring]-|
A|----------------|
E|----------------|


Riff 1
Guitar 1                                 x2
e|----------------------------------------|
B|----------------------------------------|
G|----------------------------------------|
D|----------------------------------------|
A|------4---2--2--------------4---2--2----|
E|-0-/5---3----0---------0-/5---3----0----|

Guitar 2 (comes in the second time, tremolo effect)
e|--------------------------|
B|--------------------------|
G|--9-/14--12--9------------|
D|--9-/14--12--9-[let ring]-|
A|--------------------------|
E|--------------------------|


Riff 2                             x3
e|----------------------------------|
B|----------------------------------|
G|-------------------------7---7/9~-|
D|-------------------------7---7/9~-|
A|------4---2--2--------------------|
E|-0-/5---3----0---0-0-0-0---0------|
                   * * * *   *
  "He had an unfamiliar face..."
e|------------------------------------------|
B|------------------------------------------|
G|------------------------------------------|
D|------------------------------------------|
A|------4---2--2-------4---2--2-------4---2-|
E|-0-/5---3----0--0-/5---3----0--0-/5---3---|
  "No worries of living..."

Riff 3
e|----------------------------------|
B|----------------------------------|
G|----------------------------------|
D|----------------------------3/5-5-|
A|----------4-5--x-4-5-4-3----1/3-3-|
E|-0--0-0-0-2-3--x-2-3-2-1----------|
   *  * * *        * * *
  "Deep inside..."
e|----------------------------------|
B|----------------------------------|
G|----------------------------------|
D|----------------------------------|
A|----------4-5--x-4-5-4-6----5-6-5-|
E|-0--0-0-0-2-3--x-2-3-2-4----3-4-3-|
   *  * * *        * * *
  "Actions progress..."
e|----------------------------------|
B|----------------------------------|
G|----------------------------------|
D|----------------------------3/5-5-|
A|----------4-5--x-4-5-4-3----1/3-3-|
E|-0--0-0-0-2-3--x-2-3-2-1----------|
   *  * * *        * * *
  "Mirror mirror..."
e|--------------------------|
B|--------------------------|
G|--------------------------|
D|--------------------------|
A|----------4-5--x-4-5-4-6--|
E|-0--0-0-0-2-3--x-2-3-2-4--|
   *  * * *        * * *
  "Do you see the..."


Riff 4
e|--------------------------------|
B|--------------------------------|
G|--------------------------------|
D|------------------------5-4-3---|
A|-2-3------2-3------2-3--3-2-1-6-|
E|-0-1--1-1-0-1--1-1-0-1--------4-|
        * *      * *
e|--------------------------------|
B|--------------------------------|
G|--------------------------------|
D|-------------------------10-9-8-|
A|-2-3------2-3------2-3/---8-7-6-|
E|-0-1--1-1-0-1--1-1-0-1/---------|
        * *      * *

Guitar riff over Riff 4
e|-------------------------------------|
B|-13---------------13----13----13-----|
G|-12b14------------12b14-12b14-12b14--|
D|-------------------------------------|
A|-------------------------------------|
E|-------------------------------------|


Lead into next section:
Guitar 1
e|---------|
B|---------|
G|---------|
D|---------|
A|----2----|
E|----0----|

Guitar 2 (tremolo effect)
e|---------|
B|---------|
G|----9----|
D|----9----|
A|---------|
E|---------|


Play Riff 2   "Not one to be forgot..."
Play Riff 3   "Deep inside..."


Riff 4a  (Solo Rhythm)
e|--------------------------------|
B|--------------------------------|
G|--------------------------------|
D|------------------------5-4-3---|
A|-2-3------2-3------2-3--3-2-1-6-|
E|-0-1--1-1-0-1--1-1-0-1--------4-|
        * *      * *
e|--------------------------------|
B|--------------------------------|
G|--------------------------------|
D|------------------------5-4-3---|
A|-2-3------2-3------2-3--3-2-1---|
E|-0-1--1-1-0-1--1-1-0-1----------|
        * *      * *
e|--------------------------------|
B|--------------------------------|
G|--------------------------------|
D|------------------------5-4-3---|
A|-2-3------2-3------2-3--3-2-1-6-|
E|-0-1--1-1-0-1--1-1-0-1--------4-|
        * *      * *
e|--------------------------------|
B|--------------------------------|
G|--------------------------------|
D|-------------------------10-9-8-|
A|-2-3------2-3------2-3/---8-7-6-|
E|-0-1--1-1-0-1--1-1-0-1/---------|
        * *      * *

Solo (Mustaine)
e|-------------------------------------|
B|-16-----16----(16)d14*----(14)~~~*---|
G|-15b17--15b17-(17)d15*----(15)~~~*---|
D|-------------------------------------|
A|-------------------------------------|
E|-------------------------------------|

e|-/12------------------------------------------------|
B|-/12--9-12b13--10~~*--------------------------------|
G|----------------------11b13----11b3-[11]12--11-10~~-|
D|---------------------------------------------a--a---|
A|----------------------------------------------------|
E|----------------------------------------------------|

e|-/18p16p13--13-18p16p13--13-18p16p13--13-18p16p13--13-|
B|----------16-----------16-----------16-----------16---|
G|------------------------------------------------------|
D|------------------------------------------------------|
A|------------------------------------------------------|
E|------------------------------------------------------|

e|-15----(15)d13*--------(13)r15*--|
B|---------------------------------|
G|---------------------------------|
D|---------------------------------|
A|---------------------------------|
E|---------------------------------|

End Solo


Riff 5  (Solo Rhythm)
                  x4
e|-----------------|
B|-----------------|
G|-----------------|
D|-----------------|
A|---5-4---3-------|
E|-3-----3---3-5-6-|
   *     *   *
                  x4
e|-----------------|
B|-----------------|
G|-----------------|
D|-----------------|
A|---7-6---5-------|
E|-5-----5---5-7-8-|
   *     *   *
e|-------------------------------------|
B|-------------------------------------|
A|-------------------------------------|
D|---7-6---5------------9-8---7--------|
A|-5-----5---5-7-8----7-----7---7-9-10-|
E|-------------------------------------|
   *     *   *        *     *   *
e|------------------------------------|
B|------------------------------------|
A|---6-5---4--------------------------|
D|-4-----4---4-6-7---/4-2-------------|
A|------------------------4-3-2-------|
E|------------------------------5-2-0-|
   *     *   *

Solo (Friedman)
e|---------------------------------------------|
B|---------------------------------------------|
G|-/12--------------------10-12b15--(15)r12p10-|
D|------8~--10~--11~--12-----------------------|
A|---------------------------------------------|
E|---------------------------------------------|

e|-------------------------------------------------------|
B|-------------------------------------------------------|
G|-12/17b19r17p15------17b19r17p15------17b19r17p15------|
D|---------------17p15------------17p15------------17p15-|
A|-------------------------------------------------------|
E|-------------------------------------------------------|

e|------------------------------------------------|
B|-18b20------------------15----------------------|
G|-17b19--[17]19r17-15-17----17-15----------------|
D|---------------------------------17\15----------|
A|---------------------------------------17b18~~\-|
E|------------------------------------------------|

End Solo

Solo (Mustaine)
e|----------------------------------|
B|----------------------------------|
G|-------------------11-13/14-17~~--|
D|----------12-13-15----------------|
A|-12-14-15-------------------------|
E|----------------------------------|

e|--------------------------------------------------17-|
B|-------------------------20---------------------19---|
G|-------[19]21r19p17---------19b21r19p17h19p17-20-----|
D|-19-17-------------19p17-----------------------------|
A|-----------------------------------------------------|
E|-----------------------------------------------------|

e|-20b22----(22)r20-20--|
B|----------------------|
G|----------------------|
D|----------------------|
A|----------------------|
E|----------------------|

e|-19-18-17--17-------------------------------|
B|---------20--20p17------17-20p17------------|
G|------------------19b21---------19b20r19-17-|
D|--------------------------------------------|
A|--------------------------------------------|
E|--------------------------------------------|

End Solo

Solo (Friedman)
e|----------------------------------|
B|-7h8p7---7h8p7---7h8p7---7--------|
G|------10------10------10---10-9-7-|
D|----------------------------------|
A|----------------------------------|
E|----------------------------------|

e|------------------------------------10-12-|
B|----------------------------10-11-12------|
G|-9h10p9----9h10p9----9-11-12--------------|
D|-9------12--------12----------------------|
A|------------------------------------------|
E|------------------------------------------|

Guitar 1
e|-12p11p9--9-11-12p11p9--9-11-12p11p9--9-11-|
B|--------12------------12------------12-----|
G|-------------------------------------------|
D|-------------------------------------------|
A|-------------------------------------------|
E|-------------------------------------------|

e|-12p11p9--9-11-12b14~~~----(14)\-|
B|--------12-----------------------|
G|---------------------------------|
D|---------------------------------|
A|---------------------------------|
E|---------------------------------|

Guitar 2
e|-17p16p14--14-16-17p16p14--14-16-17p16p14--14-16-|
B|---------17--------------17--------------17------|
G|-------------------------------------------------|
D|-------------------------------------------------|
A|-------------------------------------------------|
E|-------------------------------------------------|

e|-17p16p14--14-16-17b19~~~----(19)\-|
B|---------17------------------------|
G|-----------------------------------|
D|-----------------------------------|
A|-----------------------------------|
E|-----------------------------------|

End Solo


Riff 6
e|-----------------------------|
B|-----------------------------|
G|-----------------------------|
D|-----------------------------|
A|-4\--/5-2-4\------/5-/5-2-4\-|
E|-2\--/3-0-2\--000-/3-/3-0-2\-|
                ***
e|----------------------|
B|----------------------|
G|----------------------|
D|----------------------|
A|-/5-2-4\------/5-/5-4-|
E|-/3-0-2\--000-/3-/3-2-|
            ***


Riff 7 (Play 2x)
e|------------------------------------|
B|------------------------------------|
G|------------------------------------|
D|------------------------------------|
A|---------7-8-7~~-------------7-6~~--|
E|-0-0-0-0-----------0-0-0-0-5--------|
   * * * *           * * * *
          "Pressure...   ...coming down..."
e|------------------------------------|
B|------------------------------------|
G|------------------------------------|
D|------------------------------------|
A|-------------------------------8~~--|
E|-0-0-0-0-5-6-7~~---0-0-0-0-5-6------|
   * * * *           * * * *
          "Down on me... ...gonna break..."


Riff 8 (Play 3x)
e|---------------------------------|
B|---------------------------------|
G|---------------------------------|
D|---------9-10-9-------------9-8--|
A|---------7--8-7-----------7-7-6--|
E|-0-0-0-0----------0-0-0-0-5------|
   * * * *          * * * *
          "Nervous...   ...like a cat..."
e|---------------------------------|
B|---------------------------------|
G|---------------------------------|
D|-----------------------------10--|
A|---------7-8-9-----------7-8--8--|
E|-0-0-0-0-5-6-7---0-0-0-0-5-6-----|
   * * * *         * * * *
          "Gonna jump.....through my skin..."

Ending:
e|---------------------------------|
B|---------------------------------|
G|---------------------------------|
D|---------9-10-9-------------9-8--|
A|---------7--8-7-----------7-7-6--|
E|-0-0-0-0----------0-0-0-0-5------|
   * * * *          * * * *
          "Set me free.....set me free..."
e|-------------------------------------|
B|-------------------------------------|
G|-------------------------------------|
D|-------------------------------------|
A|---------7-8-9--------------4---2--2-|
E|-0-0-0-0-5-6-7---0-0-0-0-/5---3----0-|
   * * * *         * * *
          "Set me free....the reasons that we sin."

8.A SECRET PLACE

Tuning: Standard


Riff 1
e|-------------------------------|
B|-4-4-4-3--------1-1-1-3--------|
G|-0-0-0-0--0-0-0-0-0-0-0--0-0-0-|
D|-------------------------------|
A|-------------------------------|
E|-------------------------------|
            * * *          * * *
e|--------------------------------|
B|-4-4-4-3---6---6-6\4-4----------|
G|-0-0-0-0-0-0-0-0-0---0--0-0-0-0-|
D|--------------------------------|
A|--------------------------------|
E|--------------------------------|
           *   *          * * * *


Riff 1a
e|-------------------------------|
B|-4-4-4-3--------1-1-1-3--------|
G|-0-0-0-0--0-0-0-0-0-0-0--0-0-0-|
D|-------------------------------|
A|-------------------------------|
E|-------------------------------|
            * * *          * * *
e|---------------------|
B|-4-4-4-3-------------|
G|-0-0-0-0-------------|
D|----------3--3-3/5-5-|
A|----------1--1-1/3-3-|
E|---------------------|


Riff 2
e|---------------------------------------|
B|---------------------------------------|
G|---------------------------------------|
D|---------------------------------------|
A|-5----3----6----5--5-5-5-5-5-5-5-5-----|
E|-3----1----6----5--5-5-5-5-5-5-5-5-...-|
                     * * * * * * * *


Play Riff 1   "There's a secret place..."

Guitar fill over Riff 1
e|---------|
B|---------|
G|---12\---|
D|---12\---|
A|---------|
E|---------|


Play Riff 1a  "There's no turning..."
Play Riff 2   "Oh..."

Guitar fill over Riff 2
e|----------------------------|
B|----------------------------|
G|---12\10----10\8----8\7~----|
D|---12\10----10\8----8\7~----|
A|----------------------------|
E|----------------------------|

Guitar fill over Riff 2 [On Remix/remaster]
e|-------------------------------|
B|-13b15r13-11~----13b15r13-11~--|
G|-------------------------------|
D|-------------------------------|
A|-------------------------------|
E|-------------------------------|

e|-------------------|
B|-13b15r13-11~-10~--|
G|-------------------|
D|-------------------|
A|-------------------|
E|-------------------|

Riff 3
e|------------------------------------|
B|------------------------------------|
G|------------------------------------|
D|-----5----8-5------5----8-5-| ------|
A|-5-8----5------5-8----5-----|    ---|
E|----------------------------|    ---|
      "Welcome to..."               |
e|----------------------------|     |
B|----------------------------|     |
G|-----5----8-5----5-6----6-5-|     |
D|-5-8----5------8------5-----|     |
A|----------------------------|     |
E|----------------------------|     |
    "...my secret place..."         |
e|----------------------------|     |---- Play 2x
B|----------------------------|     |
G|----------------------------|     |
D|-----5----8-5------5----8-5-|     |
A|-5-8----5------5-8----5-----|     |
E|----------------------------|     |
    "How I arrived..."              |
e|----------------------------|    ---|
B|----------------------------|    ---|
G|-----5----8-5----5-6----6-7-|    ---|
D|-5-8----5------8------5-----| ------|
A|------------------------------------|
E|------------------------------------|
    "...explain..."

e|-------|
B|-------|
G|-------|
D|-----5-|
A|-5-8---|
E|-------|
   "...away..."

Guitar fill at end of chorus:
e|---------------|
B|---------------|
G|----10--/12----|
D|----10--/12----|
A|---------------|
E|---------------|


Play Riff 1    "There's a secret place..."

Guitar fill over Riff 1
e|---------|
B|---------|
G|---12\---|
D|---12\---|
A|---------|
E|---------|

Play Riff 1a   "There's no turning..."


Riff 4
e|--------------------------|
B|--------------------------|
G|-----------5----8----7----|
D|-5----3----5----8----7--6-|
A|-5----3----3----6----5--6-|
E|-3----1-----------------4-|
    "Let me in..."
e|-------------------------------|
B|-------------------------------|
G|-------------------------------|
D|-5----3------------------------|
A|-5----3----6----5--5-5-5-5-5-5-|
E|-3----1----6----5--5-5-5-5-5-5-|
                     * * * * * *
    "Lost my soul..."
e|--------------------------|
B|--------------------------|
G|-----------5----8----7----|
D|-5----3----5----8----7--6-|
A|-5----3----3----6----5--6-|
E|-3----1-----------------4-|
    "Let me in..."
e|--------------|
B|--------------|
G|-----------8--|
D|-5----3----8--|
A|-5----3----6--|
E|-3----1-------|
    "Lost my soul..."


Riff 4 (Solo Rhythm)
e|-------------------------------|
B|-------------------------------|
G|-3-3-3-2--------0-0-0-2--------|
D|-0-0-0-0--0-0-0-0-0-0-0--0-0-0-|
A|-------------------------------|
E|-------------------------------|
            * * *          * * *
e|--------------------------------|
B|--------------------------------|
G|-3-3-3-2---5---5-5\3-3----------|
D|-0-0-0-0-0-0-0-0-0---0--0-0-0-0-|
A|--------------------------------|
E|--------------------------------|
           *   *          * * * *
e|-------------------------------|
B|-------------------------------|
G|-3-3-3-2--------0-0-0-2--------|
D|-0-0-0-0--0-0-0-0-0-0-0--0-0-0-|
A|-------------------------------|
E|-------------------------------|
            * * *          * * *

First ending
e|--------------------------------|
B|--------------------------------|
G|-3-3-3-2---5---5-5/7-3----------|
D|-0-0-0-0-0-0-0-0-0---0--0-0-0-0-|
A|--------------------------------|
E|--------------------------------|
           *   *          * * * *
Second ending
e|----------------------|
B|----------------------|
G|-3-3-3-2--------------|
D|-0-0-0-0--3--3-3/5-5--|
A|----------1--1-1/3-3--|
E|----------------------|


Solo (Mustaine)
e|---------------------------------------|
B|---------------------------------------|
G|---------------------------------------|
D|--------3~------------------3~---3h5~--|
A|-555555----5-3h5~----555555----5-------|
E|---------------------------------------|
   ******              ******
e|----------------------------|
B|----------------------------|
G|----------------------------|
D|-5b6--5-3----3-------3------|
A|----------5----3-0-3---5~~--|
E|----------------------------|

e|---------------------------------------|
B|---------------------------------------|
G|---------------------------------------|
D|--------3~------------------3~---3h5~--|
A|-555555----5-3h5~----555555----5-------|
E|---------------------------------------|
   ******              ******

e|------------------------------------------10----13----|
B|------------------------------10----13-10----13----13-|
G|--------------7----10-7-12-10----12-------------------|
D|-5b6-5/7-10-7---10------------------------------------|
A|------------------------------------------------------|
E|------------------------------------------------------|

e|---------------------------------------------------|
B|-13-------13-------13-------13-----13-----13-------|
G|-12b14----12b14----12b14----12b14--12b14--12b14~~--|
D|---------------------------------------------------|
A|---------------------------------------------------|
E|---------------------------------------------------|

e|----------------------------------------------------|
B|----------------------------------------------------|
G|-10h12p10p9-10p9------------------------------------|
D|----------------12-10-12~--10h12p10-----------------|
A|-----------------------------------12-10h12p10\8----|
E|------------------------------------------------10~-|

e|-10-------10-------10-------10-----10-----|
B|-13b15----13b15----13b15----13b15--13b15--|
G|------------------------------------------|
D|------------------------------------------|
A|------------------------------------------|
E|------------------------------------------|

e|-10h15p10--10h15p10--10h15p10--10h15p10-------------------|
B|---------13--------13--------13--------13-....-[fade out]-|
G|----------------------------------------------------------|
D|----------------------------------------------------------|
A|----------------------------------------------------------|
E|----------------------------------------------------------|

End Solo


Play Riff 1   "I hide from those..."

Guitar fill over Riff 1
e|--------------------------------|
B|-20~~---------------------------|
G|---------17~~----15~~----(15)\--|
D|--------------------------------|
A|--------------------------------|
E|--------------------------------|


Play Riff 1a  "I can't explain..."
Play Riff 2   "Oh..."

Guitar fill over Riff 2
e|----------------------------|
B|----------------------------|
G|---12\10----10\8----8\7~----|
D|---12\10----10\8----8\7~----|
A|----------------------------|
E|----------------------------|

Guitar fill over Riff 2 [On Remix/remaster]
e|-------------------------------|
B|-13b15r13-11~----13b15r13-11~--|
G|-------------------------------|
D|-------------------------------|
A|-------------------------------|
E|-------------------------------|

e|-------------------|
B|-13b15r13-11~-10~--|
G|-------------------|
D|-------------------|
A|-------------------|
E|-------------------|


Riff 3a
e|----------------------------|
B|----------------------------|
G|----------------------------|
D|-----5----8-5------5----8-5-|
A|-5-8----5------5-8----5-----|
E|----------------------------|
      "Welcome to..."
e|----------------------------|
B|----------------------------|
G|-----5----8-5----5-6----6-5-|
D|-5-8----5------8------5-----|
A|----------------------------|
E|----------------------------|
    "...my secret place..."
e|----------------------------|
B|----------------------------|
G|----------------------------|
D|-----5----8-5------5----8-5-|
A|-5-8----5------5-8----5-----|
E|----------------------------|
    "How I arrived..."
e|----------------------------|
B|----------------------------|
G|-----5----8-5----5-6----6-7-|
D|-5-8----5------8------5-----|
A|----------------------------|
E|----------------------------|
    "...explain..."


Repeat the above 4 times, except final time replace last
bar with this:
e|------------------------------------|
B|------------------------------------|
G|-----5----8-5----5-6----6-7---------|
D|-5-8----5------8------5-------------|
A|-----------------------------5-8-5--|
E|---------------------------------3--|
                      "My secret place."


Guitar fill over Riff 3
e|-18~~----17~~----15~~---------------------------|
B|-------------------------15~~----16~~-----------|
G|------------------------------------------------|
D|-----------------------------------------| -----|
A|-----------------------------------------|   ---|
E|-----------------------------------------|   ---|
                                                |
e|-18~~----17~~----15~~--------------------|    |--- Play--| 2x
B|-------------------------15~~----13~~----|   ------------|
G|-----------------------------------------|   ------------|
D|-----------------------------------------| --------------|
A|---------------------------------------------------------|
E|---------------------------------------------------------|


Ending                             x3
e|----------------------------------|
B|----------------------------------|
G|----------------------------------|
D|----------------------------------|
A|-6-5---3-5--------6-5---3-5--8--5-|
E|-----6-----6-5-3------6------6--3-|
       *     * * *      *
e|-----------------------------------|
B|-----------------------------------|
G|-----------------------------------|
D|-----------------------------------|
A|-6-5---3-5--------6-5---3-5--8-7-5-|
E|-----6-----6-5-3------6------6-5-3-|
       *     * * *      *

9.HAVE COOL,WILL TRAVEL

Tuning: Standard

NOTE: Harmonica parts have not been tabbed out.


Remix/Remaster intro:
e|--------------------------|
B|--------------------------|
G|--------------------------|
D|--------------------------|
A|------------------------2-|
E|-0000000000000000...000-0-|
   ****************   ***

Riff 1
e|-----------------------|
B|-----------------------|
G|-----------------------|
D|-9-9-9-9-9\------------|
A|-7-7-7-7-7\---x-7-8-9--|
E|--------------x-5-6-7--|

e|-----------------------|
B|-----------------------|
G|-----------------------|
D|-9-9-9-9-9\---------12-|
A|-7-7-7-7-7\---x-7-8-10-|
E|--------------x-5-6----|


Riff 1a
e|-----------------------|
B|-----------------------|
G|-----------------------|
D|-9-9-9-9-9\------------|
A|-7-7-7-7-7\---x-7-8-9--|
E|--------------x-5-6-7--|
   "We the people..."
e|-------------------------|
B|-------------------------|
G|-------------------------|
D|-9-9-9-9-9\--------------|
A|-7-7-7-7-7\------------2-|
E|---------------0-0-0-0-0-|
                 * * * *
   "...blame and wonder..."


Riff 2
e|-------------------------|
B|-------------------------|
G|-------------------------|
D|---4---2-----------------|
A|-----------4---3---2-----|
E|-2---2---2---2---2---5p2-|
   *   *   *   *   *
   "Hey..."
                        x3
e|-----------------------|
B|-----------------------|
G|-----------------------|
D|-4---2-----------------|
A|---------4---3---2-----|
E|---2---2---2---2---5p2-|
     *   *   *   *
   "...hey..."

Guitar 2 plays this at the end of Riff 2
e|---------------------------------|
B|---------------------------------|
G|---------------------------------|
D|---------------------------------|
A|-x-x-x-x-x-x-x-x-x-x-x-x-x-x-x-x-|
E|-x-x-x-x-x-x-x-x-x-x-x-x-x-x-x-x-|


Play Riff 1    "Face it and fight..."
Play Riff 1a   "The answer's plain..."
Play Riff 2    "Hey..."


Riff 3
Guitar 1 (Distortion)
                    x2
e|-------------------|
B|-------------------|
G|-------------------|
D|-9---------5----2--|
A|-7----5----3----0--|
E|------3------------|
   "Oh, there's no recess..."
e|--------------|
B|--------------|
G|--------------|
D|--------------|
A|-xxxxxxxxxxxx-|
E|-xxxxxxxxxxxx-|
   "Have cool, will travel!"

Guitar 2 (Acoustic)
e|----------------------------------|
B|-------7---8------------7---5-----|
G|-----9---9---9--------7---7---7---|
D|---9-----------9----5-----------5-|
A|-7----------------5---------------|
E|----------------------------------|

e|-------2---3--------------7-------|
B|-----1---1---1----------8---8-----|
G|---0-----------0------6-------6-0-|
D|--------------------7-------------|
A|-3----------------0---------------|
E|----------------------------------|


Riff 4 (Solo Rhythm)  x4
e|---------------------|
B|---------------------|
G|-------------0-------|
D|-2---0---2---0---2-0-|
A|-2---0---2-------2-0-|
E|---0---0---0---0-----|
     *   *   *   *              x4
e|-------------------------------|
B|-------------------------------|
G|-------------------------------|
D|-4-5-4~--------2---------------|
A|---------2-3-4---4-3---3-2-----|
E|---------------------0-----5-0-|


Solo (Friedman)
Guitar:
e|-------------{12}---------------|
B|-x-x--14b15-------{14}--(15)b17-|
G|-x-x----------------------------|
D|--------------------------------|
A|--------------------------------|
E|--------------------------------|

e|-12-----------------------15-------------------|
B|---15p12---------------------15----------------|
G|--------14b16r14-(14)b16-------14b16r14--12~~\-|
D|-----------------------------------------------|
A|-----------------------------------------------|
E|-----------------------------------------------|

e|--------------------------------|
B|--------------------------------|
G|-x---------12-----------12--16--|
D|-x-------12-----12-13-14--14----|
A|----12-14-----14----------------|
E|--------------------------------|

e|----------------12-14-15p14-12-14~~-|
B|-------------14---------------------|
G|-12--12-14-15-----------------------|
D|---14-------------------------------|
A|------------------------------------|
E|------------------------------------|

Harmonica break

Guitar (Mustaine)
e|------------------------------------------------|
B|------------------------------------------------|
G|-2b4--2b4----2b4--2b4----2b4r2----1-2-2-1tr2~~--|
D|------------------------------------------------|
A|------------------------------------------------|
E|------------------------------------------------|

e|----------------------------------|
B|----------------------------------|
G|-2/16\4\0-------------------------|
D|-----------3~--0-2~---------------|
A|---------------------3-5-2-3---2/-|
E|-----------------------------5----|

e|--------------------------------------------------------|
B|-12h13p12-10h12p10-9h10p9-5h9p5-9h10p9-6h8p6-5h7p5-3hp3-|
G|--------------------------------------------------------|
D|--------------------------------------------------------|
A|--------------------------------------------------------|
E|--------------------------------------------------------|

e|--------------------------------------------|
B|-2h3p2-2------------------------[feedback]--|
G|-------4b6----(6)r4--4~~~--------(4)b6~~~~--|
D|--------------------------------------------|
A|--------------------------------------------|
E|--------------------------------------------|

End Solo

Riff 3a
Guitar 1 (Distortion)
                    x4
e|-------------------|
B|-------------------|
G|-------------------|
D|-9---------5----2--|
A|-7----5----3----0--|
E|------3------------|
   "Oh, there's no recess..."
e|--------------------------|
B|--------------------------|
G|--------------------------|
D|--------------------------|
A|-000000000000000000000000-|
E|--------------------------|
   ************************
   "I have cool..."

Guitar 2 (Acoustic)
e|------------------------------------------|
B|-------7---8------------7---5-------------|
G|-----9---9---9--------7---7---7---| ------|
D|---9-----------9----5-----------5-|    ---|
A|-7----------------5---------------|    ---|
E|----------------------------------|    ---|
                                          |--->Play 4x
e|-------2---3--------------7-------|    ---|
B|-----1---1---1----------8---8-----|    ---|
G|---0-----------0------6-------6-0-|    ---|
D|--------------------7-------------| ------|
A|-3----------------0-----------------------|
E|------------------------------------------|

e|-7-----7-------|
B|---8-----8-----|
G|-----6-----6-0-|
D|---------------|
A|---------------|
E|---------------|


Solo over Riff 3a
e|-----------0------------------------------|
B|-19--19\17--------------------------------|
G|--------------------11--12----(12)/14~~~\-|
D|------------------------------------------|
A|------------------------------------------|
E|------------------------------------------|

e|-----14--15~~----14--(14)\12--12-12--|
B|-/12---------------------------------|
G|-------------------------------------|
D|-------------------------------------|
A|-------------------------------------|
E|-------------------------------------|

e|----14--15----(15)b17~~~~~~~--|
B|-12---------------------------|
G|------------------------------|
D|------------------------------|
A|------------------------------|
E|------------------------------|

End Solo


Play Riff 1   "...will travel..."

Riff 1a
e|-----------------------|
B|-----------------------|
G|-----------------------|
D|-9-9-9-9-9\------------|
A|-7-7-7-7-7\---x-7-8-9--|
E|--------------x-5-6-7--|
   "Have cool..."
e|------------------------------------------|
B|------------------------------------------|
G|------------------------------------------|
D|-9-9-9-9-9\-------------------------------|
A|-7-7-7-7-7\---x-7--8-9----7--8-9----7--8--|
E|--------------x-5--6-7----5--6-7----5--6--|
   "...will travel."


Ending Solo
e|-------------0--------19-------19------19---------|
B|----------7/---22b24----22b24----22b24---22b24~~~-|
G|-X\--X\-------------------------------------------|
D|-X\--X\-------------------------------------------|
A|-X\--X\-------------------------------------------|
E|--------------------------------------------------|

e|----------19--------------------------------------------|
B|-22-20-22----20^----------------------------------------|
G|-----------------19~~\--14b16--{14}{14}{14}{14}...{14}~-|
D|--------------------------------------------------------|
A|--------------------------------------------------------|
E|--------------------------------------------------------|

e|-------------------------------------|
B|----------------7d3*--(3)r7*---------|
G|----------------------slow release---|
D|-------------------------------------|
A|-------------------------------------|
E|-X\\-X\\-X\\-------------------------|

End Solo

10.SHE-WOLF

Tuning: Standard

Riff 1
Guitar 1
e|---------------------------------|
B|---------------------------------|
G|---------------------------------|
D|---------------------------------|
A|---------------------------------|
E|-0-000-0-000-0-000-0-000-000-000-|
   * *** * *** * *** * *** *** ***
  "The mother of all..."

Guitar 2 fill 1:
e|------------------|
B|----14b17r14\-----|
G|----14b17r14\-----|
D|------------------|
A|---gradual-bend---|
E|------------------|


Riff 2
e|----------------------------------------------|
B|-----4-------4--------------------------------|
G|-----0-------0--------------------------------|
D|-5--(5)--5--(5)--5--3-4-5\--3-4-5\--3-4-5-3-4-|
A|-3--(3)--3--(3)--3--1-2-3\--1-2-3\--1-2-3-1-2-|
E|----------------------------------------------|
                      * *     * *     * *   * *
  "Wicked temptress...."
e|---------------------------------|
B|---------------------------------|
G|---------------------------------|
D|-5-------------------------------|
A|-3-333-3-333-3-333-3-333-333-333-|
E|---------------------------------|
     *** * *** * *** * *** *** ***

Guitar 2 fill 1:
e|-------------------------|
B|-------------------------|
G|------------------7b8----|
D|-----5b8*--------(8)r5*--|
A|-------------------------|
E|-------------------------|

e|----------------------------------------------|
B|-----4-------4--------------------------------|
G|-----0-------0--------------------------------|
D|-5--(5)--5--(5)--5--3-4-5\--3-4-5\--3-4-5-4-3-|
A|-3--(3)--3--(3)--3--1-2-3\--1-2-3\--1-2-3-2-1-|
E|----------------------------------------------|
                      * *     * *     * *   *
  "Priestess roars..."


Play Riff 1   "The rite of the..."
Guitar 2 fill 1:
e|-/16-16-16--16\----/16-16-16--16\--|
B|-/15-15-15--15\----/15-15-15--15\--|
G|-/16-16-16--16\----/16-16-16--16\--|
D|-----------------------------------|
A|-----------------------------------|
E|-----------------------------------|

e|---------------------------|
B|---------------------------|
G|-14b16-14p12-14p12---------|
D|------------------14p12----|
A|-----------------------15~-|
E|---------------------------|


Play Riff 2  "Spellbound..."
Guitar 2 fill 1:
e|--18b20----{18}-{18}----{18}-----{18}------|
B|------------------------------[16]18r16~~--|
G|-------------------------------------------|
D|-------------------------------------------|
A|-------------------------------------------|
E|-------------------------------------------|

Guitar 2 fill 2:
e|--------------------------------|
B|------------10b11r10------------|
G|----------8-10b11r10-8-10-8-----|
D|-----8-10-------------------10\-|
A|-/10----------------------------|
E|--------------------------------|


Riff 3
Guitar 1
e|------------------------|
B|------------------------|
G|------------------------|
D|-----------------8------|
A|-5--------3------6------|
E|-3--------1------6------|
  "The fight..."

Guitar 2
e|------------------------------------------------------|
B|------------------------------------------------------|
G|----------------------------3-------------------------|
D|--------------------3-----3---5p3~---5--6-5~--6--8-10-|
A|------------3---4h5---4h5-----------------------------|
E|-3~~--3-6-3---6---------------------------------------|
        * * * * *


Riff 4
Guitar 1
e|--------------------------------------------------|
B|--------------------------------------------------|
G|--------------------------------------------------|
D|-5----3---------8----5----3-----------------------|
A|-3----1----3----6----3----1----3----5---5-6-5-3---|
E|-----------1----6--------------1----3-----------6-|
  "One look in her..."
e|---------------------------------------------------|
B|---------------------------------------------------|
G|---------------------------------------------------|
D|-5----3---------8----5----3------------------------|
A|-3----1----3----6----3----1----3----5---5-6-5-3----|
E|-----------1----6--------------1----3-----------6\-|
  "One look in her..."

Guitar 2
e|-----------------------------------|
B|-----------------------------------|
G|-----------------------------------|
D|-10-10p8----10-8~~-----------------|
A|---------10----------8-8p6---8-6~~-|
E|---------------------------8-------|

e|-----------------------------------|
B|-----------------------------------|
G|-----------------------------------|
D|-10-10p8----10-8~~-----------------|
A|---------10----------8-8p6-8-/10~--|
E|-----------------------------------|

e|-----------------------------------|
B|-----------------------------------|
G|-----------------------------------|
D|-10-10p8----10-8~~-----------------|
A|---------10----------8-8p6---8-6~~-|
E|---------------------------8-------|

e|-----------------------------------|
B|-----------------------------------|
G|-----------------------------------|
D|-10-10p8----10-8~~-----------------|
A|---------10----------8-8p6-8-/10~--|
E|-----------------------------------|

Play Riff 1   "My desires of flesh..."

Play Riff 2   "Another heartbeat..."
Guitar 2 fill 1 (wah pedal):
e|-----------------------------------------------------------|
B|-----------------------------------------------------------|
G|-5p3p0-0-5p3p0-5p3p0-5p3p0-5p3p0h3-5p3p0-5p3-5p3p0-3p0-5p0-|
D|-----------------------------------------------------------|
A|-----------------------------------------------------------|
E|-----------------------------------------------------------|

e|-----------------------------|
B|-----------------------------|
G|-7b8----(8)r7-5-3------------|
D|------------------5-4-3------|
A|------------------------6-3~-|
E|-----------------------------|

Guitar 2 fill 2 (wah pedal):
e|---------------------|
B|-19~\----------------|
G|--a-----14b17r14~~*--|
D|---------------------|
A|---------------------|
E|---------------------|


Play Riff 3   "I'm stoned..."
Play Riff 4   "One look..."

Riff 5
Guitar 1 (Play 2x)
e|----------------------------------------|
B|----------------------------------------|
G|----------------------------------------|
D|----------------------------------------|
A|-10------------------8------------------|
E|--8----8-8-8-8-8-8-8-6----6-6-6-6-6-6-6-|
         * * * * * * *      * * * * * * *
  "Beware what stalks you in the night..."
e|----------------------------------------|
B|----------------------------------------|
G|----------------------------------------|
D|----------------------------------------|
A|-6------------------5----------8------9-|
E|-4----4-4-4-4-4-4-4-3----3-3-3-6----6-7-|
        * * * * * * *      * * *      *
  "Her mystic lips..."


Guitar 2 fill over Riff 5 the 2nd time:
e|--8-----------10-----------11-----|
B|-11b13~-------13b15~-------14b16~-|
G|----------------------------------|
D|----------------------------------|
A|----------------------------------|
E|----------------------------------|

e|-15------15------15------15---------|
B|-18b20~--18b20~--18b20~--18b20~-...-|
G|------------------------------------|
D|------------------------------------|
A|------------------------------------|
E|------------------------------------|

Ending rhythm:

Riff 6  (Play 2x)
e|---------------------------------|
B|---------------------------------|
G|---------------------------------|
D|---------------------------------|
A|-10------------------------------|
E|--8--8-8-8-8-8-8-8-8-8-8-8-8-8-8-|
       * * * * * * * * * * * * * *
e|----------------------------------|
B|----------------------------------|
G|----------------------------------|
D|----------------------------------|
A|-8--------------------------------|
E|-6--6-6-6-6-6-6-6-6-6-6-6-6-6-6-6-|
      * * * * * * * * * * * * * * *
e|------------------------------|
B|------------------------------|
G|------------------------------|
D|------------------------------|
A|-6----------------------------|
E|-4--4-4-4-4-4-4-4-4-4-4-4-4-4-|
      * * * * * * * * * * * * *
e|------------------------------|
B|------------------------------|
G|------------------------------|
D|------------------------------|
A|-5--------------8----------9--|
E|-3--3-3-3-3-3-3-6--6-6-6-6-7--|
      * * * * * *    * * * *

Riff 7  (Play 4x)
e|--------------------------------|
B|--------------------------------|
G|--------------------------------|
D|--------------------------------|
A|-10--------------8--------------|
E|--8--8-8-8-8-8-8-6--6-6-6-6-6-6-|
       * * * * * *    * * * * * *
e|-----------------------------|
B|-----------------------------|
G|-----------------------------|
D|-----------------------------|
A|-6--------------5-------8--9-|
E|-4--4-4-4-4-4-4-3-3-3-3-6--7-|
      * * * * * *   * * *

Riff 8  (Play 2x)
e|-------------------------------|
B|-------------------------------|
G|-------------------------------|
D|-------------------------------|
A|-10-------------8--------------|
E|--8-------------6--------------|
                               Final time
e|-----------------------------|------|
B|-----------------------------|------|
G|-----------------------------|------|
D|-----------------------------|------|
A|-6--------------5-------8--9-|--10--|
E|-4--------------3-3-3-3-6--7-|---8--|
                    * * *


Ending leads:

Solo 1 (Play 2x)

Guitar 1
e|-------------------------------|
B|-------3-4-6~--4-3-4~--3-------|
G|-5~----------------------5-3~--|
D|-------------------------------|
A|-------------------------------|
E|-------------------------------|

e|-6--4-3---4-3------------------------|
B|--------6-----6-4--------------------|
G|------------------1~--------3-----1--|
D|------------------------1h3---1h3----|
A|-------------------------------------|
E|-------------------------------------|
                                    Final time
e|----------------------------------|-----|
B|----------------------------------|-----|
G|-----0----1---0-1---3~----1---3-4-|--5--|
D|-1h3----3---3-----3-----3---3-----|-----|
A|----------------------------------|-----|
E|----------------------------------|-----|

Guitar 2  (Comes in the second time)
e|------------------------------|
B|------6-8-9~--8-6-8~--6-------|
G|--8~--------------------8-7~--|
D|------------------------------|
A|------------------------------|
E|------------------------------|

e|-10--8-6---8-6-------------------------|
B|---------9-----9-8---------------------|
G|-------------------5~--------7------5--|
D|-------------------------5h6----5h6----|
A|---------------------------------------|
E|---------------------------------------|

e|-------------------------------------|
B|-------------------------------------|
G|-----4----5---4-5---7~----5---6-7--8-|
D|-5h6----6---6-----6-----6---6--------|
A|-------------------------------------|
E|-------------------------------------|


Solo 2  (Play 4x)

Guitar 1
e|------------------------------|
B|------------------------------|
G|-8-7----7-8-----8-7----7-8----|
D|-----10------8------10------6-|
A|------------------------------|
E|------------------------------|

e|-------------------------------|
B|-------------------------------|
G|-8-7----7-8-----8-7----7-8-----|
D|-----10------5------10------10-|
A|-------------------------------|
E|-------------------------------|

Guitar 2
e|-----------------------------|
B|-8-6---6-8-----8-6---6-8-----|
G|-----8------7------8------5--|
D|-----------------------------|
A|-----------------------------|
E|-----------------------------|

e|-----------------------------|
B|-8-6---6-8-----8-6---6-8-----|
G|-----8------4------8------8--|
D|-----------------------------|
A|-----------------------------|
E|-----------------------------|

Guitar 3 (only the 3rd and 4th time)
e|-8-6---6-8-----8-6---6-8-----|
B|-----8------6------8---------|
G|--------------------------8--|
D|-----------------------------|
A|-----------------------------|
E|-----------------------------|

e|-8-6---6-8-----8-6---6-8-----|
B|-----8-------------8------8--|
G|------------7----------------|
D|-----------------------------|
A|-----------------------------|
E|-----------------------------|


Solo 3  (Play 2x)
Guitar 1
e|----------------------------------------|
B|----------------------------------------|
G|-8-8-8-7h8p7---8-----8-8-8-7h8p7---8----|
D|------------10----8-------------10----6-|
A|----------------------------------------|
E|----------------------------------------|

e|----------------------------------------|
B|----------------------------------------|
G|-8-8-8-7h8p7---8-----8-8-8-7h8p7---8----|
D|------------10----5-------------10---10-|
A|----------------------------------------|
E|----------------------------------------|

Guitar 2
e|----------------------------------------|
B|-8-8-8-6h8p6---8-----8-8-8-6h8p6---8----|
G|-------------8----7--------------8----5-|
D|----------------------------------------|
A|----------------------------------------|
E|----------------------------------------|

e|----------------------------------------|
B|-8-8-8-6h8p6---8-----8-8-8-6h8p6---8----|
G|-------------8----4--------------8----8-|
D|----------------------------------------|
A|----------------------------------------|
E|----------------------------------------|

11.VORTEX

Tuning: Standard

Intro (slight wah effect)
e|-----------------------------------|
B|-----------------------------------|
G|-----------------------------------|
D|-----4-----3-----2h3p2p0-2-0-------|
A|-2-2---2-2---2-2-------------3-2-0-|
E|-----------------------------------|
   * *   * *   * *
e|-----------------------------------------|
B|-----------------------------------------|
G|-----------------------------------------|
D|-----4-----3-----3p2p0-3p2p0-------------|
A|-2-2---2-2---2-2-------------3p2p0-3p2p0-|
E|-----------------------------------------|
   * *   * *   * *
e|-----------------------------------|
B|-----------------------------------|
G|-----------------------------------|
D|-----4-----3-----2h3p2p0-2-0-------|
A|-2-2---2-2---2-2-------------3-2-0-|
E|-----------------------------------|
   * *   * *   * *
e|---------------------------------|
B|---------------------------------|
G|---------------------------------|
D|---------------------------------|
A|-2---------5-4-2-5---------7-5-4-|
E|---0-1-2-3---------2-3-4-5-------|
     * * * *         * * * *


Riff 1
Guitar 1 (slight wah effect)
e|-----------------------------------|
B|-----------------------------------|
G|-----------------------------------|
D|-----4-----3-----2h3p2p0-2-0-------|
A|-2-2---2-2---2-2-------------3-2-0-|
E|-----------------------------------|
   * *   * *   * *
e|-----------------------------------------|
B|-----------------------------------------|
G|-----------------------------------------|
D|-----4-----3-----3p2p0-3p2p0-------------|
A|-2-2---2-2---2-2-------------3p2p0-3p2p0-|
E|-----------------------------------------|
   * *   * *   * *
e|-----------------------------------|
B|-----------------------------------|
G|-----------------------------------|
D|-----4-----3-----2h3p2p0-2-0-------|
A|-2-2---2-2---2-2-------------3-2-0-|
E|-----------------------------------|
   * *   * *   * *
e|---------------------------------|
B|---------------------------------|
G|---------------------------------|
D|---------------------------------|
A|-2---------5-4-2-5---------7-5-4-|
E|---0-1-2-3---------2-3-4-5-------|
     * * * *         * * * *

Guitar 2
e|----------------------|
B|----------------------|
G|----------------------|
D|-4------------------4-|
A|-2--------5----7----2-|
E|----------3----5------|

e|---------------------------------|
B|---------------------------------|
G|---------------------------------|
D|---------------------------------|
A|-2---------5-4-2-5---------7-5-4-|
E|---0-1-2-3---------2-3-4-5-------|
     * * * *         * * * *


Riff 2
e|--------------------------------|
B|--------------------------------|
G|--------------------------------|
D|-4----7-------------------------|
A|-2----5----5--------------------|
E|-----------3----2-2-2-2-1-1-1-1-|
                  * * * * * * * *
  "Internal combustion..."
e|--------------------------------|
B|--------------------------------|
G|--------------------------------|
D|-4----7---12--------------------|
A|-2----5---10--------------------|
E|----------------2-2-2-2-1-1-1-1-|
                  * * * * * * * *
  "Multiple personalities..."


Play Riff 1   "...falling rain..."
Play Riff 2   "As medieval as Merlin..."
Play Riff 1   but use this ending:
e|---------------------------------|
B|---------------------------------|
G|---------------------------------|
D|---------------------------------|
A|-2---------5-4-2-5---------------|
E|---0-1-2-3---------2-3-4-5-4-3-2-|
     * * * *         * * * * * * *

Riff 3
e|---------------------------------|
B|---------------------------------|
G|---------------------------------|
D|---------------------------------|
A|-----2-----0---1---1-----1p0-----|
E|-0-0---0-0---0---0---0-0-----3p0-|
   * *   * *   *   *   * *
  "A telestic message..."
e|---------------------------------|
B|---------------------------------|
G|-----------------------------5---|
D|-------------------------3---3---|
A|-----2-----0---1---1-----1-------|
E|-0-0---0-0---0---0---0-0---------|
   * *   * *   *   *   * *
  "...written in torment..."
e|---------------------------------|
B|---------------------------------|
G|---------------------------------|
D|---------------------------------|
A|-----2-----0---1---1-----1p0-----|
E|-0-0---0-0---0---0---0-0-----3p0-|
   * *   * *   *   *   * *
  "Howl out the dirges..."

First ending
e|----------------------------|
B|----------------------------|
G|----------------------------|
D|-------------------------3--|
A|-----2-----0---1---1-----1--|
E|-0-0---0-0---0---0---0-0----|
   * *   * *   *   *   * *
  "..horns of Jericho..."

Second ending
e|----------------------|
B|----------------------|
G|----------------------|
D|---------------3---3--|
A|-----2-----0---1---1--|
E|-0-0---0-0---0--------|
   * *   * *   *
  "The jewels of a crown..."


Riff 4
e|-------------------------------------|
B|-------------------------------------|
G|-------------------7-----------------|
D|-----2h3p2---2-3/7---7-5---5h6p5-----|
A|-2-5-------5-------------8-------8-5-|
E|-------------------------------------|

e|-----------------------------------|
B|-----------------------------------|
G|-----------------------------------|
D|-----5-----------------------------|
A|---------3h4p3---------------------|
E|-3-3---3-------6-3-2-2-2-2-1-1-1-1-|
   * *   *       * * * * * * * * * *

Riff 5 (Solo Rhythm, Play 2x)
                      x3
e|---------------------|
B|---------------------|
G|---------------------|
D|-4--------7----------|
A|-2----0-2-5----0-2-0-|
E|---------------------|
        * *      * * *
e|--------------------------|
B|--------------------------|
G|--------------------------|
D|-4------------------------|
A|-2------7-5----5-7--0-2-0-|
E|------0-5-3--0-3-5--------|
        * *    * *    * * *


Riff 6 (Solo Rhythm)
                    x3
e|-------------------|
B|-------------------|
G|-------------------|
D|-6-----------------|
A|-4--------5------7-|
E|------5-4-3----3---|
        * *      * *
e|-------------|
B|-------------|
G|-------------|
D|-6-----------|
A|-4--------5--|
E|------5-4-3--|
        * *

Play Riff 5 again but use this the last time:
e|------------------------|
B|------------------------|
G|------------------------|
D|-4---------------5------|
A|-2------7-5------3----8-|
E|------0-5-3--0-3----3-6-|
        * *    * *    *

Solo (Friedman)
e|---------------------------------------------------------|
B|---------------------------------------------------------|
G|--------------------------------7~~----------------------|
D|-/9~--9-9-9-9~----9-9-9-9-9-7-------9-7---7h9-7----------|
A|------------------------------9---------9-------9\5------|
E|----------------------------------------------------7~~\-|
        * * *       * * * * * * *
e|-------------------------------------------------------|
B|-------------------------------------------------------|
G|-------------------------------------------------------|
D|-/9~--9-7---[7]9r7b9--9-7-9-7--------------------------|
A|----------9-------------------9-0-7\5-/9\7p5-7-5-------|
E|-------------------------------------------------7-5h7-|

e|-------------------------------------------------|
B|-----7-------------------------------------------|
G|-----7--------7^---------------------------7---7-|
D|-/9-------9~--------9-9-9-9-7---7h9-7~~----7---7-|
A|------------------------------9----------9---9---|
E|-------------------------------------------------|
                      * * * * * *          *
e|-------------------9h10-9p7-9p7--7-12p7-10p7-9p7---|
B|-----------9b10~~--------------10---------------10-|
G|-[9]10r9p7-----------------------------------------|
D|---------------------------------------------------|
A|---------------------------------------------------|
E|---------------------------------------------------|

e|-7-7--------------------------------------------|
B|-----7-10p7-9p7----7-8p7----7-------------------|
G|----------------10-------10---10p9-7---9---7~~--|
D|-------------------------------------9---9------|
A|------------------------------------------------|
E|------------------------------------------------|

e|---------------------10-11-12-12b14--12b14-12b14-|
B|------10-12-10-11-12-----------------------------|
G|-/11---------------------------------------------|
D|-------------------------------------------------|
A|-------------------------------------------------|
E|-------------------------------------------------|

e|-12b14r12b14-12p10---------------9---9b10-|
B|--------------------12b14r12b14----9------|
G|------------------------------------------|
D|------------------------------------------|
A|------------------------------------------|
E|------------------------------------------|

e|-16/21--16---------------------------|
B|------17------17----14-12------------|
G|-----------18----13-------14-13-12~~-|
D|-------------------------------------|
A|-------------------------------------|
E|-------------------------------------|

e|-14b16-{14}-(16)r14p12-14b15~-{14}--(15)r14p12-|
B|-----------------------------------------------|
G|-----------------------------------------------|
D|-----------------------------------------------|
A|-----------------------------------------------|
E|-----------------------------------------------|

e|-------------------------------------|
B|-14--(14)b17r14--12^-----------------|
G|---------------------[11]13r11-------|
D|-------------------------------14~~~-|
A|-------------------------------------|
E|-------------------------------------|
                            x2
e|---------------------------|-------|
B|---------------------------|-------|
G|-9h10p9p7-----9h10p9p7-----|--9~~--|
D|----------9-9----------9-9-|-------|
A|---------------------------|-------|
E|---------------------------|-------|

e|----------------------------------------------|
B|-------9h10h12/14h15h17p15-14h15p14--14h15h17-|
G|-6h7h9-----------------------------16---------|
D|----------------------------------------------|
A|----------------------------------------------|
E|----------------------------------------------|

e|-14-17-14-16----14--------14--------14-------|
B|-------------17----17b19-----17b19-----17b19-|
G|---------------------------------------------|
D|---------------------------------------------|
A|---------------------------------------------|
E|---------------------------------------------|

e|-17-----{17}----19-----{19}{19}{19}{19}----------------|
B|-20b22--{20}----22b24------------------{22}-(24)r22-19-|
G|-------------------------------------------------------|
D|-------------------------------------------------------|
A|-------------------------------------------------------|
E|-------------------------------------------------------|

e|-22p19----22p19----22p19----22b24~~--22p19-18-24-19-|
B|-------22-------22-------22-------------------------|
G|----------------------------------------------------|
D|----------------------------------------------------|
A|----------------------------------------------------|
E|----------------------------------------------------|

e|-----------------------------------------------|
B|-23-22p19--22p19-------------------------19-19-|
G|---------21-----21-[21]24r21p19----19-21-------|
D|--------------------------------21-------------|
A|-----------------------------------------------|
E|-----------------------------------------------|

e|----------------------------------19-19-22-22b24~~~\-|
B|----------19h20p19-20h21h22-20h22--------------------|
G|-22p21h22--------------------------------------------|
D|-----------------------------------------------------|
A|-----------------------------------------------------|
E|-----------------------------------------------------|

End solo


Riff 7
Guitar 1
e|--------------------------------------|
B|--------------------------------------|
G|--------------------------------------|
D|-----7-----5-------6--------5-------5-|
A|---7-----7-----6-------6------5---5---|
E|-5-----5-----4---4---4----3-----3-----|
   * *   * *   *   *   *    *     * *            Ending
e|-----------------------------------------------|------|
B|-----------------------------------------------|------|
G|-------------------------------------2-------5-|------|
D|-------4-------3-3-1-1-3-----2-0-----2---5-7-5-|--7\--|
A|---4-------4---3-3-1-1-3---2-----2---0---5-7---|--7\--|
E|-2---2---2---1-----------0---------0-----------|------|
   *   *   *   *           * *       *

Guitar 2
e|--------------------------------------|
B|--------------------------------------|
G|--------------------------------------|
D|-----7-----5-------6--------5-------5-|
A|---7-----7-----6-------6------5---5---|
E|-5-----5-----4---4---4----3-----3-----|
   * *   * *   *   *   *    *     * *             Ending
e|------------------------------------------------|-----|
B|------------------------------------------------|-----|
G|---------------------------------------------5--|-----|
D|-------4-------3-3-1-1-3-----2-0-----7~--5-7----|--7\-|
A|---4-------4---3-3-1-1-3---2-----2--------------|-----|
E|-2---2---2---1-----------0---------0------------|-----|
   *   *   *   *           * *       *


Ending solo
e|------------------------------------------|
B|-12b14r12-12~~--10b12r10-10~~--9b10r9-9~~-|
G|------------------------------------------|
D|------------------------------------------|
A|------------------------------------------|
E|------------------------------------------|

e|------------------|
B|-9b10~~--------13-|
G|---------12-14----|
D|------------------|
A|------------------|
E|------------------|

e|-16b17r16-16~~--14b15r14-14~~--13~~--12~~-|
B|------------------------------------------|
G|------------------------------------------|
D|------------------------------------------|
A|------------------------------------------|
E|------------------------------------------|

e|-----------------------|
B|-13-15b17r15p13--------|
G|----------------14~~~\-|
D|-----------------------|
A|-----------------------|
E|-----------------------|

End solo

12.FFF

Tuning: Standard


Intro                         x2
e|-----------------------------|
B|-----------------------------|
G|-----------------------------|
D|-4-4----4-4----4-4----4-4----|
A|-2-2--0-2-2----2-2----2-2--0-|
E|-------------3------3--------|
        *      *      *      *
e|-----------------------------|
B|-----------------------------|
G|-----------------------------|
D|-4-4----4-4----4-4----4-4----|
A|-2-2--0-2-2----2-2----2-2----|
E|-------------3------3------3-|
        *      *      *      *
e|-----------------------------------------|
B|-----------------------------------------|
G|-----------------------------------------|
D|-2-2----2-2----2-2----2-2----------------|
A|-0-0----0-0----0-0----0-0----4----4------|
E|------3------3------3------3-2----2--X\\-|
        *      *      *      *


Riff 1
e|-----------------------------|
B|-----------------------------|
G|-----------------------------|
D|-4-4----4-4------------------|
A|-2-2--0-2-2--5-5-5----5-5----|
E|---------------3-3--2-3-3--2-|
        *      *      *      *
   "Looking for a cure..."
e|------------------------------|
B|------------------------------|
G|------------------------------|
D|-4-4----4-4-------------------|
A|-2-2--0-2-2--5-5-5------------|
E|---------------3-3--2-0-2-3-5-|
        *      *      * * * * *
   "Within the human race..."
e|-----------------------------|
B|-----------------------------|
G|-----------------------------|
D|-4-4----4-4------------------|
A|-2-2--0-2-2--5-5-5----5-5----|
E|---------------3-3--2-3-3--2-|
        *      *      *      *
   "Eliminate the poor..."
e|-----------------------------|
B|-----------------------------|
G|-----------------------------|
D|-2-2----2-2----2-2----2-2----|
A|-0-0----0-0----0-0----0-0----|
E|------3------3------3------3-|
        *      *      *      *
   "How much longer..."
e|-----------------------------|
B|-----------------------------|
G|-----------------------------|
D|-4-4----4-4------------------|
A|-2-2--0-2-2--5-5-5----5-5----|
E|---------------3-3--2-3-3--2-|
        *      *      *      *
   "Burning up the tents..."
e|------------------------------|
B|------------------------------|
G|------------------------------|
D|-4-4----4-4-------------------|
A|-2-2--0-2-2--5-5-5------------|
E|---------------3-3--2-0-2-3-5-|
        *      *      * * * * *
   "...of the rank and file..."
e|-----------------------------|
B|-----------------------------|
G|-----------------------------|
D|-4-4----4-4------------------|
A|-2-2--0-2-2--5-5-5----5-5----|
E|---------------3-3--2-3-3--2-|
        *      *      *      *
   "Exterminate their lives..."
e|-------------------------------|
B|-------------------------------|
G|-------------------------------|
D|-2-2----2-2----2-2----2-xxxxxx-|
A|-0-0----0-0----0-0----0-xxxxxx-|
E|------3------3------3----------|
        *      *      *
   "Crack a demon smile..."

Riff 2
e|-----------------------------|
B|-----------------------------|
G|-4-4----4-4------------------|
D|-2-2--0-2-2--5-5-5----5-5----|
A|---------------3-3--2-3-3--2-|
E|-----------------------------|
        *      *      *      *
   "Crushing down..."
e|------------------------------|
B|------------------------------|
G|-4-4----4-4-----------2-------|
D|-2-2--0-2-2--5-5-5------5-4-3-|
A|---------------3-3--2---------|
E|------------------------------|
        *      *      *
   "...our will to live..."
e|-----------------------------|
B|-----------------------------|
G|-4-4----4-4------------------|
D|-2-2--0-2-2--5-5-5----5-5----|
A|---------------3-3--2-3-3--2-|
E|-----------------------------|
        *      *      *      *
   "...of man's mistakes..."
e|-----------------------------|
B|-----------------------------|
G|-2-2----2-2----2-2----2-2----|
D|-0-0----0-0----0-0----0-0----|
A|------3------3------3------3-|
E|-----------------------------|
        *      *      *      *
   "Lock it up..."


Riff 3
Guitar 1                      x2
e|-----------------------------|
B|-----------------------------|
G|-----------------------------|
D|-4-4----4-4----4-4----4-4----|
A|-2-2--0-2-2----2-2----2-2--0-|
E|-------------3------3--------|
        *      *      *      *
                     "Fight for freedom..."
e|-----------------------------|
B|-----------------------------|
G|-----------------------------|
D|-4-4----4-4----4-4----4-4----|
A|-2-2--0-2-2----2-2----2-2----|
E|-------------3------3------3-|
        *      *      *      *
                     "Fight for anything..."
e|-----------------------------------------|
B|-----------------------------------------|
G|-----------------------------------------|
D|-2-2----2-2----2-2----2-2----------------|
A|-0-0----0-0----0-0----0-0----4----4------|
E|------3------3------3------3-2----2--X\\-|
        *      *      *      *
                            "My country tis..."

Guitar 2 (w/ phase)            x3
e|------------------------------|
B|------------------------------|
G|-16-16-14-16-16-19\18-19\-12~-|
D|------------------------------|
A|------------------------------|
E|------------------------------|

e|----------------------------------|
B|----------------------------------|
G|-/9-9--/9-9--/9-9--/9-9--/6----6--|
D|----------------------------------|
A|----------------------------------|
E|----------------------------------|


Play Riff 1   "Cry for absolution..."

Use this for last bar on Riff 1
e|-----------------------------|
B|-----------------------------|
G|-----------------------------|
D|-2-2----2-2----2-2----2-2----|
A|-0-0----0-0----0-0----0-0----|
E|------3------3------3------3-|
        *      *      *      *
  "...and reap the aftermath..."


Play Riff 2   "Crushing down..."

Use this for last bar on Riff 2
e|---------------------------------|
B|---------------------------------|
G|-2-2----2-2----------------------|
D|-0-0----0-0-----0-00-00-00000000-|
A|------3------3-------------------|
E|---------------------------------|
        *      *  * ** ** ********
   "I don't know how much..."


Play Riff 3   "Fight for freedom..."


Riff 4 (Solo Rhythm)
e|-----------------------------|
B|-----------------------------|
G|-----------------------------|
D|-4-4----4-4----5-5----5-5----|
A|-2-2--0-2-2--0-3-3--0-3-3--0-|
E|-----------------------------|
        *      *      *      *
e|-----------------------------|
B|-----------------------------|
G|-----------------------------|
D|-4-4----4-4----5-5-----------|
A|-2-2--0-2-2--0-3-3-----------|
E|-------------------0-0-2-3-5-|
        *      *     * * * * *
e|-----------------------------|
B|-----------------------------|
G|-----------------------------|
D|-4-4----4-4----5-5----5-5----|
A|-2-2--0-2-2--0-3-3--0-3-3----|
E|---------------------------0-|
        *      *      *      *
e|-----------------------------|
B|-----------------------------|
G|-----------------------------|
D|----------------------2-2----|
A|-4-4----4-4----5-5----0-0--0-|
E|-2-2--0-2-2--0-3-3--0--------|
        *      *      *      *

Riff 4a (Solo Rhythm)
e|-----------------------------------|
B|-----------------------------------|
G|-----------------------------------|
D|-----------------------------------|
A|-2222222222222222-3333333333333333-|
E|-----------------------------------|
   **************** ****************
   "Fight, fight..."
e|-----------------------------------|
B|-----------------------------------|
G|-----------------------------------|
D|-----------------------------------|
A|-2222222222222222-33333333---------|
E|---------------------------0-2-3-5-|
   **************** ******** * * * *
   "Fight, fight..."
e|-----------------------------|
B|-----------------------------|
G|-----------------------------|
D|-4-4----4-4----5-5----5-5----|
A|-2-2--0-2-2--0-3-3--0-3-3----|
E|---------------------------0-|
        *      *      *      *
e|-----------------------------|
B|-----------------------------|
G|-----------------------------|
D|----------------------2-2----|
A|-4-4----4-4----5-5----0-0--0-|
E|-2-2--0-2-2--0-3-3--0--------|
        *      *      *      *


Solo (Friedman)
e|----------------------------------|
B|----------------------------------|
G|--------2---2--(2)~~----2-4p2p0---|
D|-/4~~-----4---------------------4-|
A|----------------------------------|
E|----------------------------------|

e|---------------------------------------------------|
B|--------------------------/12\10-8-7---------------|
G|-0h2h4-2-0-2h4h5-4p2p0---------------9-------------|
D|-----------------------4---------------10-9-7------|
A|----------------------------------------------9~~\-|
E|---------------------------------------------------|

e|-----------------------------------------|
B|-/7--7--7----8--8--8----10--10--10-10/13-|
G|--x--x--x----x--x--x-----x---x---x--x----|
D|-/4--4--4----5--5--5-----7---7---7--7/10-|
A|-----------------------------------------|
E|-----------------------------------------|

e|-----------------------------------------------|
B|-13-13/17-17-17/20-20-20-20-20-20-20-19-19~~\8-|
G|--x--x-----x--x-----x--x--x--x--x--x--x--x-----|
D|-10-10/14-14-14/17-17-17-17-17-17-17-16-16~~---|
A|-----------------------------------------------|
E|-----------------------------------------------|

e|--------------------------------------|
B|-7h8p7\5--7-/10-9-8--7h8p7------------|
G|---------------------------10-9-8-7h9-|
D|--------------------------------------|
A|--------------------------------------|
E|--------------------------------------|

e|---------------------7-----------------{10}---------|
B|-7-8-10-8p7---7h8-10---10p7-10p7-10b12------10b12~~-|
G|------------9---------------------------------------|
D|----------------------------------------------------|
A|----------------------------------------------------|
E|----------------------------------------------------|

e|---------------------------------------------10-|
B|------------------------------------10/12-14----|
G|-------------------------9-12-11/12-------------|
D|---------------7/9-11h12------------------------|
A|--------7-10p9----------------------------------|
E|-7-9-10-----------------------------------------|

e|-14p10-12p9-10-9------------------------------------------|
B|----------------------15-17p16p15-19p18p17-15-15-17-15-15-|
G|------------------/18-------------------------------------|
D|----------------------------------------------------------|
A|----------------------------------------------------------|
E|----------------------------------------------------------|

e|--------------------------------------------------|
B|----------16-15b17r15b17~~--17b19--15-17----15~~~-|
G|-16-14-16--------------------------------16-------|
D|--------------------------------------------------|
A|--------------------------------------------------|
E|--------------------------------------------------|

e|--------------14-------------14------------|
B|-17b19r17b19----17-14------14--17p14-17b19-|
G|---------------------16b18-----------------|
D|-------------------------------------------|
A|-------------------------------------------|
E|-------------------------------------------|

e|-14-18p14-------------------14-17-|
B|----------14-17b19-17b19~~--------|
G|----------------------------------|
D|----------------------------------|
A|----------------------------------|
E|----------------------------------|

e|-17b19--(19)r17--17b19---{17}-{17}-{17}-{17}-{17}-|
B|----------------(17b19)--{17}-{17}-{17}-{17}-{17}-|
G|--------------------------------------------------|
D|--------------------------------------------------|
A|--------------------------------------------------|
E|--------------------------------------------------|

e|-19b21-{19}-{19}-19b22----19\\\2------|
B|-----------------------[steady gliss]-|
G|--------------------------------------|
D|--------------------------------------|
A|--------------------------------------|
E|--------------------------------------|

e|-----19----22b24-22-19---22p19---24p19---22p19------|
B|-/19----19------------22------22------22------22p19-|
G|----------------------------------------------------|
D|----------------------------------------------------|
A|----------------------------------------------------|
E|----------------------------------------------------|

e|-17------{18}-------------------19p14----17-------|
B|----17b19----{17}-(19)r17-15h17-------15----17p15-|
G|--------------------------------------------------|
D|--------------------------------------------------|
A|--------------------------------------------------|
E|--------------------------------------------------|

e|--------------------14-------------17p14-------|
B|----15-------/12/14----14p12----12----------17-|
G|-16----16p14-----------------14----------16----|
D|-----------------------------------------------|
A|-----------------------------------------------|
E|-----------------------------------------------|

e|--------------------------------|
B|--------------------------17~~--|
G|-14-14-14-16-16b18r16b18-{16}~~-|
D|--------------------------------|
A|--------------------------------|
E|--------------------------------|

e|-------------------------------------|
B|---15b19------[15]17r15-12-----------|
G|-[slow bend]-------------------------|
D|---------------------------14-12-----|
A|---------------------------------14~-|
E|-------------------------------------|

End Solo


Riff 3a
Guitar 1                      x6
e|-----------------------------|
B|-----------------------------|
G|-----------------------------|
D|-4-4----4-4----4-4----4-4----|
A|-2-2--0-2-2----2-2----2-2--0-|
E|-------------3------3--------|
        *      *      *      *
                     "Fight for freedom..."
e|-----------------------------|
B|-----------------------------|
G|-----------------------------|
D|-4-4----4-4----4-4----4-4----|
A|-2-2--0-2-2----2-2----2-2----|
E|-------------3------3------3-|
        *      *      *      *
                     "Fight for anything..."
e|-------------------------------------|
B|-------------------------------------|
G|-------------------------------------|
D|-2-2----2-2----2-2----2-2------------|
A|-0-0----0-0----0-0----0-0----4----4--|
E|------3------3------3------3-2----2--|
        *      *      *      *
                            "My country tis..."

Guitar 2 (w/ phase)          x7
e|------------------------------|
B|------------------------------|
G|-16-16-14-16-16-19\18-19\-12~-|
D|------------------------------|
A|------------------------------|
E|------------------------------|

e|----------------------------------|
B|----------------------------------|
G|-/9-9--/9-9--/9-9--/9-9--/6----6--|
D|----------------------------------|
A|----------------------------------|
E|----------------------------------|


Guitar 2 (comes in later, w/ phase)
                               x3
e|------------------------------|
B|-15-15-14-15-15-19\17-19\-12~-|
G|------------------------------|
D|------------------------------|
A|------------------------------|
E|------------------------------|

e|------------------------------------------|
B|-/10-10--/10-10--/10-10--/10-10--/7----7--|
G|------------------------------------------|
D|------------------------------------------|
A|------------------------------------------|
E|------------------------------------------|

13.ONE THING

Intro
-----------------------------------|
-----------------------------------|
---------------------------5-------|
-7-----7---7---7-----7-----5-------|
-0-0-0-0-0-0-0-0-0-0-0-0-0---------|
-----------------------------------|


Verse & Chorus           bend
-----------------------------------------|
-------------------------7^-5-7-5--------|
-------------------------7^-5-7-5-7-5----|
-7-----7---7---7-----7------------7-5----|
-0-0-0-0-0-0-0-0-0-0-0-0-----------------|
-----------------------------------------|

Pre-Chorus
--------------------------------|
--------------------------------|
-------5-----7-5-----7-5--------|
-7---7-5-----7-5-----7-5----7---|
-0-0-0-----0-------0--------0-0-|
--------------------------------|

End of Pre-Chorus fill
---------------------|
---------------------|
-----5---------------|
-5---5---5-4-3-------|
-5---3---5-4-3-------|
-3-------3-2-1-------|

Chorus
---------------------------------------------|
---------------------------------------------|
---------------------------------------------|
---------------------------------------------|
-----2-----------2-----------2-----------2---|
-0-3-0---x-x-0-3-0---x-x-0-3-0---x-x-0-3-0---|

Bridge
---------------------------------|
---------------------------------|
---------2-------4-------7---6---|
-4-------2-------4-------7---6---|
-4-------0-------2-------5--54---|
-2-------------------------------|

Solo Rhythm
---------------------------------|
---------------------------------|
-----------------5-------8---7---|
-5-------8-------5-------8---7---|
-5-------8-------3-------6--65---|
-3-------6-----------------------|


Exit Riff
---------------------------------|--------------------------|
---------------------------------|--7^-5-7-5--7-5--7-5------|
---5-------5-------5-------5-----|--7^-5-7-5--7-5--7-5-5-7--|
---5-7-----5-7-----5-7-----5-7---|---------------------5-7--|
-0---0---0---0---0---0---0---0---|--------------------------|
---------------------------------|--------------------------|
comments
We did not receive enough feedback on this tab! Please rate:
print report bad tab
1 2 3 4 5
1 comment total.
0 reply
Asterix_13 wrote on September 2 2009, 09:33 pm

great tab

I want to post or [tab]
guest
You may want to rate the tab now too:
select rating
Please do not post tabs as comments. Select "correction" instead!