Oops, an error
Loading. Please wait.

Devils Island Tab

ver2
ver2

Whole song

Interactive

More versions @911Tabs.com
28,401 views 62 this week
3 commentsread comments
1 2 3 4 5
excellent!
x 10
Autoscroll
+/-
esc
set tempo
stop
Contributor
WARNING: You are trying to view
                                    content from Ultimate-Guitar.com
                                    in an unauthorized application,
                                    which is prohibited.

                                    Please use an official Ultimate
                                    Guitar Tabs application for iPhone,
                                    iPad or Android to access legitimate
                                    chords, guitar, bass, and drum tabs
                                    from Ultimate-Guitar.com database.

                                    Type "ultimate guitar tabs" in Apple
                                    App Store's or Android Market's
                                    search to find the application.
#----------------------------------PLEASE NOTE---------------------------------#
#This file is the author's own work and represents their interpretation of the #
#song. You may only use this file for private study, scholarship, or research. #
#------------------------------------------------------------------------------#

DEVILS ISLAND
As recorded by Megadeth
(From the 1986 Album PEACE SELLS...BUT WHO'S BUYING)

Transcribed by cbliss66@aol.com (slaya)
        

Words and Music by Dave Mustaine
Arranged by Megadeth

Gtr I (E A D G B E) - 'Dist.Gtr.I'
Gtr II (E A D G B E) - 'Dist.Gtr.II'
Gtr III (E A D G B E) - 'Solo Gtr.'
Gtr IV (E A D G B E) - 'Pick Slides'
Gtr V (E A D G B E) - 'Gunshot'

   Intro
    Slow Rock Q=75
    E5 B5 Bb5N.C.      E5 B5 Bb5N.C.
   4/4
    Gtr I
             PM----|            PM----|
    Q  Q  Q  S S S S   Q  Q  Q  S S S S
||-------------------|-------------------||
||o------------------|------------------o||
||-----4--3----------|----4--3-----------||
||--2--4--3----------|-2--4--3-----------||
||o-2--2--1--2-0-----|-2--2--1--2-0-----o||
||--0------------2-3-|-0------------2-3--||
|
|   Gtr II
|            PM----|            PM----|
|   Q  Q  Q  S S S S   Q  Q  Q  S S S S
||-------------------|-------------------||
||o------------------|------------------o||
||-----4--3----------|----4--3-----------||
||--2--4--3--4-2-----|-2--4--3--4-2------||
||o-2--2--1------4-5-|-2--2--1------4-5-o||
||--0----------------|-0-----------------||


   Intro-Solo
    E5                                  B5                                  Bb5                                 N.C.
    Gtr III
     T        T        T        T        T        T        T        T        T        T        T        T        T        T        T        T
     |------6-------|  |------6-------|  |------6-------|  |------6-------|  |------6-------|  |------6-------|  |------6-------|  |------6-------|
     T  T  T  T  T  T  T  T  T  T  T  T  T  T  T  T  T  T  T  T  T  T  T  T  T  T  T  T  T  T  T  T  T  T  T  T  T  T  T  T  T  T  T  T  T  T  T  T   3x
||--19p15p12-19p15p12-19p15p12-19p15p12---------------------------------------------------------------------------------------------------------------||
||o-------------------------------------20p15p12-20p15p12-20p15p12-20p15p12-19p14p11-19p14p11-19p14p11-19p14p11-18p13p10-18p13p10-18p13p10-18p13p10--o||
||----------------------------------------------------------------------------------------------------------------------------------------------------||
||----------------------------------------------------------------------------------------------------------------------------------------------------||
||o--------------------------------------------------------------------------------------------------------------------------------------------------o||
||----------------------------------------------------------------------------------------------------------------------------------------------------||
|
|   Gtrs I, II
|                                                                                                                PM------------------------|
|    Q                                   Q                                   Q                                   S        S        S        S         3x
||----------------------------------------------------------------------------------------------------------------------------------------------------||
||o--------------------------------------------------------------------------------------------------------------------------------------------------o||
||---------------------------------------4-----------------------------------3------------------------------------------------------------------------||
||---2-----------------------------------4-----------------------------------3------------------------------------------------------------------------||
||o--2-----------------------------------2-----------------------------------1-----------------------------------2--------0--------------------------o||
||---0-----------------------------------------------------------------------------------------------------------------------------2--------3---------||


  Slight accel Q=76
  E5                                  B5                              Bb5                   N.C.
   T        T        T        T        T        T     T        T       T         T        T        T
   |------6-------|  |------6-------|  |--3--|        |--3--|  |-3--|              |-3-|
   T  T  T  T  T  T  T  T  T  T  T  T  T  T  T  T  T  T  T  T  T  T T  T  T T T  T T T T  T T T T  T T T X X T
|-19p15p12-19p15p12---------------------------------------------------------------------------------------------|
|-------------------20p15p12-20p15p12-19p14p11-19p14-18p13p10-17p12p8-16p10p8S7-15p8p7S5-14p7p5h7-15p8p6s5------|
|----------------------------------------------------------------------------------------------------------5-7s=|
|---------------------------------------------------------------------------------------------------------------|
|---------------------------------------------------------------------------------------------------------------|
|---------------------------------------------------------------------------------------------------------------|
|
|                                                                                           PM-----------|
|  Q                                   Q                               Q                    S   S    S   S
|---------------------------------------------------------------------------------------------------------------|
|---------------------------------------------------------------------------------------------------------------|
|--------------------------------------4-------------------------------3----------------------------------------|
|--2-----------------------------------4-------------------------------3----------------------------------------|
|--2-----------------------------------2-------------------------------1--------------------2---0---------------|
|--0-------------------------------------------------------------------------------------------------2---3------|


  E    N.C.
  ~~~
  H..                   +E
|------------------------------|
|------------------------------|
|-9---------------------(9)\---|
|------------------------------|
|------------------------------|
|------------------------------|
|
|      ~~~~~~~      PM-------|
| Q    Q    E  +E   S S  S   S
|------------------------------|
|------------------------------|
|------------------------------|
|-2----2--/10-(10)\------------|
|-2-----------------2-0--------|
|-0----------------------2---3-|


  E5       N.C.                              E5    N.C.
  |--3---| |-3-|   |----3----| |---3---|
  E    e e e e e   e e       e e   e   e     W
|------------------------------------------|-----------------------------|
|------------------------------------------|-0tr3------------------------|
|-7b9==7-7-7-7-7---7-7-------7-7---7r==7---|-----------------------------|
|------------------------------------------|-----------------------------|
|------------------------------------------|-----------------------------|
|------------------------------------------|-----------------------------|
|
|          ~~~~~~~~~~          PM--------|         ~~~~~~~      PM----|
| Q        Q       E    +E     S S   S   S   Q     Q    E  +E   S S S S
|------------------------------------------|-----------------------------|
|------------------------------------------|-----------------------------|
|------------------------------------------|-----------------------------|
|-2--------2-----/10---(10)\---------------|-2-----2--/10-(10)\----------|
|-2----------------------------2-0---------|-2------------------2-0------|
|-0----------------------------------2---3-|-0----------------------2-3--|


                                   Mo
  E5      N.C.
             Gtr IV
               TPTP  TP  TPTPTPTPTP
  +H           S S   S   S S S S S
|----------------------------------||
|-(0tr3)---------------------------||
|----------------------------------||
|----------------------------------||
|--------------xsxs==xs==xsxsxsxsxs||
|--------------xsxs==xs==xsxsxsxsxs||
|
|         ~~~~~~~~         PM----|
|  Q      Q    E    +E     S S S S
|----------------------------------||
|----------------------------------||
|----------------------------------||
|--2------2--/10---(10)\-----------||
|--2-----------------------2-0-----||
|--0---------------------------2-3-||


 derately Fast Rock Q=176
  E5
  TPTPTPTPTPTPTPTPTPTPTPTPTPTPTPTP
  S S S S S S S S S S S S S S S S    W          W
|----------------------------------|----------|------|
|----------------------------------|----------|------|
|----------------------------------|----------|------|
|----------------------------------|----------|------|
|-xsxsxsxsxsxsxsxsxsxsxsxsxsxsxsx\-|----------|------|
|-xsxsxsxsxsxsxsxsxsxsxsxsxsxsxsx\-|----------|------|
|
| Q       Q       H                  W          W
|----------------------------------|----------|------|
|----------------------------------|----------|------|
|----------------------------------|----------|------|
|-2--------------------------------|----------|------|
|-2--------------------------------|----------|------|
|-0--------------------------------|----------|------|


  Gtrs I, II
  W          W          Q  Q  H      W
|----------|----------|------------|------|
|----------|----------|------------|------|
|----------|-9--------|-9----------|------|
|----------|-9--------|-9----------|------|
|----------|-7--------|-7----------|------|
|----------|----------|------------|------|


                  1st Verse
               Slower Q=166
                   E5                        F5
                     PM------------------|     PM------------------|
  H.       Q       E S S E S S E S S E S S   E S S E S S E S S E S S
|--------------||--------------------------|--------------------------|
|--------------||o-------------------------|--------------------------|
|--------------||--------------------------|--------------------------|
|--------------||--2-----------------------|-3------------------------|
|--------------||o-2-----------------------|-3------------------------|
|---------12\--||--0-0-0-0-0-0-0-0-0-0-0-0-|-1-1-1-1-1-1-1-1-1-1-1-1--|


  F#5                       G5
    PM------------------|     PM------------------|
  E S S E S S E S S E S S   E S S E S S E S S E S S  4x
|-------------------------|--------------------------||
|-------------------------|-------------------------o||
|-------------------------|--------------------------||
|-4-----------------------|-5------------------------||
|-4-----------------------|-5-----------------------o||
|-2-2-2-2-2-2-2-2-2-2-2-2-|-3-3-3-3-3-3-3-3-3-3-3-3--||


   Chorus
    E5 G5                     D5       E5         E5 G5
                                                 2/4
    Gtr I
       ~  PM----------------|    PM--|
    Q  Q  E S S E S S   E S S Q  E S S E +E    4x Q  Q
||--------------------|------------------------||-------||
||o-------------------|-----------------------o||-------||
||--------------------|-------7--------9-(9)\--||-------||
||--2--5--------------|-------7--------9-(9)\--||-2--5--||
||o-2--5--------------|-------5--------7-(7)\-o||-2--5--||
||--------0-0-0-0-0-0-|-0-0-0----0-0-0---------||-------||
|
|   Gtr II
|         PM----------------|    PM--|
|   Q  Q  E S S E S S   E S S Q  E S S E +E    4x Q  Q
||--------------------|------------------------||-------||
||o-------------------|-----------------------o||-------||
||--------------------|-------7--------9-(9)\--||-------||
||--------------------|-------7--------9-(9)\--||-------||
||o-2--5--------------|-------5--------7-(7)\-o||-2--5--||
||--0--3--0-0-0-0-0-0-|-0-0-0----0-0-0---------||-0--3--||


   2nd Verse
    E5                        F5
   4/4
    Gtrs I, II
      PM------------------|     PM------------------|
    E S S E S S E S S E S S   E S S E S S E S S E S S
||--------------------------|--------------------------|
||o-------------------------|--------------------------|
||--------------------------|--------------------------|
||--2-----------------------|-3------------------------|
||o-2-----------------------|-3------------------------|
||--0-0-0-0-0-0-0-0-0-0-0-0-|-1-1-1-1-1-1-1-1-1-1-1-1--|


                           1.
  F#5                       G5
    PM------------------|     PM------------------|
  E S S E S S E S S E S S   E S S E S S E S S E S S
|-------------------------|--------------------------||
|-------------------------|-------------------------o||
|-------------------------|--------------------------||
|-4-----------------------|-5------------------------||
|-4-----------------------|-5-----------------------o||
|-2-2-2-2-2-2-2-2-2-2-2-2-|-3-3-3-3-3-3-3-3-3-3-3-3--||


 2.
  G5
    PM------------------|
  E S S E S S E S S E S S
|--------------------------||
|--------------------------||
|--------------------------||
|-5------------------------||
|-5------------------------||
|-3-3-3-3-3-3-3-3-3-5-0-0--||


   Chorus II
    E5 G5                     D5       E5         E5 G5
                                                 2/4
    Gtr I
       ~  PM----------------|    PM--|
    Q  Q  E S S E S S   E S S Q  E S S E +E    4x Q  Q
||--------------------|------------------------||-------||
||o-------------------|-----------------------o||-------||
||--------------------|-------7--------9-(9)\--||-------||
||--2--5--------------|-------7--------9-(9)\--||-2--5--||
||o-2--5--------------|-------5--------7-(7)\-o||-2--5--||
||--------0-0-0-0-0-0-|-0-0-0----0-0-0---------||-------||
|
|   Gtr II
|         PM----------------|    PM--|
|   Q  Q  E S S E S S   E S S Q  E S S E +E    4x Q  Q
||--------------------|------------------------||-------||
||o-------------------|-----------------------o||-------||
||--------------------|-------7--------9-(9)\--||-------||
||--------------------|-------7--------9-(9)\--||-------||
||o-2--5--------------|-------5--------7-(7)\-o||-2--5--||
||--0--3--0-0-0-0-0-0-|-0-0-0----0-0-0---------||-0--3--||


    accel Q=168
          Dsus4       Ebsus4Dsus4     Dsus4       Ebsus4Dsus4
   4/4
    Gtrs I, II
    PM--------------|           PM--------------|
    E S S E S S E S S S +S  E   E S S E S S E S S S +S  E   4x
||----------------------------|-----------------------------||
||o---------------------------|----------------------------o||
||----------------------------|-----------------------------||
||--------5-----------6-(6)s5-|-------5-----------6-(6)s5---||
||o-------5-----------6-(6)s5-|-------5-----------6-(6)s5--o||
||--0-0-0---0-0-0-0-0---------|-0-0-0---0-0-0-0-0-----------||


   3rd Verse
          Dsus4       Ebsus4Dsus4
    PM--------------|
    E S S E S S E S S S +S  E
||----------------------------|
||o---------------------------|
||----------------------------|
||--------5-----------6-(6)s5-|
||o-------5-----------6-(6)s5-|
||--0-0-0---0-0-0-0-0---------|


 1.,2.,3.                      4Q=171
                    Esus4 Fsus4       Dsus4 C#sus4  C#sus4Csus4
  PM--------------|             PM--|         PM--|
  E S S E S S E S S S +S  E  4x E S S S +S  E E S S S +S  E
|----------------------------||-----------------------------|
|---------------------------o||-----------------------------|
|-------------------2-(2)s3--||-----------------------------|
|-------5-----------2-(2)s3--||-------5-(5)s4-------4-(4)s3-|
|-------5-------------------o||-------5-(5)s4-------4-(4)s3-|
|-0-0-0---0-0-0-0-0----------||-0-0-0---------0-0-0---------|


          Dsus4       Ebsus4Dsus4
    PM--------------|
    E S S E S S E S S S +S  E
||----------------------------|
||o---------------------------|
||----------------------------|
||--------5-----------6-(6)s5-|
||o-------5-----------6-(6)s5-|
||--0-0-0---0-0-0-0-0---------|


                    Esus4 Fsus4     Dsus4       Ebsus4Dsus4
  PM--------------|           PM--------------|
  E S S E S S E S S S +S  E   E S S E S S E S S S +S  E
|---------------------------|---------------------------|
|---------------------------|---------------------------|
|-------------------2-(2)s3-|---------------------------|
|-------5-----------2-(2)s3-|-------5-----------6-(6)s5-|
|-------5-------------------|-------5-----------6-(6)s5-|
|-0-0-0---0-0-0-0-0---------|-0-0-0---0-0-0-0-0---------|


                                  F
        Dsus4 C#sus4  C#sus4Csus4
  PM--|         PM--|
  E S S S +S  E E S S S +S  E
|------------------------------||-|
|-----------------------------o||-|
|------------------------------||-|
|-------5-(5)s4-------4-(4)s3--||-|
|-------5-(5)s4-------4-(4)s3-o||-|
|-0-0-0---------0-0-0----------||-|


   Bridge
 aster Q=178
    N.C.(F#)                                  D5  C#5A5
    PM----------------|                   PM|        PM
                        |---5---|
    S S S S S S S S S S S S S S S S S   E E E E E Q  E
||------------------------------------|----------------|
||o-----------------------------------|----------------|
||------------------------------------|----------------|
||------------------------------------|---x---7---6--2-|
||o---------------------0h2h3p2p0-----|---x-x-5---4--0-|
||--2-2-2-2-2-2-2-2-2-2-----------2p0-|-2-x-x----------|


  (F#)                                      DsuC#sBsus4
  PM----------------|                   PM|
                      |---5---|
  S S S S S S S S S S S S S S S S S   E E E Q  Q  E  4x
|-----------------------------------|----------------||
|-----------------------------------|---------------o||
|-----------------------------------|----------------||
|-----------------------------------|---x-x-5--4--2--||
|---------------------0h2h3p2p0-----|---x-x-5--4--2-o||
|-2-2-2-2-2-2-2-2-2-2-----------2p0-|-2-x-x----------||


 Guitar Solo II
  Slow a bit Q=173
  N.C.(F#)                                          D5    C#5 A5
  Gtr III
                                                              PM
  H               +Q.              E        +E  E E E S S E E E
|-----------------------------------------|---------------------|
|-----------------------------------------|---------------------|
|-2---------------(2)-------------[4]b6r==|=(4)-2---2-----------|
|-2---------------(2)---------------------|-------4---4p2---2---|
|-----------------------------------------|---------------4---0-|
|-----------------------------------------|---------------------|
|
| Gtrs I, II
| PM------------------|                         PM|
|                       |---5---|
| S S S S S S S S  S  S S S S S S  S    S    E  E E Q     Q   E
|-----------------------------------------|---------------------|
|-----------------------------------------|---------------------|
|-----------------------------------------|---------------------|
|-----------------------------------------|-----x---7-----6---2-|
|-----------------------0h2h3p2p0---------|-----x-x-5-----4---0-|
|-2-2-2-2-2-2-2-2--2--2------------2p===0-|--2--x-x-------------|


  (F#)
  H               +E.     Q         S
|------------------------------------------|
|------------------------------------------|
|-4---------------(4)-----4S========9b11===|
|-4---------------(4)----------------------|
|------------------------------------------|
|------------------------------------------|
|
| PM--------------|
|                     |----5----|
| S S S S S S S S  e  S S   S S S S S
|------------------------------------------|
|------------------------------------------|
|------------------------------------------|
|------------------------------------------|
|---------------------0h2h==3p2p0----------|
|-2-2-2-2-2-2-2-2--2--------------2p0------|


                                  Q=171
           Dsus4        C#sus4Bsus(F#)
   ~~~~                  ~~~~
  +Q     E E    +E      +Q.       H               +E    E      S    S    E
|-------------------------------|---------------------------------------12b14====|
|--------7----------------------|----------------------------------15------------|
|-(9)r-----9b11r(9)b11==(9)r----|-7---------------(7)---7s====11-----------------|
|-------------------------------|-7----------------------------------------------|
|-------------------------------|------------------------------------------------|
|-------------------------------|------------------------------------------------|
|
|      PM|                        PM------------------|
|                                                       |------5------|
|  E   E E Q             Q    E   S S S S S S S S  S  S S S S    S    S  S     S
|-------------------------------|------------------------------------------------|
|-------------------------------|------------------------------------------------|
|-------------------------------|------------------------------------------------|
|------x-x-5-------------4----2-|------------------------------------------------|
|------x-x-5-------------4----2-|-----------------------0h2h3p===2p===0----------|
|--2---x-x----------------------|-2-2-2-2-2-2-2-2--2--2------------------2p====0-|


                        D5          C#5   A5
   +S   +S   S  S  S  S  S  S  S  S  E  E  S  S
|-(12)r(12)-------------------------------------|
|-----------14----14----14-13p12p10----10-------|
|--------------12----14-------------11----11\---|
|-----------------------------------------------|
|-----------------------------------------------|
|-----------------------------------------------|
|
|            PM---|
|   E        E     E     Q           Q     E
|-----------------------------------------------|
|-----------------------------------------------|
|-----------------------------------------------|
|------------x-----------7-----------6-----2----|
|------------x-----x-----5-----------4-----0----|
|---2--------x-----x----------------------------|


  (F#)
  W
|-----------------------------------|
|-----------------------------------|
|-9---------------------------------|
|-9---------------------------------|
|-----------------------------------|
|-----------------------------------|
|
| PM----------------|
|                     |---5---|
| S S S S S S S S S S S S S S S S S
|-----------------------------------|
|-----------------------------------|
|-----------------------------------|
|-----------------------------------|
|---------------------0h2h3p2p0-----|
|-2-2-2-2-2-2-2-2-2-2-----------2p0-|


                                Dsus4           C#sus4       Bsus4
   S      +E     e        e        e       +S    S       +Q     +S
|-19b21==(19)---19pb21---19pb21---19pb21==(19)r-19pb21==(19)r==(19)-|
|-------------------------------------------------------------------|
|-------------------------------------------------------------------|
|-------------------------------------------------------------------|
|-------------------------------------------------------------------|
|-------------------------------------------------------------------|
|
|             PM-------|
|  E          E        E        Q                Q           E
|-------------------------------------------------------------------|
|-------------------------------------------------------------------|
|-------------------------------------------------------------------|
|-------------x--------x--------5----------------4-----------2------|
|-------------x--------x--------5----------------4-----------2------|
|--2----------x--------x--------------------------------------------|


  (F#)
   S  S  S  S  S  S  S  S  S  S  S    S    S    S    S  S
|-17-14-12-19-14-12-17-14-12-16-14---12---14---17---14-12-|
|---------------------------------------------------------|
|---------------------------------------------------------|
|---------------------------------------------------------|
|---------------------------------------------------------|
|---------------------------------------------------------|
|
|  PM------------------------|
|                                |-------5--------|
|  S  S  S  S  S  S  S  S  S  S  S S    S    S    S  S  S
|---------------------------------------------------------|
|---------------------------------------------------------|
|---------------------------------------------------------|
|---------------------------------------------------------|
|--------------------------------0h2h===3p===2p===0-------|
|--2--2--2--2--2--2--2--2--2--2----------------------2p=0-|


                    D5          C#5         A5
   S  S  S  S  S  S  S  S  S  S  S  S  S  S  S  S
|-17-14-12-19-14-12-17-14-12-16-14-12-14-17-14-12--|
|--------------------------------------------------|
|--------------------------------------------------|
|--------------------------------------------------|
|--------------------------------------------------|
|--------------------------------------------------|
|
|        PM---|
|  E     E     E     Q           Q           E
|--------------------------------------------------|
|--------------------------------------------------|
|--------------------------------------------------|
|--------x-----------7-----------6-----------2-----|
|--------x-----x-----5-----------4-----------0-----|
|--2-----x-----x-----------------------------------|


  (F#)
   S  S  S  S  S  S  S  S  S  S  S    S    S    S    S  S
|-17-14-12-19-14-12-17-14-12-16-14---12---14---17---14-12-|
|---------------------------------------------------------|
|---------------------------------------------------------|
|---------------------------------------------------------|
|---------------------------------------------------------|
|---------------------------------------------------------|
|
|  PM------------------------|
|                                |-------5--------|
|  S  S  S  S  S  S  S  S  S  S  S S    S    S    S  S  S
|---------------------------------------------------------|
|---------------------------------------------------------|
|---------------------------------------------------------|
|---------------------------------------------------------|
|--------------------------------0h2h===3p===2p===0-------|
|--2--2--2--2--2--2--2--2--2--2----------------------2p=0-|


                    Dsus4       C#sus4      Bsus4
   S  S  S  S  S  S  S  S  S  S  S  S  S  S S S
|-17-14-12-19-14-12-17-14-12-16-14-12-14-21-0-0--|
|------------------------------------------------|
|------------------------------------------------|
|------------------------------------------------|
|------------------------------------------------|
|------------------------------------------------|
|
|        PM---|
|  E     E     E     Q           Q          E
|------------------------------------------------|
|------------------------------------------------|
|------------------------------------------------|
|--------x-----x-----5-----------4----------2----|
|--------x-----x-----5-----------4----------2----|
|--2-----x-----x---------------------------------|


  (F#)
   S S S  S S S  S S  S S S    S   S   S    S S
|-21-0-0-19-0-0-17-0-19-0-0---17---0---0---21-0-|
|-----------------------------------------------|
|-----------------------------------------------|
|-----------------------------------------------|
|-----------------------------------------------|
|-----------------------------------------------|
|
|  PM-------------------|
|                         |------5-------|
|  S S S  S S S  S S  S S S S    S   S   S  S S
|-----------------------------------------------|
|-----------------------------------------------|
|-----------------------------------------------|
|-----------------------------------------------|
|-------------------------0h2h===3p==2p==0------|
|--2-2-2--2-2-2--2-2--2-2-------------------2p0-|


                D5        C#5      A5
   S S S  S S S  S S  S S S  S S S  S S
|-21-0-0-19-0-0-17-0-19-0-0-17-0-0-16-0--|
|----------------------------------------|
|----------------------------------------|
|----------------------------------------|
|----------------------------------------|
|----------------------------------------|
|
|      PM---|
|  E   E    E    Q        Q         E
|----------------------------------------|
|----------------------------------------|
|----------------------------------------|
|------x---------7--------6---------2----|
|------x----x----5--------4---------0----|
|--2---x----x----------------------------|


  (F#)
   S S S  S S S  S S  S S S    S   S   S    S S
|-21-0-0-19-0-0-17-0-19-0-0---17---0---0---15-0-|
|-----------------------------------------------|
|-----------------------------------------------|
|-----------------------------------------------|
|-----------------------------------------------|
|-----------------------------------------------|
|
|  PM-------------------|
|                         |------5-------|
|  S S S  S S S  S S  S S S S    S   S   S  S S
|-----------------------------------------------|
|-----------------------------------------------|
|-----------------------------------------------|
|-----------------------------------------------|
|-------------------------0h2h===3p==2p==0------|
|--2-2-2--2-2-2--2-2--2-2-------------------2p0-|


  F#5                       Dsus4         C#sus4        Bsus4
                    |--3--|
   S  S  S  T  S    S  S  S    S  S  S  S    S  S  S  S    T  S
|-17p14-14h17p14------14-----------------------------------------|
|------------------17----17---14-16-17-16---14-------------------|
|----------------------------------------------17-16-14----------|
|---------------------------------------------------------16-14\-|
|----------------------------------------------------------------|
|----------------------------------------------------------------|
|
|        PM------|
|  E     E       E          Q             Q             E
|----------------------------------------------------------------|
|----------------------------------------------------------------|
|----------------------------------------------------------------|
|--------x-------x----------5-------------4-------------2--------|
|--------x-------x----------5-------------4-------------2--------|
|--2-----x-------x-----------------------------------------------|


  accel Q=173
  E5                            F5
  E.   E.   E   E.   E.   E     E.   E.   E   E.   E.   E
|-----------------------------|-----------------------------|
|-----------------------------|-----------------------------|
|-----------9---7-------------|-----------9---7-------------|
|------9-------------9--------|------9-------------9--------|
|-7-----------------------7---|-8-----------------------8---|
|-----------------------------|-----------------------------|
|
|    PM---------------------|      PM---------------------|
| E  S S  E S S E  S S  E S S   E  S S  E S S E  S S  E S S
|-----------------------------|-----------------------------|
|-----------------------------|-----------------------------|
|-----------------------------|-----------------------------|
|-2---------------------------|-3---------------------------|
|-2---------------------------|-3---------------------------|
|-0--0-0--0-0-0-0--0-0--0-0-0-|-1--1-1--1-1-1-1--1-1--1-1-1-|


  F#5
  E.   E.   E   E.   E.   E
|------------------------------|
|------------------------------|
|-----------9---7--------------|
|------9-------------9---------|
|-9-----------------------9----|
|------------------------------|
|
|    PM---------------------|
| E  S S  E S S E  S S  E S S
|------------------------------|
|------------------------------|
|------------------------------|
|-4----------------------------|
|-4----------------------------|
|-2--2-2--2-2-2-2--2-2--2-2-2--|


  G5                              E5
   E.   E.   E   E.   E.    E     E.   E.   E    E.   E.   E
|-------------------------------|------------------------------|
|-------------------------------|---------------10----9--------|
|------------9---7--------------|-----------7--------------7---|
|-------9-------------9---------|------9-----------------------|
|-10-----------------------10---|-7----------------------------|
|-------------------------------|------------------------------|
|
|     PM----------------------|      PM----------------------|
|  E  S S  E S S E  S S  E  S S   E  S S  E S S  E  S S  E S S
|-------------------------------|------------------------------|
|-------------------------------|------------------------------|
|-------------------------------|------------------------------|
|--5----------------------------|-2----------------------------|
|--5----------------------------|-2----------------------------|
|--3--3-3--3-3-3-3--3-3--3--3-3-|-0--0-0--0-0-0--0--0-0--0-0-0-|


  F5
   E.    E.    E    E.    E.    E
|------------------15----14----------|
|-------15----14---------------15----|
|------------------------------------|
|-11---------------------------------|
|------------------------------------|
|------------------------------------|
|
|     PM--------------------------|
|  E  S  S  E  S S  E  S  S  E  S S
|------------------------------------|
|------------------------------------|
|------------------------------------|
|--3---------------------------------|
|--3---------------------------------|
|--1--1--1--1--1-1--1--1--1--1--1-1--|


  F#5
   S  S  S  S  S  S  S  S  S  S  S  S  S  S  S  S
|-17p15p12----------------------------------------|
|----------17p15p12----12-17p15p12----------------|
|-------------------14-------------15p14p12-------|
|-------------------------------------------15p14-|
|-------------------------------------------------|
|-------------------------------------------------|
|
|        PM------------------------------------|
|  E     S  S  E     S  S  E     S  S  E     S  S
|-------------------------------------------------|
|-------------------------------------------------|
|-------------------------------------------------|
|--4----------------------------------------------|
|--4----------------------------------------------|
|--2-----2--2--2-----2--2--2-----2--2--2-----2--2-|


                                                    4th Verse
                                                  Slight accel Q=174
  G5                                                 E5
   S  S  S  S  S  S  S  S  S  S  S  S  S  S  S  S     W
|-------------------------------------------------||---------------------------|
|-17p15p12----------------------------------------||---------------------------|
|----------15p14p12-------15p14p12----------------||---------------------------|
|-------------------15p14----------15p14p12-------||---------------------------|
|-------------------------------------------15p14-||-\7------------------------|
|-------------------------------------------------||---------------------------|
|
|        PM------------------------------------|        PM------------------|
|  E     S  S  E     S  S  E     S  S  E     S  S     E S S E S S E S S E S S
|-------------------------------------------------||---------------------------|
|-------------------------------------------------||---------------------------|
|-------------------------------------------------||---------------------------|
|--5----------------------------------------------||--2------------------------|
|--5----------------------------------------------||--2------------------------|
|--3-----3--3--3-----3--3--3-----3--3--3-----3--3-||--0-0-0-0-0-0-0-0-0-0-0-0--|


  F5                          F#5
   ~~~~~~~~~~~~~~~~~~~~~~~~~~~~~~~~~~~~~~~~~~~~~~~~~~~~~~
  +W                           W
|---------------------------|---------------------------|
|---------------------------|---------------------------|
|---------------------------|-(9)-----------------------|
|---------------------------|---------------------------|
|-(7)-----------------------|-(7)-----------------------|
|---------------------------|---------------------------|
|
|     PM------------------|       PM------------------|
|  E  S S E S S E S S E S S    E  S S E S S E S S E S S
|---------------------------|---------------------------|
|---------------------------|---------------------------|
|---------------------------|---------------------------|
|--3------------------------|--4------------------------|
|--3------------------------|--4------------------------|
|--1--1-1-1-1-1-1-1-1-1-1-1-|--2--2-2-2-2-2-2-2-2-2-2-2-|


  G5
 ~~~~~
  +W
|----------------------------|
|----------------------------|
|-(9)------------------------|
|----------------------------|
|-(7)------------------------|
|----------------------------|
|
|     PM------------------|
|  E  S S E S S E S S E S S
|----------------------------|
|----------------------------|
|----------------------------|
|--5-------------------------|
|--5-------------------------|
|--3--3-3-3-3-3-3-3-3-3-3-3--|


  E5                           F5
    ~~~~~~~~~~~~~~~~~~~~~~~~~~~~~~~~~~~~~~~~~~~~~~~~~~~~~~~~~~
    W                            H             +H
|-(16)-----------------------|-(16)-----------(16)-----------|
|----------------------------|-(17)-----------(17)-----------|
|----------------------------|-------------------------------|
|----------------------------|-------------------------------|
|--(7)-----------------------|--(7)------------(7)-----------|
|----------------------------|-------------------------------|
|
|      PM------------------|        PM---------------------|
|   E  S S E S S E S S E S S     E  S S E S S   E  S S E S S
|----------------------------|-------------------------------|
|----------------------------|-------------------------------|
|----------------------------|-------------------------------|
|---2------------------------|---3---------------------------|
|---2------------------------|---3---------------------------|
|---0--0-0-0-0-0-0-0-0-0-0-0-|---1--1-1-1-1-1---1--1-1-1-1-1-|


  F#5                          G5
    >
 ~~~~~~
   +W                           +W
|-(16)-----------------------|-(16)--------------------------||
|-(17)-----------------------|-(17)--------------------------||
|----------------------------|-------------------------------||
|----------------------------|-------------------------------||
|--(7)-----------------------|--(7)--------------------------||
|----------------------------|-------------------------------||
|
|      PM------------------|        PM------------------|
|   E  S S E S S E S S E S S     E  S S E S S E S S E S S
|----------------------------|-------------------------------||
|----------------------------|-------------------------------||
|----------------------------|-------------------------------||
|---4------------------------|---5---------------------------||
|---4------------------------|---5---------------------------||
|---2--2-2-2-2-2-2-2-2-2-2-2-|---3--3-3-3-3-3-3-3-3-3-3-3----||


   Chorus III
    Q=171
    E5 G5                     D5       E5         E5 G5
                                                 2/4
    Gtr I
       ~  PM----------------|    PM--|
    Q  Q  E S S E S S   E S S Q  E S S E +E    8x Q  Q
||--------------------|------------------------||-------||
||o-------------------|-----------------------o||-------||
||--------------------|-------7--------9-(9)\--||-------||
||--2--5--------------|-------7--------9-(9)\--||-2--5--||
||o-2--5--------------|-------5--------7-(7)\-o||-2--5--||
||--------0-0-0-0-0-0-|-0-0-0----0-0-0---------||-------||
|
|   Gtr II
|         PM----------------|    PM--|
|   Q  Q  E S S E S S   E S S Q  E S S E +E    8x Q  Q
||--------------------|------------------------||-------||
||o-------------------|-----------------------o||-------||
||--------------------|-------7--------9-(9)\--||-------||
||--------------------|-------7--------9-(9)\--||-------||
||o-2--5--------------|-------5--------7-(7)\-o||-2--5--||
||--0--3--0-0-0-0-0-0-|-0-0-0----0-0-0---------||-0--3--||


   Breakdown
    Q=172
          Dsus4       Ebsus4Dsus4
   4/4
    Gtrs I, II
    PM--------------|
    E S S E S S E S S S +S  E
||----------------------------|
||o---------------------------|
||----------------------------|
||--------5-----------6-(6)s5-|
||o-------5-----------6-(6)s5-|
||--0-0-0---0-0-0-0-0---------|
|
|   Gtr III
|   W
||----------------------------|
||o---------------------------|
||----------------------------|
||----------------------------|
||o-2-------------------------|
||--0-------------------------|


                    Eb5   E5        Dsus4       Ebsus4Dsus4
  PM--------------|           PM--------------|
  E S S E S S E S S S +S  E   E S S E S S E S S S +S  E
|---------------------------|----------------------------|
|---------------------------|----------------------------|
|---------------------------|----------------------------|
|-------5-----------8-(8)s9-|-------5-----------6-(6)s5--|
|-------5-----------6-(6)s7-|-------5-----------6-(6)s5--|
|-0-0-0---0-0-0-0-0---------|-0-0-0---0-0-0-0-0----------|
|
| E E   Q     H               W
|---------------------------|----------------------------|
|---------------------------|----------------------------|
|---------------------------|----------------------------|
|---------------------------|----------------------------|
|-2-------------------------|-2--------------------------|
|-0-------------------------|-0--------------------------|


                           Guitar Solo III
    E5    Eb5 BbB5D5                      Dsus4          Ebsus4Dsus4
                         Gtr III
  PM        PM--|                             ~~~~~~~~~~~~~~~~~~~~~~~
  E S +S  E E E E Q   4x     E      +Q       +H                 +E
|---------------------||-||------------------------------------------|
|--------------------o||-||-13b15==(13)-----(13)---------------(13)r-|
|-----------------7---||-||------------------------------------------|
|---9-(9)s8-------7---||-||------------------------------------------|
|---7-(7)s6---8-9-5--o||-||------------------------------------------|
|-0---------0-6-7-----||-||------------------------------------------|
|
|                    Gtrs I, II
|                            PM------------------------|
| E E     Q   H       4x     E       S  S E   S  S E S S S +S    E
|---------------------||-||------------------------------------------|
|--------------------o||-||------------------------------------------|
|---------------------||-||------------------------------------------|
|---------------------||-||---------------5--------------6-(6)s==5---|
|-2------------------o||-||---------------5--------------6-(6)s==5---|
|-0-------------------||-||--0-------0--0-----0--0-0-0-0-------------|


                 Dsus4                            Eb5    E5
   E      +E      +E       +E      +E       +E.      +S   S  S
|----------------------------------------------------------------|
|-15b17==(15)r---(15)b17==(15)r---(15)b17==(15)r====(15)-12------|
|-----------------------------------------------------------14---|
|----------------------------------------------------------------|
|----------------------------------------------------------------|
|----------------------------------------------------------------|
|
|  PM-------------------------------------------|
|  E       S   S   E        S   S   E        S  S S  +S   E
|----------------------------------------------------------------|
|----------------------------------------------------------------|
|----------------------------------------------------------------|
|------------------5------------------------------8--(8)s=9------|
|------------------5------------------------------6--(6)s=7------|
|--0-------0---0------------0---0---0--------0--0----------------|


            Dsus4                 Ebsus4Dsus4
  S  S  S S  S  S S  S  S S  S  S S  S   S S
|---------9----------------------------------|
|-9h10h12---12p10p9----10-9------------------|
|-------------------12------12p10p9s=7--10p9-|
|--------------------------------------------|
|--------------------------------------------|
|--------------------------------------------|
|
| PM---------------------------|
| E     S S  E    S  S  E    S  S S +S   E
|--------------------------------------------|
|--------------------------------------------|
|--------------------------------------------|
|------------5--------------------6-(6)s=5---|
|------------5--------------------6-(6)s=5---|
|-0-----0-0-------0--0--0----0--0------------|


       E5    Eb5       Bb5  B5D5
                            ~
  S  S S  S   S S S  S S S  Q   +E
|------------------------------------|
|------------------------------------|
|-7----------------------------------|
|---10p9p=7--10p9p7------------------|
|-------------------10-9-7\-5---(5)\-|
|------------------------------------|
|
| PM              PM--------|
| E    S +S   E   E    E    E Q
|------------------------------------|
|------------------------------------|
|-----------------------------7------|
|------9-(9)s=8---------------7------|
|------7-(7)s=6--------8----9-5------|
|-0---------------0----6----7--------|


                Dsus4           Ebsus4
           ~~~~~~~~~~~~~~~~~~~
   E      +H             +E.       S     +S  S
|----------------------------------------------|
|----------------------------------------------|
|-12b14==(12)-----------(12)r-----12b14r(12)-9-|
|----------------------------------------------|
|----------------------------------------------|
|----------------------------------------------|
|
|  PM-------------------------|
|  E       S  S E S S E   S   S S +S      E
|----------------------------------------------|
|----------------------------------------------|
|----------------------------------------------|
|---------------5---------------6-(6)s====5----|
|---------------5---------------6-(6)s====5----|
|--0-------0--0---0-0-0---0---0----------------|


         Dsus4             Eb5       E5               Dsus4               Ebsus4  Dsus4
          ~~~
                 |----------6-----------|   |-------6-------|   |---------6---------|
   E E    Q      E E   E    E      E    E   E E   e   E E   E   E E   E   E     E   E
|-----------------------------------------|----------------------------------------------|
|----------------8-----8---10h====11p==10p|=8---------8----------------------------------|
|----9---[9]-------9----------------------|---9---9-----9p==7-----9p==8p==7--------------|
|-12--------------------------------------|---------------------9---------------9p==7----|
|-----------------------------------------|----------------------------------------------|
|-----------------------------------------|----------------------------------------------|
|
|  PM--------------------|                  PM--------------------------|
|  E S S  E  S S E   S   S  S +S     E      E   S   S E   S   S E   S   S S +S    E
|-----------------------------------------|----------------------------------------------|
|-----------------------------------------|----------------------------------------------|
|-----------------------------------------|----------------------------------------------|
|---------5-----------------8-(8)s===9----|-----------5-------------------6-(6)s==5------|
|---------5-----------------6-(6)s===7----|-----------5-------------------6-(6)s==5------|
|--0-0-0-----0-0-0---0---0----------------|-0---0---0-----0---0-0---0---0----------------|


       E5       Eb5      BbB5   D5              Dsus4           Ebsus4 Dsus4
                                         PM         PM           ~~~~~~~~~
   |---------6---------|
   E E    E     E  E   E E E    +Q       E  E    E  e    E  E    Q
|-------------------------------------|----------------------------------|
|-------------------------------------|----14p==12------14---------------|
|-------------------------------------|----14p==12------14p12------------|
|-------------------------------------|-14---------14-----------14-------|
|-10-7----------7------7-7-7b9==(7)r--|----------------------------------|
|--------10-------10------------------|----------------------------------|
|
|  PM                PM----|             PM-------------------|
|  E   S    +S  E    E   E E     Q       E  S S  E  S S  E  S S  S +S  E
|-------------------------------------|----------------------------------|
|-------------------------------------|----------------------------------|
|--------------------------------7----|----------------------------------|
|------9----(9)s8----------------7----|----------5---------------6-(6)s5-|
|------7----(7)s6--------8-9-----5----|----------5---------------6-(6)s5-|
|--0-----------------0---6-7----------|--0--0-0-----0-0--0--0-0----------|


                                     Eb5       E5
 ~~~~~~
   +E   S  S  S  S  S  S  E  E        +Q
|------------------------12-----------------------|
|---------------------12----15b17====(15)r--------|
|------12----12h13h14-----------------------------|
|-(14)----14--------------------------------------|
|-------------------------------------------------|
|-------------------------------------------------|
|
|   PM-----------------------------|
|   E   S  S  E     S  S  E  S     S   S   +S  E
|-------------------------------------------------|
|-------------------------------------------------|
|-------------------------------------------------|
|-------------5------------------------8---(8)s9--|
|-------------5------------------------6---(6)s7--|
|---0---0--0--------0--0--0--0-----0--------------|


              Dsus4                   Ebsus4     Dsus4
   S  S  S  S  S  S  S  S  S  S  S  S  Q
|-12p10-12p10----10h12h14p12p10--------------------|
|-------------12----------------14p12--------------|
|-------------------------------------15tr14-------|
|--------------------------------------------------|
|--------------------------------------------------|
|--------------------------------------------------|
|
|  PM------------------------------|
|  E     S  S  E     S  S  E     S  S  S     +S  E
|--------------------------------------------------|
|--------------------------------------------------|
|--------------------------------------------------|
|--------------5-----------------------6-----(6)s5-|
|--------------5-----------------------6-----(6)s5-|
|--0-----0--0--------0--0--0-----0--0--------------|


        E5       Eb5        Bb5 B5D5
                              ~~~
   |----------6-----------|
   E  E    E      E  E    E   H
|------------------------------------|
|------------------------------------|
|-14p12----------14-13---------------|
|---------14-------------14-\12------|
|------------------------------------|
|------------------------------------|
|
|  PM                  PM-------|
|  E    S    +S   E    E      E E Q
|------------------------------------|
|------------------------------------|
|---------------------------------7--|
|-------9----(9)s=8---------------7--|
|-------7----(7)s=6-----------8-9-5--|
|--0-------------------0------6-7----|


                 Dsus4            Ebsus4 Dsus4
   E      +Q        E    S S  S S  E      E
|-------------------------------------------|
|------------------12---10p9h10p9h10-----12-|
|-12b14==(12)r------------------------------|
|-------------------------------------------|
|-------------------------------------------|
|-------------------------------------------|
|
|  PM---------------------------|
|  E       S   S E  S S  E    S S  S +S   E
|-------------------------------------------|
|-------------------------------------------|
|-------------------------------------------|
|----------------5-----------------6-(6)s=5-|
|----------------5-----------------6-(6)s=5-|
|--0-------0---0----0-0--0----0-0-----------|


                  Dsus4                           Eb5        E5
                T               T               T                T
   T T  T T  S  S  T T  T T  S  S  T T  T T  S  S  T T  T  T  S  S
|-------------------------------------------------------------------|
|-10p9h10p9h10-12-10p9h10p9h10-12-10p9h10p9h10-12-10p9h10p=9h10-12--|
|-------------------------------------------------------------------|
|-------------------------------------------------------------------|
|-------------------------------------------------------------------|
|-------------------------------------------------------------------|
|
|  PM------------------------------------------|
|  E         S  S  E         S  S  E         S  S  S   +S     E
|-------------------------------------------------------------------|
|-------------------------------------------------------------------|
|-------------------------------------------------------------------|
|------------------5-------------------------------8---(8)s===9-----|
|------------------5-------------------------------6---(6)s===7-----|
|--0---------0--0------------0--0--0---------0--0-------------------|


                  Dsus4                         Ebsus4Dsus4
                T
                   |---3---|
   T T  T T  S  S  E  E    E    +E       +Q            S  S
|--------------------12---15---(15)b17==(15)r---------14-12-|
|-10p9h10p9h10-12s15----------------------------------------|
|-----------------------------------------------------------|
|-----------------------------------------------------------|
|-----------------------------------------------------------|
|-----------------------------------------------------------|
|
|  PM-----------------------------------------|
|  E         S  S  E    S    S   E        S   S S +S   E
|-----------------------------------------------------------|
|-----------------------------------------------------------|
|-----------------------------------------------------------|
|------------------5----------------------------6-(6)s=5----|
|------------------5----------------------------6-(6)s=5----|
|--0---------0--0-------0----0---0--------0---0-------------|


                                                     Out-Chorus
                                                   Q=170
        E5     Eb5         Bb5   B5    D5                             Dsus4           Ebsus4Dsus4
   S  S  S  S   S  S  S  S  S  S  S  S  S  S  S  S     E        +E     +E   E   H
|----14p12-----------------------------------------||-------------------------------------------|
|-15-------15p=14p12-------------------------------||-------------------------------------------|
|--------------------15p14p12----------------------||-------------------------------------------|
|-----------------------------15p14p12-------------||-------------------------------------------|
|--------------------------------------15p14p12----||-------------------------------------------|
|-----------------------------------------------16-||-15b15.5==(15)r==(15)\---------------------|
|
|  PM                 PM---------|                     PM---------------------------|
|  E     S +S   E     E     E     E     Q              E         S  S   E   S S E S S S +S  E
|--------------------------------------------------||-------------------------------------------|
|--------------------------------------------------||-------------------------------------------|
|---------------------------------------7----------||-------------------------------------------|
|--------9-(9)s=8-----------------------7----------||-------------------5-------------6-(6)s5---|
|--------7-(7)s=6-----------8-----9-----5----------||-------------------5-------------6-(6)s5---|
|--0------------------0-----6-----7----------------||--0---------0--0-------0-0-0-0-0-----------|


        Dsus4       Eb5   E5        Dsus4       Ebsus4Dsus4 E5    Eb5 BbB5D5
  Gtrs I, II
  PM--------------|           PM--------------|           PM        PM--|
  E S S E S S E S S S +S  E   E S S E S S E S S S +S  E   E S +S  E E E E Q
|---------------------------|---------------------------|--------------------|
|---------------------------|---------------------------|--------------------|
|---------------------------|---------------------------|-----------------7--|
|-------5-----------8-(8)s9-|-------5-----------6-(6)s5-|---9-(9)s8-------7--|
|-------5-----------6-(6)s7-|-------5-----------6-(6)s5-|---7-(7)s6---8-9-5--|
|-0-0-0---0-0-0-0-0---------|-0-0-0---0-0-0-0-0---------|-0---------0-6-7----|


          Dsus4       Ebsus4Dsus4
    PM--------------|
    E S S E S S E S S S +S  E
||----------------------------|
||o---------------------------|
||----------------------------|
||--------5-----------6-(6)s5-|
||o-------5-----------6-(6)s5-|
||--0-0-0---0-0-0-0-0---------|


                    Eb5   E5        Dsus4       Ebsus4Dsus4
  PM--------------|           PM--------------|
  E S S E S S E S S S +S  E   E S S E S S E S S S +S  E
|---------------------------|---------------------------|
|---------------------------|---------------------------|
|---------------------------|---------------------------|
|-------5-----------8-(8)s9-|-------5-----------6-(6)s5-|
|-------5-----------6-(6)s7-|-------5-----------6-(6)s5-|
|-0-0-0---0-0-0-0-0---------|-0-0-0---0-0-0-0-0---------|


  1.,2.                 3.
    E5    Eb5 BbB5D5       E5    Eb5 BbB5          E5
  Gtr I                                                          Gtr V
  PM        PM--|        PM        PM--|
  E S +S  E E E E Q   3x E S +S  E E E E S +S  E   H      H      W
|---------------------||-------------------------|-------------|------*|
|--------------------o||-------------------------|-------------|------*|
|-----------------7---||-------------------------|-------------|-8----*|
|---9-(9)s8-------7---||---9-(9)s8---------------|-------------|------*|
|---7-(7)s6---8-9-5--o||---7-(7)s6---8-9-5-(5)-7-|-7\----------|------*|
|-0---------0-6-7-----||-0---------0-6-7---------|-------------|------*|
|
| Gtr II
| PM        PM--|        PM        PM--|
| E S +S  E E E E Q   3x E S +S  E E E E S +S  E   Q.   E H      W
|---------------------||-------------------------|-------------|------*|
|--------------------o||-------------------------|-------------|------*|
|-----------------7---||-------------------------|-------------|------*|
|---9-(9)s8-------7---||---9-(9)s8---------------|-2-----------|------*|
|---7-(7)s6---8-9-5--o||---7-(7)s6---8-9-5-(5)s7-|-2-----------|------*|
|-0---------0-6-7-----||-0---------0-6-7---------|-0-----------|------*|



Duration Legend
---------------
W - whole; H - half; Q - quarter; E - 8th; S - 16th; T - 32nd; X - 64th; a - acciaccatura
+ - note tied to previous; . - note dotted; .. - note double dotted
Uncapitalized letters represent notes that are staccato (1/2 duration)
Irregular groupings are notated above the duration line
Duration letters will always appear directly above the note/fret number it represents the
duration for.  Duration letters with no fret number below them represent rests.  Multi-
bar rests are notated in the form Wxn, where n is the number of bars to rest for.  Low
melody durations appear below the staff

Tablature Legend
----------------
 h   - hammer-on
 p   - pull-off
 b   - bend
 pb  - pre-bend
 r   - bend release (if no number after the r, then release immediately)
 /\  - slide into or out of (from/to "nowhere")
 s   - legato slide
 S   - shift slide
<n> - natural harmonic
[n]  - artificial harmonic
n(n) - tapped harmonic
 ~   - vibrato
 tr  - trill
 T   - tap
 TP  - trem. picking
 PM  - palm muting
\n/  - tremolo bar dip; n = amount to dip
 \n  - tremolo bar down
 n/  - tremolo bar up
/n\  - tremolo bar inverted dip
 =   - hold bend; also acts as connecting device for hammers/pulls
 <> - volume swell (louder/softer)
 x   - on rhythm slash represents muted slash
 o   - on rhythm slash represents single note slash

Misc Legend
-----------
 |  - bar
||  - double bar
||o - repeat start
o|| - repeat end
*|  - double bar (ending)
 :  - bar (freetime)
 $  - Segno
 &  - Coda
Tempo markers - <E/E./Q/Q./H/H.> = BPM(8/16=s8/s16), where s8 = swing 8ths, s16 = swing 16ths

comments
print report bad tab
3 comments total.
+3 reply
Megadeth Mani4c wrote on September 6 2009, 04:08 pm

this tab is perfect

-2 reply
sober420 wrote on August 26 2010, 03:03 pm

Poland's solo is tabbed out wrong. It's basically the right notes, but he didnt play it like that.

+1 reply
gunsnroses#1 wrote on December 22 2010, 12:47 pm

August 26 2010, 03:03 pm by sober420 |
Poland's solo is tabbed out wrong. It's basically the right notes, but he didnt play it like that.

so what? i usually switch up the way i play songs to better fit my style anyway

I want to post or [tab]
guest
You may want to rate the tab now too:
select rating
Please do not post tabs as comments. Select "correction" instead!