Oops, an error
Loading. Please wait.

Die Dead Enough Tab

ver1
ver1

Whole song

Interactive

More versions @911Tabs.com
20,852 views 21 this week
9 commentsread comments
1 2 3 4 5
excellent!
x 17
Autoscroll
+/-
esc
set tempo
stop
WARNING: You are trying to view
                                    content from Ultimate-Guitar.com
                                    in an unauthorized application,
                                    which is prohibited.

                                    Please use an official Ultimate
                                    Guitar Tabs application for iPhone,
                                    iPad or Android to access legitimate
                                    chords, guitar, bass, and drum tabs
                                    from Ultimate-Guitar.com database.

                                    Type "ultimate guitar tabs" in Apple
                                    App Store's or Android Market's
                                    search to find the application.
  DIE DEAD ENOUGH
                             As recorded by Megadeth
                   (From the 2004 Album THE SYSTEM HAS FAILED)

Words and Music by Dave Mustaine
Transcribed by livingzombie & abysslord (http://www.abysslord.com)

Gtr I (E A D G B E) - 'Dave Mustaine Rhythm'
Gtr II (E A D G B E) - 'Dave Mustaine Solo'
Gtr III (E A D G B E) - 'Chris Poland'
Gtr IV (E A D G B E) - 'Pick Scrape'

 Intro
  Q=137
  Bm      Bm6       Bm7     Bm6       Bm      Bm6       G       Em
 4/4
  Gtr I
  E E E E E E E E   E E E E E E E E   E E E E E E E E   E E E E E E E E
|-2-----2-3-----3-|-4-----4-3-----3-|-2-----2-3-------|---------0-------|
|---3-------3-----|---3-------3-----|---3-------3---3-|-----3-----3-----|
|-----4-------4---|-----4-------4---|-----4-------4---|---4---4-----4---|
|-----------------|-----------------|-----------------|-5-------------5-|
|-----------------|-----------------|-----------------|-----------------|
|-----------------|-----------------|-----------------|-----------------|


  Bm       Bm6       Bm7       Bm6
  Gtr I
   E E E E E E E E    E  E E E E E  E E
|--2-----2-3-----3-|--4------4-3------3-|
|----3-------3-----|-----3-------3------|
|------4-------4---|-------4--------4---|
|------------------|--------------------|
|------------------|--------------------|
|------------------|--------------------|
|
| Gtr III
|  ~~~~~~~~~~~~~~~~~~~~~~
|  W                  H.            E E
|------------------|--------------------|
|------------------|--------------------|
|-16---------------|-16------------18---|
|------------------|--------------------|
|------------------|--------------------|
|------------------|--------------------|


  Bm         Bm6          G          Em
   E  E  E E E E E   E      E  E E E   E   E E  E
|--2-------2-3----------|--------------0-----------|
|-----3--------3-----3--|--------3---------3-------|
|--------4-------4------|------4---4---------4-----|
|-----------------------|---5-------------------5--|
|-----------------------|--------------------------|
|-----------------------|--------------------------|
|
|     ~~~~~~~~~~~~~~~~~~~~~~~~~~~~~~~~~~~~
|  E  H.            +E     +H         +E   Q    E
|-----------------------|--------------------------|
|-----------------------|-----------------15---17--|
|-19-18------------(18)-|-(18)-------(18)----------|
|-----------------------|--------------------------|
|-----------------------|--------------------------|
|-----------------------|--------------------------|


  Bm       Bm6            Bm7      Bm6            Bm       Bm6
   E E E E   E   E E  E    E E E E   E   E E  E    E E E E E E E E
|--2-----2---3--------3-|--4-----4---3--------3-|--2-----2-3-------|
|----3-----------3------|----3-----------3------|----3-------3---3-|
|------4-----------4----|------4-----------4----|------4-------4---|
|-----------------------|-----------------------|------------------|
|-----------------------|-----------------------|------------------|
|-----------------------|-----------------------|------------------|
|
|  ~~~~~~~~~~~~~           ~~~~~~~~~~~~~           ~~~~~~~~~~~~~~~~~
|  H        +E   Q    E    H        +E   Q    E    W
|-----------------------|-----------------------|------------------|
|-15-------(15)-17---19-|-17-------(17)-19---20-|-19---------------|
|-----------------------|-----------------------|------------------|
|-----------------------|-----------------------|------------------|
|-----------------------|-----------------------|------------------|
|-----------------------|-----------------------|------------------|


  G             Em              Bm             Bm6
    E  E E E     E  E E  E       E E   E     E   E  E E E
|----------------0------------|--2-----------2---3------3-|
|--------3----------3---------|----3----------------3-----|
|------4---4----------4-------|--------4--------------4---|
|---5--------------------5----|---------------------------|
|-----------------------------|---------------------------|
|-----------------------------|---------------------------|
|
|                                      \1.5________________
|~~~~~~                          ~~~~~~~~~~~~~~~~~~~
|  +H         a  Q.      S  S    Q    +Q        +H
|-----------------------------|---------------------------|
|-(19)-------19h20------19-17-|---------------------------|
|-----------------------------|-19---(19)------(19)-------|
|-----------------------------|---------------------------|
|-----------------------------|---------------------------|
|-----------------------------|---------------------------|


  Bm7          Bm6       Bm              Bm6
                                                     PM---
    E    E E E E E E E   E   E   E   E   E   E   E   E
|---4--------4-3-----3-|-2-----------2---3---------------|
|--------3-------3-----|-----3---------------3-----------|
|----------4-------4---|---------4---------------4-------|
|----------------------|---------------------------------|
|----------------------|---------------------------------|
|----------------------|-----------------------------2---|
|
|                      Gtr IV                            G
|   \2.5
|   ~~~~~~
|  +H          H         S S S S S S S S S S S S S S S S
|----------------------|---------------------------------|
|----------------------|---------------------------------|
|-(19)-----------------|---------------------------------|
|----------------------|---------------------------------|
|----------------------|---------------------------------|
|----------------------|-x-x-x-x-x-x-x-x-x-x-x-x-x-x-x-x-|


  G                                   Em                                    F#5
 --------------------------------------------------------------------------------------------|
   E        E        E        E        E        E        E        E         E    E     E     E     E      E  E E
|-------------------------------------------------------------------------|-----------------------------------------|
|-------------------------------------------------------------------------|-----------------------------------------|
|-------------------------------------------------------------------------|-----------------------------------------|
|--------------------0-----------------2--------0-------------------------|-----------------------------------------|
|-----------2-----------------2--------------------------2----------------|------------------------0------1--2------|
|--3--------------------------------------------------------------3-------|-2----2-----2-----2-----------------3----|
|
|tr III
|  |------6-------|  |------6-------|  |------6-------|  |------6-------|        |----6----| |----6----|
|  S  S  S  S  S  S  S  S  S  S  S  S  S  S  S  S  S  S  S  S  S  S  S  S   E    S S S S S S S S S S S S  Q.
|-------------------------------------------------------------------------|-----------------------------------------|
|-------------------------------------------------------------------------|-----------------------------------------|
|-------------------------------------------------------------------------|-9b10-9p7-9p7---7------------------------|
|-15-12----12-15-12----12-15-12----12-15-12----12-15-12----12-15-12----12-|--------------9---9-7-9-7---7------------|
|-------15----------15----------15----------15----------15----------15----|--------------------------9--------------|
|-------------------------------------------------------------------------|------------------------------12\--------|


   Verse
    $
    E5      N.C.      E5      N.C.      E5      N.C.      E5      N.C.
    Gtr I
    PM----|           PM----|           PM----|           PM----|
    E E E E E E E E   E E E E E E E E   E E E E E E E E   E E E E E E E E
||------------------|-----------------|-----------------|-------------------||
||o-----------------|-----------------|-----------------|------------------o||
||------------------|-----------------|-----------------|-------------------||
||------------------|-----------------|-----------------|-------------------||
||o---------0-1-2---|---------0-1-2---|---------0-1-2---|---------0-1-2----o||
||--0-0-0-0-------3-|-0-0-0-0-------3-|-0-0-0-0-------3-|-0-0-0-0-------3---||


   Chorus
    B5                   A5                     G5
     E E   E   S E.  E E  E    +E  E E S E. E E  E
||--------------------------|----------------------|
||o-------------------------|----------------------|
||--------------------------|----------------------|
||-----4-------4h5---4------|------4---4h5--4------|
||o--2-----2-----------2--0-|--(0)---0--------0----|
||--------------------------|--------------------3-|
|
|   Gtr III
|                                      ~~
|    Q    +E   Q     Q    E    +Q    E H         E
||--------------------------|----------------------|
||o-------------------------|----------------------|
||--11---(11)-12----11---11-|-(11)---9-9--------12-|
||--------------------------|----------------------|
||o-------------------------|----------------------|
||--------------------------|----------------------|


                      E5                         B5
   +E  E E  S E.  E E  E   +E  E  E  S E.    E E  E
|------------------------|---------------------------|
|------------------------|---------------------------|
|------------------------|---------------------------|
|------4----4h5---4------|-----4-----4h5-----4-------|
|------------------------|------------------------2--|
|--(3)---3----------3--0-|-(0)----0------------0-----|
|
|                                         ~~
|  +Q.      Q     Q    E    Q     E  E    Q.      E
|------------------------|---------------------------|
|------------------------|---------------------------|
|-(12)-----14----12---14-|-12----12-11----9------11--|
|------------------------|---------------------------|
|------------------------|---------------------------|
|------------------------|---------------------------|


                          1.
                      A5                     G5
   +E  E E  S E.  E E  E    +E  E E S E. E E  E
|------------------------|----------------------|
|------------------------|----------------------|
|------------------------|----------------------|
|------4----4h5---4------|------4---4h5--4------|
|--(2)---2----------2--0-|--(0)---0--------0----|
|------------------------|--------------------3-|
|
|                                   ~~
|  +Q.      Q     Q    E    +Q    E H         E
|------------------------|----------------------|
|------------------------|----------------------|
|-(11)-----12----11---11-|-(11)---9-9--------12-|
|------------------------|----------------------|
|------------------------|----------------------|
|------------------------|----------------------|


                      E5
                               PM------------|
   +E  E E  S E.  E E  E   +E  E  E  E E E E E
|------------------------|-----------------------||
|------------------------|----------------------o||
|------------------------|-----------------------||
|------4----4h5---4------|-----------------------||
|----------------------2-|-(2)------------------o||
|--(3)---3----------3--0-|-(0)-0--0--0-0-0-0-0---||
|
|                                      ~
|  +Q.      Q     Q    E    Q     E  E H
|------------------------|-----------------------||
|------------------------|----------------------o||
|-(12)-----14----12---14-|-12----12-11-9---------||
|------------------------|-----------------------||
|------------------------|----------------------o||
|------------------------|-----------------------||


  2.
                                   To Coda
                  G5
                                    PM|
   E E E S E. E E  E    +E  E E E E E E E
|---------------------|-------------------|
|---------------------|-------------------|
|---------------------|-------------------|
|----4---4h5--4-------|-------------------|
|--0---0--------0-----|-------------------|
|------------------3--|-(3)-3-3-3-3-0-2-3-|
|
|        ~~~~~~~~~~~~~~~~~~~~~~~~~~~~~~~~~~
|  Q   E H        +E    +W
|---------------------|-------------------|
|---------------------|-------------------|
|-11---9-9--------(9)-|-(9)---------------|
|---------------------|-------------------|
|---------------------|-------------------|
|---------------------|-------------------|


                          D.S. al Coda
                                N.C.
      PM----------------------|
  +E  E E E E E E E    E  E E E E E E E
|-------------------|--------------------|
|-------------------|--------------------|
|-------------------|--------------------|
|-------------------|--------------------|
|-------------------|-----------0-1-2----|
|-(3)-3-3-3-3-3-3-3-|--3--3-3-3-------3--|
|
|~~~~~~~~~~~~~~~~~~~~~~~~~
| +W                  +W
|-------------------|--------------------|
|-------------------|--------------------|
|-(9)---------------|-(9)----------------|
|-------------------|--------------------|
|-------------------|--------------------|
|-------------------|--------------------|


  &
      PM----------------------------|
  +E  E E E E E E E   E E E E E E E E
|-------------------|-----------------|
|-------------------|-----------------|
|-------------------|-----------------|
|-------------------|-----------------|
|-------------------|-----------------|
|-(3)-3-3-3-3-3-3-3-|-3-3-3-3-3-3-3-3-|


   Bridge
    E5             B5                   D5
    E E E S E. E E E   +E  E E S E. E E E
||-------------------|--------------------|
||o------------------|--------------------|
||----4---4h5--4-----|--------------------|
||--2---2--------2---|-----4---4h5--4---0-|
||o----------------2-|-(2)---2--------2---|
||-------------------|--------------------|


                      1.,2.
                   A5
                             PM  PM  PM
  +E  E E S E. E E E   +E  E E E E E E E  3x
|--------------------|--------------------||
|--------------------|-------------------o||
|-----2---2h4--2-----|--------------------||
|-(0)---0--------0---|-----2---4---5---2--||
|------------------0-|-(0)---0---0---0---o||
|--------------------|--------------------||


 3.
                C5                   G5
      PM  PM  PM
  E E E E E E E E   +E  E E S E. E E E
|-----------------|--------------------|
|-----------------|--------------------|
|-----------------|--------------------|
|---2---4---5-----|-----5---5h7--5-----|
|-0---0---0---0-3-|-(3)---3--------3---|
|-----------------|------------------3-|


                   B5        C5B5   C5  B5C5B5C5N.C.
  +E  E E S E. E E E   +Q.   E Q.   E   E E E E E E E E
|--------------------|----------------|-----------------|
|--------------------|----------------|-----------------|
|--------------------|----------------|-----------------|
|------------------4-|-(4)---5-4----5-|-4-5-4-5---------|
|-----5---5h7--5---2-|-(2)---3-2----3-|-2-3-2-3-0-1-2---|
|-(3)---3--------3---|----------------|---------------3-|


   Verse
    E5   N.C.      E5   N.C.        E5   N.C.      E5   N.C.
       PM             PM      PM|      PM             PM
    Q  E E Q  Q    Q  E E E E E E   Q  E E Q  Q    Q  E E E E E E
||---------------|----------------|--------------|------------------||
||o--------------|----------------|--------------|-----------------o||
||---------------|----------------|--------------|------------------||
||---------------|----------------|--------------|------------------||
||o-2---------5--|-2--------5-----|-2---------5--|-2------0-1-2----o||
||--0--0-3-2-----|-0--0-3-2---3-2-|-0--0-3-2-----|-0--0-3-------3---||


 Solo (Poland)
  N.C.
  Gtr I
       ~
   S S Q  E Q  E E    +E  E E  E        E        E        E        E
|------------------|-------------------------------------------------------|
|------------------|-------------------------------------------------------|
|------------------|-------------------------------------------------------|
|--2p0-2-----------|--------------------------------------4--------5-------|
|---------2-3--2-0-|--(0)------------------------3-------------------------|
|------------------|------3-2--0--------2----------------------------------|
|
| Gtr III
|  ~~~~~~~~~~~~~~~~~~~~~~~
|                              |------6-------|  |------6-------|  |--3--|
|  W                  +Q.      S  S  S  S  S  S  S  S  S  S  S  S  S  S  S
|------------------|-------------------------------------------------------|
|------------------|-------------------------------------------------------|
|------------------|-------------------------------------------------------|
|------------------|----------------------------------14p12-14h16p14p12-14h|
|-14---------------|-(14)-----14p12-14h17p14p12-14h17----------------------|
|------------------|-------------------------------------------------------|


              ~~~
   S    S     Q                 E     Q          E   E
|---------------------------------------------------------|
|---------------------------------------------------------|
|---------------------------------------------------------|
|--2p===0-----2-------------------------------------------|
|-------------------------------2-----3----------2---0----|
|---------------------------------------------------------|
|
|  |-------6--------|  |-----6-----|
|  S  S    S  S  S  S  S  S  S  S  E  E      +Q     +E
|---------------------------------------------------------|
|------------------------12-15-12-15-17b20==(17)r==(17)---|
|------------12h14-12h14----------------------------------|
|-16-14---16----------------------------------------------|
|---------------------------------------------------------|
|---------------------------------------------------------|


  +E       E            E       E        E        E        E       E
|-------------------------------------------------------------------------|
|-------------------------------------------------------------------------|
|-------------------------------------------------------------------------|
|----------------------------------------------------------4-------5------|
|-(0)---------------------------------------------3-----------------------|
|----------3------------2-------0--------2--------------------------------|
|
|                                        \1____________________________|
|  |-----3-----|        |-----3-----|    |-----3------|    |-----3-----|
|  E   +E     +E       +E   +E     +E   +E    +E     +E   +E   +E     +E
|-------------------------------------------------------------------------|
|-19--(19)---(19)b20==(19)-(19)r==(19)-(19)--(19)---(19)-(19)-(19)---(19)-|
|-------------------------------------------------------------------------|
|-------------------------------------------------------------------------|
|-------------------------------------------------------------------------|
|-------------------------------------------------------------------------|


          ~
   S S    Q             E   Q            E         E     +E    E   E    E          E          E       E  E
|-----------------------------------------------------|---------------------------------------------------------|
|-----------------------------------------------------|---------------------------------------------------------|
|-----------------------------------------------------|---------------------------------------------------------|
|--2p0----2-------------------------------------------|-----------------------------------------------4--5------|
|-----------------------2---3------------2---------0--|--(0)----------------------------------3-----------------|
|-----------------------------------------------------|--------3---2----0----------2----------------------------|
|
|  |----3----|                                                     |---3---|
|  E    E    E  E      +E   E      +E   +E        +E     +E   +E   E  E    E      +S    E        +E.     S  S
|------15---17-17b19==(17)-17b18==(17)r(17)pb19==(17)-|-(17)r(17)-15-17---15b17==(15)r-17b19====(17)r-----------|
|-17--------------------------------------------------|-------------------------------------------------17------|
|-----------------------------------------------------|----------------------------------------------------16---|
|-----------------------------------------------------|---------------------------------------------------------|
|-----------------------------------------------------|---------------------------------------------------------|
|-----------------------------------------------------|---------------------------------------------------------|


         ~~
   S  S  Q    E      Q                 E        E
|-------------------------------------------------------|
|-------------------------------------------------------|
|-------------------------------------------------------|
|--2p=0--2----------------------------------------------|
|-------------2------3-----------------2--------0-------|
|-------------------------------------------------------|
|
|        ~~~~~~~~
|                    |------6-------|  |------6-------|
|  S  S  Q   +S   S  S  S  S  S  S  S  S  S  S  S  S  S
|----------------17-15p12-15p12----12-15-16-17-15-12-15-|
|-15-17-17--(17)----------------15----------------------|
|-------------------------------------------------------|
|-------------------------------------------------------|
|-------------------------------------------------------|
|-------------------------------------------------------|


  +E         E        E        E        E        E        E        E
|---------------------------------------------------------------------------|
|---------------------------------------------------------------------------|
|---------------------------------------------------------------------------|
|---------------------------------------------------------4--------5--------|
|-(0)--------------------------------------------3--------------------------|
|------------3--------2--------0--------2-----------------------------------|
|
|  |-------6-------|  |------6-------|  |------6-------|  |------6-------|
|  S   S  S  S  S  S  S  S  S  S  S  S  S  S  S  S  S  S  S  S  S  S  S  S
|-16--15-12-12-16-15-12-12-16-15-12-12-16-15-12-12-16-15-12-12-16-15-12-12--|
|---------------------------------------------------------------------------|
|---------------------------------------------------------------------------|
|---------------------------------------------------------------------------|
|---------------------------------------------------------------------------|
|---------------------------------------------------------------------------|


  E5
   PM------------------------------------------------------------------
   E        E        E        E        E        E        E       E
|---------------------------------------------------------------------|
|---------------------------------------------------------------------|
|---------------------------------------------------------------------|
|---------------------------------------------------------------------|
|--2--------2--------2--------2--------2--------2--------2-------2----|
|--0--------0--------0--------0--------0--------0--------0-------0----|
|
|  |------6-------|  |------6-------|  |------6-------|  |----6-----|
|  S  S  S  S  S  S  S  S  S  S  S  S  S  S  S  S  S  S  S  S  E    E
|-16-15-12-12-16-15-12-12-16-15-12-12-16-15-12-12-16-15-12-12---------|
|-------------------------------------------------------------20---21-|
|---------------------------------------------------------------------|
|---------------------------------------------------------------------|
|---------------------------------------------------------------------|
|---------------------------------------------------------------------|


 -----------------------------------------|
   E      E        E      E  E       E  E E
|-------------------------------------------|
|-------------------------------------------|
|-------------------------------------------|
|-------------------------------------------|
|--2------2--------2------2--2-------2--2-2-|
|--0------0--------0------0--0-------0--0-0-|
|
|            ~~~~~~~~~~~~~~~~~~~~~~~~~~~
|  S.  S.    E        +E.    E      +Q.
|-----19----21b22====(21)---21b22==(21)-----|
|-22----------------------------------------|
|-------------------------------------------|
|-------------------------------------------|
|-------------------------------------------|
|-------------------------------------------|


 Solo (Mustaine)
  E5                                          D
  Gtr I
   PM-----------------|
   |-------6--------|
   S     S S   S  S S E  E       Q             Q
|--------------------------------------------------------|
|--------------------------------------------------------|
|--------------------------------------------------------|
|--------------------------------------------------------|
|----------------------------------------------5---------|
|--0-----0-0---0--0-0-0--3-------2-------------2---------|
|
| Gtr II
|  E          +Q         E      +E   +S   +S   E     +E
|-22b24======(22)-------22b24==(22)-(22)r(22)-22b24r(22)-|
|--------------------------------------------------------|
|--------------------------------------------------------|
|--------------------------------------------------------|
|--------------------------------------------------------|
|--------------------------------------------------------|


  E5                                    D
   PM--------------|                       PM---|
   |------6------|
   S  S S S S    S  E  E       E        E  E     E
|-----------------------------------------------------|
|-----------------------------------------------------|
|-----------------------------------------------------|
|-----------------------------------------------------|
|---------------------------------------5-------------|
|--0--0-0-0-0----0--0--3-------2--------2--3-----2----|
|
|                         |---3---|
|  E.          S    E.    S  S    S  E.    S  S  S  S
|-19----------17s==16----18p17p==15-------17p15-------|
|-----------------------------------17----------17p15-|
|-----------------------------------------------------|
|-----------------------------------------------------|
|-----------------------------------------------------|
|-----------------------------------------------------|


  E5                                   D
   PM-------------------|
   |--------6---------|
   S S       S   S  S S   E  E   Q      Q
|------------------------------------------|
|------------------------------------------|
|------------------------------------------|
|------------------------------------------|
|---------------------------------------5--|
|--0-0-------0---0--0-0---0--3---2------2--|
|
|                ~~~~~~~~~~~~~~~~~~~
|  S    S       +E       +Q     +E   E  Q
|-15---------------------------------------|
|------17b19r==(17)-----(17)---(17)-17s12--|
|------------------------------------------|
|------------------------------------------|
|------------------------------------------|
|------------------------------------------|


  E5                                  N.C.
   PM---------------|
   |------6-------|
   S  S  S  S  S  S  E        E        E        E        E        E
|----------------------------------------------------------------------------|
|----------------------------------------------------------------------------|
|----------------------------------------------------------------------------|
|----------------------------------------------------------------------------|
|--------------------------------------0--------1--------2-------------------|
|--0--0--0--0--0--0--0--------3-----------------------------------3----------|
|
|  |------6-------|  |------6-------|  |------6-------|  |-----6-----|
|  S  S  S  S  S  S  S  S  S  S  S  S  S  S  S  S  S  S  S  S  S  S  E
|----------------------------------------------------------------------------|
|-15p12h15p12h15p12h15p12-15p12-15p12-12h15p12----12-12-15-12----12----------|
|----------------------------------------------15-------------15----14b16====|
|----------------------------------------------------------------------------|
|----------------------------------------------------------------------------|
|----------------------------------------------------------------------------|


  E5                               D
    PM--------------|
    |------6------|
    S  S S   S  S S E  E       Q    Q
|-------------------------------------------|
|-------------------------------------------|
|-------------------------------------------|
|-------------------------------------------|
|-----------------------------------5-------|
|---0--0-0---0--0-0-0--3-------2----2-------|
|
|  +E       +Q         E      +Q    E     E
|----------------------------------------12-|
|-------------------------------------------|
|-(14)-----(14)-------14b16==(14)--14b16----|
|-------------------------------------------|
|-------------------------------------------|
|-------------------------------------------|


  E5                                    D
   PM-----------------|                        PM---|
   |-------6--------|
   S S    S  S    S S  E     E     E     E     E     E
|------------------------------------------------------------|
|------------------------------------------------------------|
|------------------------------------------------------------|
|------------------------------------------------------------|
|----------------------------------------5-------------------|
|--0-0----0--0----0-0--0-----3-----2-----2-----3-----2-------|
|
|  S    S    E         S  S  S  S  E     S  S  S  S  S     S
|------------------------12----------------12----------------|
|-15p==12-------------12----15p12-------12----15p12-------12-|
|-----------14b16-----------------14b16-------------14b16----|
|------------------------------------------------------------|
|------------------------------------------------------------|
|------------------------------------------------------------|


  E5                                                    D
   PM---------------|
   |------6-------|
   S  S  S  S  S  S  E        E        Q                 Q
|-------------------------------------------------------------------------|
|-------------------------------------------------------------------------|
|-------------------------------------------------------------------------|
|-------------------------------------------------------------------------|
|--------------------------------------------------------5----------------|
|--0--0--0--0--0--0--0--------3--------2-----------------2----------------|
|
|  |------6-------|  |------6-------|  |------6-------|  |------6-------|
|  S  S  S  S  S  S  S  S  S  S  S  S  S  S  S  S  S  S  S  S  S  S  S  S
|-------------------------------------------------------------------------|
|-12h15p12----12h15-13-16p13----13h16-14h17p14----14h17-15h18p15----15h18-|
|----------14----------------15----------------16----------------17-------|
|-------------------------------------------------------------------------|
|-------------------------------------------------------------------------|
|-------------------------------------------------------------------------|


  E5                                  N.C.
   PM---------------|
   |------6-------|
   S  S  S  S  S  S  E        E        E        E        E        E
|--------------------------------------------------------------------------|
|--------------------------------------------------------------------------|
|--------------------------------------------------------------------------|
|--------------------------------------------------------------------------|
|--------------------------------------0--------1--------2-----------------|
|--0--0--0--0--0--0--0--------3-----------------------------------3--------|
|
|  |------6-------|  |------6-------|  |------6-------|  |------6-------|
|  S  S  S  S  S  S  S  S  S  S  S  S  S  S  S  S  S  S  S  S  S  S  S  S
|--------------------------------------------------------------------------|
|-16h19p16----16h19-17h20p17----17h20-18h21p18----18h21-19h22p19----19h22--|
|----------18----------------19----------------20----------------21--------|
|--------------------------------------------------------------------------|
|--------------------------------------------------------------------------|
|--------------------------------------------------------------------------|


 Solo (Poland)
  N.C.
  Gtr I
             ~~~~~
   S     S   Q      E    Q     E E   +E      E      E  E  E     E       E   E
|----------------------------------|------------------------------------------|
|----------------------------------|------------------------------------------|
|----------------------------------|------------------------------------------|
|--2p====0---2---------------------|------------------------------------4---5-|
|-------------------2----3-----2-0-|-(0)------------------------3-------------|
|----------------------------------|---------3------2--0--2-------------------|
|
| Gtr II
|  TP             TP   TP   TP TP     TP            TP    TP            TP
|                 |----3----|
|  E        +E    Q    Q    Q  Q      Q             Q     Q             Q
|-20b22====(20)r-22---20---19-17---|-20------------19----17------------15-----|
|----------------------------------|------------------------------------------|
|----------------------------------|------------------------------------------|
|----------------------------------|------------------------------------------|
|----------------------------------|------------------------------------------|
|----------------------------------|------------------------------------------|
|
| Gtr III
|  TP             TP   TP   TP TP
|                 |----3----|
|  E        +E    Q    Q    Q  Q      S   S  S  E.     E  E     E      +E   E
|-20b22====(20)r-22---20---19-17---|-19--17-----------17-------------------17-|
|----------------------------------|--------20-17--------20b21-21b23==(21)----|
|----------------------------------|------------------------------------------|
|----------------------------------|------------------------------------------|
|----------------------------------|------------------------------------------|
|----------------------------------|------------------------------------------|


             ~~~~
   S     S   Q    E     Q        E     E      +E    E  E    E  E  E  E    E
|-------------------------------------------|-----------------------------------|
|-------------------------------------------|-----------------------------------|
|-------------------------------------------|-----------------------------------|
|--2p====0---2------------------------------|------------------------4----5-----|
|-----------------2-----3--------2-----0----|-(0)-----------------3-------------|
|-------------------------------------------|-------3--2----0--2----------------|
|
|  >
|  ~~~~~~
|  W                                           W
|-------------------------------------------|-----------------------------------|
|-17----------------------------------------|-----------------------------------|
|-------------------------------------------|-----------------------------------|
|-------------------------------------------|-----------------------------------|
|-------------------------------------------|-----------------------------------|
|-------------------------------------------|-----------------------------------|
|
|                                                                    |---3---|
|  E        +Q    S  S  E.    S  E     E       Q       Q       E  E  E  E    E
|----------------12----------15-------------|-----------------------------------|
|-20b22====(20)-----12-15b17----15b17-15b17-|-15b17---13b15---15-13-12----------|
|-------------------------------------------|--------------------------14---12--|
|-------------------------------------------|-----------------------------------|
|-------------------------------------------|-----------------------------------|
|-------------------------------------------|-----------------------------------|


        ~
   S  S Q  E Q             E   E
|--------------------------------|
|--------------------------------|
|--------------------------------|
|--2p=0-2------------------------|
|----------2-3-------------2---0-|
|--------------------------------|
|
|     ~~
|  S  H         S  E      +Q
|--------------------------------|
|--------------12----------------|
|-16--------------14b16==(14)r---|
|----14--------------------------|
|--------------------------------|
|--------------------------------|


  +E         E        E        E        E      E       E     E
|------------------------------------------------------------------|
|------------------------------------------------------------------|
|------------------------------------------------------------------|
|------------------------------------------------------4-----5-----|
|-(0)------------------------------------------3-------------------|
|------------3--------2--------0--------2--------------------------|
|
|  |-------6-------|  |------6-------|  |-----6-----|  |----6----|
|  S   S  S  S  S  S  S  S  S  S  S  S  S  S S S  S S  S S S S S S
|--------------------------------11-10-----------10-9----------9-8-|
|-12--13-15-13-12-------12-11-10-------11-10-9-8------10-9-8-7-----|
|-----------------14-12--------------------------------------------|
|------------------------------------------------------------------|
|------------------------------------------------------------------|
|------------------------------------------------------------------|


             ~~
   S   S     Q               E       Q              E        E
|-------------------------------------------------------------------|
|-------------------------------------------------------------------|
|-------------------------------------------------------------------|
|--2p==0-----2------------------------------------------------------|
|----------------------------2-------3--------------2--------0------|
|-------------------------------------------------------------------|
|
|  |------6-------| |------6------|  |-----6------| |------6------|
|  S S    S  S S  S S  S  S  S S  S  S S  S S  S  S S  S  S  S  S S
|--------------8h10p8------------------8h10p8-----------------------|
|-10p8---10-12--------12-10-12-8-10-12--------12-10-8---------------|
|-----------------------------------------------------12-12-11-10-9-|
|-------------------------------------------------------------------|
|-------------------------------------------------------------------|
|-------------------------------------------------------------------|


  +E      E     E     E      E      E  E   E
|-----------------------------------------------|
|-----------------------------------------------|
|-----------------------------------------------|
|--------------------------------------4---5----|
|-(0)-------------------------------3-----------|
|---------3-----2-----0------2------------------|
|
|  |----6-----| |----6----|
|  S  S S S S S S S S S S S  Q        +E  +E
|-----------------------------------------------|
|-----------------------------------------------|
|--9--8-8-7-6-6-5-5-4-3-2-1-[9]b11====(9)r(9)---|
|-----------------------------------------------|
|-----------------------------------------------|
|-----------------------------------------------|


 Bridge
  E5                            D    E5                D
   PM-----------------|              PM----------|       PM---
   |-------6--------|                |----6----|
   S      S S  S  S S  E   E Q  Q    S S S S S S E E E E E E
|----------------------------------|-------------------------|
|----------------------------------|-------------------------|
|----------------------------------|-------------------------|
|----------------------------------|-------------------------|
|-------------------------------5--|-------------------5-----|
|--0------0-0--0--0-0--0---3-2--2--|-0-0-0-0-0-0-0-3-2-2-3-2-|
|
|  >
|  E          +E      +H.            W
|----------------------------------|-------------------------|
|----------------------------------|-------------------------|
|-[9]b11======(9)-----(9)r---------|-------------------------|
|----------------------------------|-------------------------|
|----------------------------------|-------------------------|
|----------------------------------|-------------------------|


  E5                 D    E5               N.C.
 -------------|           PM----------|
  |----6----|             |----6----|
  S S S S S S E E Q  Q    S S S S S S  E E E E E E
|-----------------------|-----------------------------|
|-----------------------|-----------------------------|
|-----------------------|-----------------------------|
|-----------------------|-----------------------------|
|--------------------5--|------------------0-1-2------|
|-0-0-0-0-0-0-0-3-2--2--|-0-0-0-0-0-0--0-3-------3----|
|
|                                      ~~
| W                       Q            H       Q
|-----------------------|-------------15--------------|
|-----------------------|-----------------------------|
|-----------------------|-----------------------------|
|-----------------------|-----------------------------|
|-----------------------|-----------------------------|
|-----------------------|-----------------------------|


  E5                 D    E5                D
  PM----------|           PM----------|       PM---
  |----6----|             |----6----|
  S S S S S S E E Q  Q    S S S S S S E E E E E E
|-----------------------|-------------------------|
|-----------------------|-------------------------|
|-----------------------|-------------------------|
|-----------------------|-------------------------|
|--------------------5--|-------------------5-----|
|-0-0-0-0-0-0-0-3-2--2--|-0-0-0-0-0-0-0-3-2-2-3-2-|
|
| W                       W
|-----------------------|-------------------------|
|-----------------------|-------------------------|
|-----------------------|-------------------------|
|-----------------------|-------------------------|
|-----------------------|-------------------------|
|-----------------------|-------------------------|


  E5                  D         E5                          N.C.
 --------------|                  PM-----------------|
  |----6-----|                    |-------6--------|
  S  S S S S S E E Q   Q          S  S S   S     S S   E  E E E E E
|-----------------------------|----------------------------------------|
|-----------------------------|----------------------------------------|
|-----------------------------|----------------------------------------|
|-----------------------------|----------------------------------------|
|----------------------5------|-----------------------------0-1-2------|
|-0--0-0-0-0-0-0-3-2---2------|---0--0-0---0-----0-0---0--3-------3----|
|
| H.                   Q         +E       +E          +Q    H
|-----------------------------|----------------------------------------|
|---------------------17b19===|=(17)-----(17)b18-----(17)--------------|
|-----------------------------|----------------------------------------|
|-----------------------------|----------------------------------------|
|-----------------------------|----------------------------------------|
|-----------------------------|----------------------------------------|


  E5                 D    E5                                     D
  PM----------|            PM----------------|                        PM---
  |----6----|              |-------6-------|
  S S S S S S E E Q  Q     S    S S   S  S S E  E           E      E  E E
|-----------------------|-------------------------------------------------|
|-----------------------|-------------------------------------------------|
|-----------------------|-------------------------------------------------|
|-----------------------|-------------------------------------------------|
|--------------------5--|------------------------------------------5------|
|-0-0-0-0-0-0-0-3-2--2--|--0----0-0---0--0-0-0--3-----------2------2--3-2-|
|
| W                        E         +Q         T  T  T  T  E     +Q.
|-----------------------|----------------------12h15p12-------------------|
|-----------------------|-15b17-----(15)----------------12-15b17-(15)-----|
|-----------------------|-------------------------------------------------|
|-----------------------|-------------------------------------------------|
|-----------------------|-------------------------------------------------|
|-----------------------|-------------------------------------------------|


  E5                 D    E5                      N.C.
 -------------|           PM---------------|
  |----6----|             |------6-------|
  S S S S S S E E Q  Q    S S S  S     S S   E  E E E   E        E
|-----------------------|-------------------------------------------------|
|-----------------------|-------------------------------------------------|
|-----------------------|-------------------------------------------------|
|-----------------------|-------------------------------------------------|
|--------------------5--|-------------------------0-1---2-----------------|
|-0-0-0-0-0-0-0-3-2--2--|-0-0-0--0-----0-0---0--3----------------3--------|
|
| W                       E      E          +H         +S   +S   E
|-----------------------|-------17b19======(17)-------(17)-(17)r17b19r====|
|-----------------------|-------------------------------------------------|
|-----------------------|-------------------------------------------------|
|-----------------------|-------------------------------------------------|
|-----------------------|-------------------------------------------------|
|-----------------------|-------------------------------------------------|


  E5                      D    E5                        D
    PM------------|            PM----------|               PM------
    |-----6-----|              |----6----|
    S  S S  S S S E  E Q  Q    S S S S S S  E       E  E E E   E
|----------------------------|------------------------------------|
|----------------------------|------------------------------------|
|----------------------------|------------------------------------|
|----------------------------|------------------------------------|
|-------------------------5--|---------------------------5--------|
|---0--0-0--0-0-0-0--3-2--2--|-0-0-0-0-0-0--0-------3--2-2-3---2--|
|
|  +E       E     H.           Q            E      +H         +E
|-(17)-----15----------------|-------------20b22==(20)-------(20)-|
|----------------------------|------------------------------------|
|----------------------------|------------------------------------|
|----------------------------|------------------------------------|
|----------------------------|------------------------------------|
|----------------------------|------------------------------------|


  E5                          D    E5              N.C.
 ---------------------|            PM----------|
    |-------6-------|              |----6----|
    S  S S S S      S E  E Q  Q    S S S S S S E E E E E E
|--------------------------------|---------------------------|
|--------------------------------|---------------------------|
|--------------------------------|---------------------------|
|--------------------------------|---------------------------|
|-----------------------------5--|-----------------0-1-2-----|
|---0--0-0-0-0------0-0--3-2--2--|-0-0-0-0-0-0-0-3-------3---|
|
|  +E.          +S    H.           W
|-(20)r========(20)--------------|---------------------------|
|--------------------------------|---------------------------|
|--------------------------------|---------------------------|
|--------------------------------|---------------------------|
|--------------------------------|---------------------------|
|--------------------------------|---------------------------|


 Out-Chorus
  E5                             D           E5                        D
   PM-----------------|                       PM-----------------|            PM-------
   |-------6--------|                         |-------6--------|
   S     S S   S  S S E E Q        Q          S     S S   S  S S E E E   E    E    E
|------------------------------------------|------------------------------------------|
|------------------------------------------|------------------------------------------|
|------------------------------------------|------------------------------------------|
|------------------------------------------|------------------------------------------|
|----------------------------------5-------|-----------------------------5------------|
|--0-----0-0---0--0-0-0-3-2--------2-------|--0-----0-0---0--0-0-0-3-2---2----3----2--|
|
|  E          +H             +E   +E   +E     E          +H             +E   +E   +E
|------------------------------------------|------------------------------------------|
|-18b20======(18)-----------(18)-(18)r(18)-|-18b20======(18)-----------(18)-(18)r(18)-|
|------------------------------------------|------------------------------------------|
|------------------------------------------|------------------------------------------|
|------------------------------------------|------------------------------------------|
|------------------------------------------|------------------------------------------|


  E5                         D        E5                  N.C.
 ---------------------|                 PM-----------|
   |-------6--------|                   |----6-----|
   S     S S   S  S S E E Q  Q          S  S S S S S E  E E E E E
|-----------------------------------|--------------------------------|
|-----------------------------------|--------------------------------|
|-----------------------------------|--------------------------------|
|-----------------------------------|--------------------------------|
|----------------------------5------|---------------------0-1-2------|
|--0-----0-0---0--0-0-0-3-2--2------|---0--0-0-0-0-0-0--3-------3----|
|
|              ~~~~~~~~~~~~~~~~~~~~~~~~~~~~
|  E          +H.               +E     +Q            H.
|-----------------------------------|--------------------------------|
|-18b20======(18)--------------(18)-|-(18)---------------------------|
|-----------------------------------|--------------------------------|
|-----------------------------------|--------------------------------|
|-----------------------------------|--------------------------------|
|-----------------------------------|--------------------------------|


  E5                         D        E5                   D
   PM-----------------|                 PM-----------|       PM---
   |-------6--------|                   |----6-----|
   S     S S   S  S S E E Q  Q          S  S S S S S E E E E E E
|-----------------------------------|----------------------------|
|-----------------------------------|----------------------------|
|-----------------------------------|----------------------------|
|-----------------------------------|----------------------------|
|----------------------------5------|----------------------5-----|
|--0-----0-0---0--0-0-0-3-2--2------|---0--0-0-0-0-0-0-3-2-2-3-2-|
|
|  E          +H.               +E     +H                H
|-----------------------------------|----------------------------|
|-20b22======(20)--------------(20)r|=(20)-----------------------|
|-----------------------------------|----------------------------|
|-----------------------------------|----------------------------|
|-----------------------------------|----------------------------|
|-----------------------------------|----------------------------|


  E5                                    D
 -------------|
  |----6----|
  S S S S S S  E       E    Q            Q
|---------------------------------------------------------|
|---------------------------------------------------------|
|---------------------------------------------------------|
|---------------------------------------------------------|
|----------------------------------------5----------------|
|-0-0-0-0-0-0--0-------3----2------------2----------------|
|
|                               |------6-------|  |--3--|
| Q            E      +E   +E   S  S  S  S  S  S  S  S  S
|-------------15b17==(15)r(15)-------------------12-15-14-|
|------------------------------17p15-17p15-12-15----------|
|---------------------------------------------------------|
|---------------------------------------------------------|
|---------------------------------------------------------|
|---------------------------------------------------------|


  E5                             N.C.                     E5
   PM-------------|
   |-----6------|
   S    S S S S S  E        E     E        E        E E    q  H.
|-------------------------------------------------------|-----------*|
|-------------------------------------------------------|-----------*|
|-------------------------------------------------------|-----------*|
|-------------------------------------------------------|-----------*|
|---------------------------------0--------1--------2---|--2--------*|
|--0----0-0-0-0-0--0--------3-------------------------3-|--0--------*|
|
|                  |-----6-----|  |------6-------|
|  Q               S  S  S  E  S  S  S  S  S  S  S  Q      q  H.
|-------------------------------------------------------|-----------*|
|-15b17-----------12h15p12----15p12-15p12---------------|-----------*|
|--------------------------14-------------14p12-14p12---|-----------*|
|-------------------------------------------------------|-14--------*|
|-------------------------------------------------------|-----------*|
|-------------------------------------------------------|-----------*|


Duration Legend
---------------
W - whole; H - half; Q - quarter; E - 8th; S - 16th; T - 32nd; X - 64th; a - acciaccatura
+ - note tied to previous; . - note dotted; .. - note double dotted
Uncapitalized letters represent notes that are staccato (1/2 duration)
Irregular groupings are notated above the duration line
Duration letters will always appear directly above the note/fret number it represents the
duration for.  Duration letters with no fret number below them represent rests.  Multi-
bar rests are notated in the form Wxn, where n is the number of bars to rest for.  Low
melody durations appear below the staff

Tablature Legend
----------------
 h   - hammer-on
 p   - pull-off
 b   - bend
 pb  - pre-bend
 r   - bend release (if no number after the r, then release immediately)
 /\  - slide into or out of (from/to "nowhere")
 s   - legato slide
 S   - shift slide
  - natural harmonic
[n]  - artificial harmonic
n(n) - tapped harmonic
 ~   - vibrato
 tr  - trill
 T   - tap
 TP  - trem. picking
 PM  - palm muting
\n/  - tremolo bar dip; n = amount to dip
 \n  - tremolo bar down
 n/  - tremolo bar up
/n\  - tremolo bar inverted dip
 =   - hold bend; also acts as connecting device for hammers/pulls
 <>  - volume swell (louder/softer)
 x   - on rhythm slash represents muted slash
 o   - on rhythm slash represents single note slash

Misc Legend
-----------
 |  - bar
||  - double bar
||o - repeat start
o|| - repeat end
*|  - double bar (ending)
 :  - bar (freetime)
 $  - Segno
 &  - Coda
Tempo markers -  = BPM(8/16=s8/s16), where s8 = swing 8ths, s16 = swing 16ths


***************************************************************************************
* Generated using Power Tab Editor by Brad Larsen - http://powertab.guitarnetwork.org *
***************************************************************************************


Downloaded from www.taborama.com

================================================================================
comments
print report bad tab
9 comments total. Showing first comments.
0 reply
farcry wrote on October 15 2004, 12:00 am

you copy this from guitarone?

0 reply
met_al_lica69 wrote on November 2 2004, 12:00 am

haha...good work...keep it up if it is coming from the mags!

0 reply
lVl lVl_4life wrote on November 19 2004, 12:00 am

awesome tab

I want to post or [tab]
guest
You may want to rate the tab now too:
select rating
Please do not post tabs as comments. Select "correction" instead!