Oops, an error
Loading. Please wait.

Disconnect Tab

ver2
ver2

Whole song

More versions @911Tabs.com
25,210 views 51 this week
6 commentsread comments
1 2 3 4 5
excellent!
x 15
Autoscroll
+/-
esc
set tempo
stop
WARNING: You are trying to view
                                    content from Ultimate-Guitar.com
                                    in an unauthorized application,
                                    which is prohibited.

                                    Please use an official Ultimate
                                    Guitar Tabs application for iPhone,
                                    iPad or Android to access legitimate
                                    chords, guitar, bass, and drum tabs
                                    from Ultimate-Guitar.com database.

                                    Type "ultimate guitar tabs" in Apple
                                    App Store's or Android Market's
                                    search to find the application.
DISCONNECT By MEGADETH
From the album THE WORLD NEEDS A HERO


Here's the whole song with solos and fills.

INTRO:
|-------------------------------------|
|-------------------------------------|
|-------------------------------------|
|-----5-------4------2----------------|
|---7-------5------3~--------6--9--10-|
|-0-------0------0-----0-/7-----------|
 p.m     p.m    p.m   p.m

|-------------------------------------|
|-------------------------------------|
|-------------------------------------|
|-----5-------4------2----------------|
|---7-------5------3~--------6--9--10-|
|-0-------0------0-----0-/7-----------|
 p.m      p.m   p.m   p.m

|-------------------------------------|
|-------------------------------------|
|-------------------------------------|
|-----5-------4------2----------------|
|---7-------5------3~-----------------|
|-0-------0------0-----0-/7-6-5-3-----|
 p.m      p.m   p.m   p.m


This riff is used throughout the verses
VERSES:                              x3
|-------------------------------------|
|-------------------------------------|
|-------------------------------------|
|-------------------------------------|
|----9-5-7----9-5-7--------10-9-------|
|-00-------00-------00-7-8------------|
  p.m      p.m     p.m
|-------------------------------------|
|-------------------------------------|
|-------------------------------------|
|-------------------------------------|
|----9-5-7----9-5-7-----------10------|
|-00-------00-------00-7---8----------|
 p.m      p.m      p.m


|------------------------------|--------------------------------|
|------------------------------|--------------------------------|
|-2----------------------------|-2------------------------------|
|-2----------------------------|-2------------------------------|
|-0--3p0-0-5p0-0-3p0-0-5p0-6p0-|-0--3p0-0-5p0-0-3p0-0-6p0-5p0-2-|
|------------------------------|------------------------------0-|

The chorus is the intro riff but has slight differences.
Dont play the very first open E the first time.
The E5 chord at the end off the last bar carries it.

CHORUS                               x3
|-------------------------------------|
|-------------------------------------|
|-------------------------------------|
|-----5------4------2-----------------|
|---7------5------3~--------6--9--10--|
|-0------0------0-----0-/7------------|
 p.m    p.m    p.m   p.m

|-------------------------------------|
|-------------------------------------|
|-------------------------------------|
|-----5-----4-----2-------------------|
|---7-----5-----3~----/6-5-4---2------|
|-0-----0-----0-----00/7-6-5---0------|
 p.m   p.m   p.m   p.m         *

Then go back to the verse and play the whole progression again.
*second time play the E5 chord and let it ring out ring out,
then strike again and let it ring out.

then comes the palm muted riff play the whole thing twice
Palm muted riff
|----------------------------------|
|----------------------------------|
|----------------------------------|
|---------444444442222222211111111-|
|-22222222222222223333333322222222-|
|-00000000-------------------------|
 P.m through out
                                        x2
|----------------------------------------|
|----------------------------------------|
|----------------------------------------|
|----------------------------------------|
|-----------------2-33333332-232--2------|
|-00000000-0235235--------------53-532---|
p.m throughout


Riff under the solo
|----------------------------------------------|
|----------------------------------------------|
|----------------------------------------------|
|-/99999999/1212121212121212\55555555\11111111-|
|-/77777777/1010101010101010\33333333\22222222-|
|----------------------------------------------|
                                      X2
|--------------------------------------|
|--------------------------------------|
|--------------------------------------|
|----------55555555/22222222\11111111/-|
|-22222222-22222222/33333333\22222222/-|
|-00000000-----------------------------|
  --p.m---

Then play the last bar off the palm muted riff 3times
On the very last bar play this
|---------------------------------------|
|---------------------------------------|
|---------------------------------------|
|---------------------------------------|
|-----------------2-3335333-232--2----2-|
|-00000000-0235235-------------53-532-0-|
  p.m through out

Solo:


|--------------------------------------|---------------------------------------|
|12------------------------------------|---------------------12----------------|
|12------------------------------------|---------------------12----------------|
|--------------------------------------|-14~~~~------------------14------------|
|--------------------------------------|---------------------------------------|
|--------------------------------------|---------------------------------------|


|--------------------------------------|---------------------------------------|
|-14--12-------------------------------|---------------------------------------|
|-14--12-------------------------------|-7-------------------------------------|
|---------14~~~~-----14\9--------------|----9--10--7--9------------------------|
|--------------------------------------|---------------------10----------------|
|--------------------------------------|-----------------10------13------------|


|--------------------------------------|---------------------------------------|
|--------------------------------------|---------------------------------------|
|--------------------------------------|---------------------------------------|
|--------------------------------------|---------------------------------------|
|--------------------------------------|-P.S-----------------------------------|
|-12~~~~--------12---------------------|-X\\\\\\\\\X\\\\\\\\\X\\\\\\\\\X\\\\\\-|

|----------------------------------|---------------------------------------|
|----------------------------------|---------------------------------------|
|----------------------------------|---------------------------------------|
|-5h7p5h7p5h7p5h7p5h7p5h7p5h7p5h7|5h7p5h7p5h7p5h7p5h7p5h7p5h7p5------------|
|----------------------------------|---------------------------------------|
|----------------------------------|---------------------------------------|


|---------------|-------------|-----------------|--------12--------------------|
|---------------|-------------|-----------------|-----12-----15-12-------------|
|---------------|-/8----6--8--|-9-----9/11\9----|-/14--------------15-15-12----|
|-/14~~~(14)\---|-/9----7--9--|-10---10/12\10---|---------------------------14-|
|---------------|-------------|-----------------|------------------------------|
|---------------|-------------|-----------------|------------------------------|


|--------------------------------------|--------------------------------------------|
|--------------------------------------|--------------------------------------------|
|-14--12b1/4----------------12b(14)-----hold bend----------------------(12)---------|
|-------------14--12--14~~-------------|--------------------------------------------|
|--------------------------------------|--------------------------------------------|
|--------------------------------------|--------------------------------------------|


|--------------------------------------|---------------------------------------|
|--------------------------------------|---------------------------------------|
|-12~~~~~~~~~~~~~~~~~~~~~~~~~~~~~~~~---|---------------------------------------|
|--------------------------------------|---------------------------------------|
|--------------------------------------|---------------------------------------|
|--------------------------------------|---------------------------------------|


|-15p12p0-15p12p0-15p12p0-15p12p0-15p12p0-15p12p0-15p12p0-15p12p0-|
|-----------------------------------------------------------------|
|-----------------------------------------------------------------|
|-----------------------------------------------------------------|
|-----------------------------------------------------------------|
|-----------------------------------------------------------------|


|-14p10p0-14p10p0-14p10p0-14p10p0-14p10p0-14p10p0-14p10p0-14p10p0-|
|-----------------------------------------------------------------|
|-----------------------------------------------------------------|
|-----------------------------------------------------------------|
|-----------------------------------------------------------------|
|-----------------------------------------------------------------|


|-12p8h12-12p8p0-12p8p0-12p8p0-12p8p0-12p8p0-12p8p0-12p8p0--------|
|-----------------------------------------------------------------|
|-----------------------------------------------------------------|
|-----------------------------------------------------------------|
|-----------------------------------------------------------------|
|-----------------------------------------------------------------|


|-11p7p0-11p7p0-11p7p0-11p7p0-11p7p0-11p7p0-11p7p0-11p7p0---------|
|-----------------------------------------------------------------|
|-----------------------------------------------------------------|
|-----------------------------------------------------------------|
|-----------------------------------------------------------------|
|-----------------------------------------------------------------|


|-15p12p0-15p12p0-15p12p0-15p12p0-15p12p0-15p12p0-15p12p0-15p12p0-|
|-----------------------------------------------------------------|
|-----------------------------------------------------------------|
|-----------------------------------------------------------------|
|-----------------------------------------------------------------|
|-----------------------------------------------------------------|


|-19p15p0-19p15p0-19p15p0-19p15p0-19p15p0-19p15p0-19p15p0-19p15p0-|
|-----------------------------------------------------------------|
|-----------------------------------------------------------------|
|-----------------------------------------------------------------|
|-----------------------------------------------------------------|
|-----------------------------------------------------------------|


|-20p15p0-20p15p0-20p15p0-20p15p0-20p15p0-20p15p0-20p15p0-20p15p0-|
|-----------------------------------------------------------------|
|-----------------------------------------------------------------|
|-----------------------------------------------------------------|
|-----------------------------------------------------------------|
|-----------------------------------------------------------------|


|-19p14p0-19p14p0-19p14p0-19p14p0-19p14p0-19p14p0-19p14p0-19p14p0-||
|-----------------------------------------------------------------||
|-----------------------------------------------------------------||
|-----------------------------------------------------------------||
|-----------------------------------------------------------------||
|-----------------------------------------------------------------||


|-12-----------------------------------|-(12)\---------------------------------|
|--------------------------------------|---------------------------------------|
|--------------------------------------|---------------------------------------|
|--------------------------------------|---------------------------------------|
|--------------------------------------|---------------------------------------|
|--------------------------------------|---------------------------------------|


|--------------------------------------|---------------------------------------|
|--------------------------------------|-12-12b1/4-----14-12-------------------|
|--------------------------------------|-12-12b1/4-----14-12--12---------------|
|--------------------------------------|------------14-----------14-12---------|
|--------------------------------------|---------------------------------------|
|--------------------------------------|---------------------------------------|


|--------------------------------------|---------------------------------------|
|--------------------------------------|---------------------------------------|
|-----12-------------------------------|---------------------------------------|
|-14------14~~~~(14)\------------------|---------------------------------------|
|--------------------------------------|---------------------------------------|
|--------------------------------------|---------------------------------------|


|--------------------------------------|---------------------------------------|
|--------------------------------------|---------------------------------------|
|--------------------------------------|---------------------------------------|
|--------------------------------------|---------------------------------------|
|--------------------------------------|---------------------------------------|
|--------------------------------------|---------------------------------------|


|-17-pb(20)---(17)--|-17pb(18)-17pb918)--17b1/4-17b1/4-17-17--|
|-------------------|-----------------------------------------|
|-------------------|-----------------------------------------|
|-------------------|-----------------------------------------|
|-------------------|-----------------------------------------|
|-------------------|-----------------------------------------|


|-15~~~~~~~(15)\-----------------------|---------------------------------------|
|--------------------------------------|---------------------------------------|
|--------------------------------------|---------------------------------------|
|--------------------------------------|---------------------------------------|
|--------------------------------------|---------------------------------------|
|--------------------------------------|---------------------------------------|


|--------------------------------------|---------------12----------------------|
|--------------------------------------|------------12-------------------------|
|--------------------------------------|---14b(15)-----------------------------|
|--------------------------------------|---------------------------------------|
|--------------------------------------|---------------------------------------|
|--------------------------------------|---------------------------------------|


|--------------------------------------|------------------------------|------------------|
|-15b(18)--15b(18)-15b(18)-15b17~~~-12-|-15--12--13----12-------------|------------------|
|--------------------------------------|------------14----12--14------|------------------|
|--------------------------------------|--------------------------12--|-14~~~~--(14)\----|
|--------------------------------------|------------------------------|------------------|
|--------------------------------------|------------------------------|------------------|


Outro-Chorus:

|--------------------------------------|---------------------------------------|
|--------------------------------------|---------------------------------------|
|--14pb(15)r(1/4)-b(15)-----14pb(16)~~~|~~~~~~~--14p12-14-(14)\----------------|
|--------------------------------------|---------------------------------------|
|--------------------------------------|---------------------------------------|
|--------------------------------------|---------------------------------------|


|--------------------------------------|---------------------------------------|
|-----------7----8----7h8p7------------|---------------------------------------|
|-------9----------------------9----7--|---------------------------------------|
|---/9---------------------------------|--\7--5--7p0-7/9~~~~~~~~~~~~~~(9)\-----|
|--------------------------------------|---------------------------------------|
|--------------------------------------|---------------------------------------|


|--------------------------------------|---------------------------------------|
|--------------------------------------|---------------------------------------|
|--------------------------------------|---------------------------------------|
|--------------------------------------|---------------------------------------|
|--------------------------------------|---------------------------------------|
|--------------------------------------|---------------------------------------|


|--------------6--7p6------------------------|---------------------------------------|
|-7h8p7---7--8---------7p5--8p7--------------|-----------------------------------0---|
|-------9------------------------9p7---------|-7p5-------------------------------0---|
|-------------------------------------10p9---|------7p5--9p7-------------------------|
|--------------------------------------------|----------------10p7-------------------|
|--------------------------------------------|----------------------12p11--12\-------|


|--------------------------------------|---------------------------------------|
|--------------------------------------|---------------------------------------|
|--------------------------------------|---------------------------------------|
|--------------------------------------|---------------------------------------|
|--------------------------------------|---------------------------------------|
|--------------------------------------|---------------------------------------|


|-17p12------------------------------------------|-----------------------------------------------|
|-------15p12----12------------------------------|-----------------------------------------------|
|-------------15----15-14-13----14----12~~-------|-------11----11/14-15-16p15-16p15-14-----------|
|----------------------------14----14-----14-12--|-13-14----14-------------------------17-16-14--|
|------------------------------------------------|-----------------------------------------------|
|------------------------------------------------|-----------------------------------------------|


|--------------------------------------|---------------------------------------|
|--------------------------------------|---------------------------------------|
|-16p15p14----------16p15p14----------16p15p14----------16p15p14---------------|
|----------17p16p14----------17p16p14----------17p16p14--------|-17p16p14------|
|--------------------------------------|---------------------------------------|
|--------------------------------------|---------------------------------------|


|---------------------------------------------------------|---------------------------------------|
|---------------------------------------------------------|-22b(24)--------------22b(23)--22b(23)-|
|-16p15p14----------16p15p14----------16p15p14-----20/22--|---------------------------------------|
|----------17p16p14----------17p16p14----------17/--------|---------------------------------------|
|---------------------------------------------------------|---------------------------------------|
|---------------------------------------------------------|---------------------------------------|


|-----------------------------------------|
|-22pb(23)---22b(24)----------------------|
|----------------------20-----------------|
|-------------------------21~~~~~~--(21)\-|
|-----------------------------------------|
|-----------------------------------------|

                                                                             X3
|-15--15151515151414141414141414-------|-12--12121212101010101015--------------|
|-17--17171717171515151515151515-------|-13--13131313121212121217--------------|
|--------------------------------------|---------------------------------------|
|--------------------------------------|---------------------------------------|
|--------------------------------------|---------------------------------------|
|--------------------------------------|---------------------------------------|


|-15--151515151515141414141414----17---|-17--1717171717171717171717------------|
|-17--171717171717151515151515-15------|-15--1515151515151515151515------------|
|--------------------------------------|-14--1414141414141414141414------------|
|--------------------------------------|---------------------------------------|
|--------------------------------------|---------------------------------------|
|--------------------------------------|---------------------------------------|

                            Gtr2*
|---------------------------------------||
|----------------------------*----------||
|----------------------------16\--------||
|---------------------------------------||
|----9-5-7----9-5-7-----------2---------||
|-00-------00-------00-7-8-3--0---------||
 p.m      p.m      p.m


Well Their ya go fellow Metal Heads,the whole of Disconnect
With solos & fills.It's a pretty cool tune and I hope you have fun with it.It took me ages to do.

                               ENJOY   :)

Tabbed by me Andrew (metalrules)any comment's or request e-mail me at

                 andrew_mellor@talk21.com
comments
print report bad tab
6 comments total. Showing first comments.
0 reply
lVl lVl_4life wrote on December 24 2004, 12:00 am

great tab

0 reply
Killswitch666 wrote on June 6 2006, 12:07 pm

By far, one of the most correct tabs I've ever seen. Awesome job, and keep it up, man.

0 reply
zombiedestroyr wrote on May 15 2009, 05:02 pm

LOL the intro in this song is the chorus part in the song Dread and the Fugitive Mind (Version 5) tab.

I want to post or [tab]
guest
You may want to rate the tab now too:
select rating
Please do not post tabs as comments. Select "correction" instead!