Oops, an error
Loading. Please wait.

Disconnect Tab

ver3
ver3

Whole song

More versions @911Tabs.com
703 views 3 this week
no commentswrite comment
1 2 3 4 5
please rate
Autoscroll
+/-
esc
set tempo
stop
Contributor
WARNING: You are trying to view
                                    content from Ultimate-Guitar.com
                                    in an unauthorized application,
                                    which is prohibited.

                                    Please use an official Ultimate
                                    Guitar Tabs application for iPhone,
                                    iPad or Android to access legitimate
                                    chords, guitar, bass, and drum tabs
                                    from Ultimate-Guitar.com database.

                                    Type "ultimate guitar tabs" in Apple
                                    App Store's or Android Market's
                                    search to find the application.
#----------------------------------PLEASE NOTE---------------------------------#
#This file is the author's own work and represents their interpretation of the #
#song. You may only use this file for private study, scholarship, or research. #
#------------------------------------------------------------------------------#

DISCONNECT
As recorded by Megadeth
(From the 2001 Album THE WORLD NEEDS A HERO)

Transcribed by Timothy Beresford
	

Words and Music by Dave Mustaine

E5
0 2 x x x x
	
B5
x 2 4 x x x
	
C
x 3 2 x x x
	
B
x 2 1 x x x

F#5
2 4 x x x x
	
G5
3 5 x x x x
	
A5
x 0 2 x x x
	
B5VII
7 9 x x x x

C5
x 3 5 x x x
	
C5VIII
8 10 x x x x
	
G/B
x 2 5 x x x
	
E5VII
x 7 9 x x x

G5X
x 10 12 x x x
	
D5
x 5 7 x x x

Gtr I (E A D G B E) - 'Rhythm 1'
Gtr II (E A D G B E) - 'Rhythm 2'
Gtr III (E A D G B E) - 'Solo'

   Intro
    Moderate Rock Q=129
    Em          D       C             B
   2/4
    Gtrs I, II
    PM      PM        PM~~~~~~~~    PM ~~~~~~~~
    E E  E  E   E  E  E E   +E   E  E  E   +E  E E E
||------------|-----------|--------------|------------||
||o-----------|-----------|--------------|-----------o||
||------------|-----------|--------------|------------||
||-------5----|----4------|------2-------|-------4-5--||
||o---7-(7)---|-5-(5)---3-|-(3)-(3)------|-----6-----o||
||--0-------0-|-------0---|---------0-/7-|-(7)--------||


  Em          D       C             B
  PM      PM        PM~~~~~~~~    PM ~~~~~~~~
  E E  E  E   E  E  E E   +E   E  E  E   +E  E E E
|-----------|-----------|--------------|-----------||
|-----------|-----------|--------------|-----------||
|-----------|-----------|--------------|-----------||
|------5----|----4------|------2-------|-----------||
|---7-(7)---|-5-(5)---3-|-(3)-(3)------|-----------||
|-0-------0-|-------0---|---------0-/7-|-(7)-6-5-3-||


   Pre-Verse 1
    Em
    PM|         PM|         PM|
    E E E E   E E E E   E E E E   E E  E E  3x
||----------|---------|---------|-----------||
||o---------|---------|---------|----------o||
||----------|---------|---------|-----------||
||----------|---------|---------|-----------||
||o-----9-5-|-7-----9-|-5-7-----|-----10-9-o||
||--0-0-----|---0-0---|-----0-0-|-7-8-------||


  PM|         PM|         PM|
                                |-3--|
  E E E E   E E E E   E E E E   Q Q  Q
|---------|---------|---------|--------||
|---------|---------|---------|--------||
|---------|---------|---------|--------||
|---------|---------|---------|--------||
|-----9-5-|-7-----9-|-5-7-----|-----10-||
|-0-0-----|---0-0---|-----0-0-|-7-8----||


   Verse 1
    Em
    PM|         PM|         PM|
    E E E E   E E E E   E E E E   E E  E E
||----------|---------|---------|----------|
||o---------|---------|---------|----------|
||----------|---------|---------|----------|
||----------|---------|---------|----------|
||o-----9-5-|-7-----9-|-5-7-----|-----10-9-|
||--0-0-----|---0-0---|-----0-0-|-7-8------|


  Em/G            Am                G
  PM|         PM|         PM|
  E E E E   E E E E   E E E E   E E  E E
|---------|---------|---------|-----------|
|---------|---------|---------|-----------|
|---------|---------|---------|-----------|
|---------|---------|---------|-----------|
|-----9-5-|-7-----9-|-5-7-----|-----10-9--|
|-0-0-----|---0-0---|-----0-0-|-7-8-------|


  Em
  PM|         PM|         PM|
  E E E E   E E E E   E E E E   E E  E E
|---------|---------|---------|----------|
|---------|---------|---------|----------|
|---------|---------|---------|----------|
|---------|---------|---------|----------|
|-----9-5-|-7-----9-|-5-7-----|-----10-9-|
|-0-0-----|---0-0---|-----0-0-|-7-8------|


  Em/G            Am            Bm
  PM|         PM|         PM|
  E E E E   E E E E   E E E E   E E +S   E.
|---------|---------|---------|--------------||
|---------|---------|---------|-------------o||
|---------|---------|---------|--------------||
|---------|---------|---------|--------------||
|-----9-5-|-7-----9-|-5-7-----|---------10--o||
|-0-0-----|---0-0---|-----0-0-|-7-8-(8)------||


 Bridge 1
  Am
  E E E E   E E E E   E E E E   E E E E
|---------|---------|---------|---------|
|---------|---------|---------|---------|
|---------|---------|---------|---------|
|---------|---------|---------|---------|
|-0-0-3-0-|-0-5-0-0-|-3-0-0-5-|-0-6-0-0-|
|---------|---------|---------|---------|


  +E  E E E   E E E E   E E E E   E E E E
|-----------|---------|---------|---------||
|-----------|---------|---------|---------||
|-----------|---------|---------|---------||
|-----------|---------|---------|-------2-||
|-(0)-0-3-0-|-0-5-0-0-|-3-0-0-6-|-0-5-0-2-||
|-----------|---------|---------|-------0-||


   Chorus
    Em          D       C             B
    PM      PM        PM~~~~~~~~    PM ~~~~~~~~
    E E  E  E   E  E  E E   +E   E  E  E   +E  E E E  3x
||------------|-----------|--------------|------------||
||o-----------|-----------|--------------|-----------o||
||------------|-----------|--------------|------------||
||-------5----|----4------|------2-------|-------4-5--||
||o---7-(7)---|-5-(5)---3-|-(3)-(3)------|-----6-----o||
||--0-------0-|-------0---|---------0-/7-|-(7)--------||


  Em          D/F#    C                 B BbA
  PM      PM        PM~~~~~~~~    PM|
                                        |-3-|
  E E  E  E   E  E  E E   +E   E  E E   Q Q Q
|-----------|-----------|-------------|-------||
|-----------|-----------|-------------|-------||
|-----------|-----------|-------------|-------||
|------5----|----4------|------2------|-------||
|---7-(7)---|-5-(5)---3-|-(3)-(3)-----|-6-5-4-||
|-0-------0-|-------0---|---------0-0-|-7-6-5-||


 Pre-Verse 2
  Em
  PM|         PM|         PM|
  E E E E   E E E E   E E E E   E E  E E
|---------|---------|---------|----------|
|---------|---------|---------|----------|
|---------|---------|---------|----------|
|---------|---------|---------|----------|
|-----9-5-|-7-----9-|-5-7-----|-----10-9-|
|-0-0-----|---0-0---|-----0-0-|-7-8------|


  PM|         PM|         PM|
  E E E E   E E E E   E E E E   E E  E E
|---------|---------|---------|----------||
|---------|---------|---------|----------||
|---------|---------|---------|----------||
|---------|---------|---------|----------||
|-----9-5-|-7-----9-|-5-7-----|-----10-9-||
|-0-0-----|---0-0---|-----0-0-|-7-8------||


   Verse 2
    Em
    PM|         PM|         PM|
    E E E E   E E E E   E E E E   E E  E E
||----------|---------|---------|----------|
||o---------|---------|---------|----------|
||----------|---------|---------|----------|
||----------|---------|---------|----------|
||o-----9-5-|-7-----9-|-5-7-----|-----10-9-|
||--0-0-----|---0-0---|-----0-0-|-7-8------|


  Em/G            Am                G
  PM|         PM|         PM|
  E E E E   E E E E   E E E E   E E  E E
|---------|---------|---------|-----------|
|---------|---------|---------|-----------|
|---------|---------|---------|-----------|
|---------|---------|---------|-----------|
|-----9-5-|-7-----9-|-5-7-----|-----10-9--|
|-0-0-----|---0-0---|-----0-0-|-7-8-------|


  Em
  PM|         PM|         PM|
  E E E E   E E E E   E E E E   E E  E E
|---------|---------|---------|----------|
|---------|---------|---------|----------|
|---------|---------|---------|----------|
|---------|---------|---------|----------|
|-----9-5-|-7-----9-|-5-7-----|-----10-9-|
|-0-0-----|---0-0---|-----0-0-|-7-8------|


  Em/G            Am            Bm
  PM|         PM|         PM|
  E E E E   E E E E   E E E E   E E +S   E.
|---------|---------|---------|--------------||
|---------|---------|---------|-------------o||
|---------|---------|---------|--------------||
|---------|---------|---------|--------------||
|-----9-5-|-7-----9-|-5-7-----|---------10--o||
|-0-0-----|---0-0---|-----0-0-|-7-8-(8)------||


 Bridge 2
  Am
  E E E E   E E E E   E E E E   E E E E
|---------|---------|---------|---------|
|---------|---------|---------|---------|
|---------|---------|---------|---------|
|---------|---------|---------|---------|
|-0-0-3-0-|-0-5-0-0-|-3-0-0-5-|-0-6-0-0-|
|---------|---------|---------|---------|


  +E  E E E   E E E E   E E E E   E E E E
|-----------|---------|---------|---------||
|-----------|---------|---------|---------||
|-----------|---------|---------|---------||
|-----------|---------|---------|-------2-||
|-(0)-0-3-0-|-0-5-0-0-|-3-0-0-6-|-0-5-0-2-||
|-----------|---------|---------|-------0-||


   Chorus
    Em          D       C             B
    PM      PM        PM~~~~~~~~    PM ~~~~~~~~
    E E  E  E   E  E  E E   +E   E  E  E   +E  E E E  3x
||------------|-----------|--------------|------------||
||o-----------|-----------|--------------|-----------o||
||------------|-----------|--------------|------------||
||-------5----|----4------|------2-------|-------4-5--||
||o---7-(7)---|-5-(5)---3-|-(3)-(3)------|-----6-----o||
||--0-------0-|-------0---|---------0-/7-|-(7)--------||


  Em          D/F#    C                 B BbA
  PM      PM        PM~~~~~~~~    PM|
                                        |-3-|
  E E  E  E   E  E  E E   +E   E  E E   Q Q Q
|-----------|-----------|-------------|-------||
|-----------|-----------|-------------|-------||
|-----------|-----------|-------------|-------||
|------5----|----4------|------2------|-------||
|---7-(7)---|-5-(5)---3-|-(3)-(3)-----|-6-5-4-||
|-0-------0-|-------0---|---------0-0-|-7-6-5-||


   Interlude
    Em                      Em/C
   4/4
    W          +W           +W           +W
||-----------|------------|------------|------------|
||o----------|------------|------------|------------|
||-----------|------------|------------|------------|
||--2--------|-(2)--------|-(2)--------|-(2)--------|
||o-2--------|-(2)--------|-(2)--------|-(2)--------|
||--0--------|-(0)--------|-(0)--------|-(0)--------|


  Em                        Em/C
  +W           +W           +W           +W
|------------|------------|------------|---------||
|------------|------------|------------|--------o||
|------------|------------|------------|---------||
|-(2)--------|-(2)--------|-(2)--------|-(2)-----||
|-(2)--------|-(2)--------|-(2)--------|-(2)----o||
|-(0)--------|-(0)--------|-(0)--------|-(0)-----||


 Guitar Solo (Part 1)
  E5                      B5
  Gtrs I, II
   E      E E E E E E E    E  E E E E E  E  E
   |      | | | | | | |    |  | | | | |  |  |
   /      / / / / / / /    /  / / / / /  /  /

  Gtr III
                           ~~~
   W                       H.            E  E
|-----------------------|---------------------|
|-12b12.5---------------|---------------12----|
|-12b12.5---------------|---------------12----|
|-----------------------|-14---------------14-|
|-----------------------|---------------------|
|-----------------------|---------------------|


  C                       B
   E  E  E E E E   E  E   E E  E E E  E  E E
   |  |  | | | |   |  |   | |  | | |  |  | |
   /  /  / / / /   /  /   / /  / / /  /  / /

         ~~~~~~~~~~~~~~
   E  E  H        +E  E   E E  E E E  E  E E
|-----------------------|--------------------|
|-14-12-----------------|--------------------|
|-14-12-----------------|-7------------------|
|-------14-------(14)S9-|---9-10-7-9---------|
|-----------------------|---------------10-8-|
|-----------------------|------------10------|


  E5                    F#G5A5F#G5A5B5
  E E E E E  E E E   E  E E E E E E E
  | | | | |  | | |   |  | | | | | | |
  / / / / /  / / /   /  / / / / / / /

  H       H          W
|------------------|------------------|
|------------------|------------------|
|------------------|------------------|
|------------------|------------------|
|-7-------7\-------|------------------|
|------------------|-x\---------------|


  C5                          B5    C5  B5  A5  G5  B5  A5  G5  F#5
  E   E   E   E   E   E   E   E     E   E   E   E   E   E   E   E
  |   |   |   |   |   |   |   |     |   |   |   |   |   |   |   |
  /   /   /   /   /   /   /   /     /   /   /   /   /   /   /   /

  S S S S S S S S S S S S S S S S   S S S S S S S S S S S S S S E
|---------------------------------|-------------------------------|
|---------------------------------|-------------------------------|
|---------------------------------|-------------------------------|
|-5h7p5h7p5h7p5h7p5h7p5h7p5h7p5h7p|=5h7p5h7p5h7p5h7p5h7p5h7p5h7p5-|
|---------------------------------|-------------------------------|
|---------------------------------|-------------------------------|


  E5                       B5
    E  E E E E E   E   E     E  E E E E E  E  E
    |  | | | | |   |   |     |  | | | | |  |  |
    /  / / / / /   /   /     /  / / / / /  /  /

    ~~~~                     ~~~~
    H.            +Q         H.            E  E
|------------------------|----------------------|
|------------------------|----------------------|
|------------------------|----------------------|
|-/14------------(14)\---|-/13------------11-13-|
|------------------------|-/14------------12-14-|
|------------------------|----------------------|


  C                      B
    E E E   E  E E E E     E    E  E  E  E  E  E     E
    | | |   |  | | | |     |    |  |  |  |  |  |     |
    / / /   /  / / / /     /    /  /  /  /  /  /     /

    Q   E   E  H          +E    E  E  E  E  E  S  S  S  S
|----------------------|-------------12---------------------|
|----------------------|----------12----15-12---------------|
|----------------------|------/14-------------15-15-12------|
|-/14-----/16s14-------|-(14)--------------------------14---|
|-/15-----/17s15-------|-(15)-------------------------------|
|----------------------|------------------------------------|


  E5                                     F#G5A5F#G5A5   B5
   E     E  E  E  E E  E   E          E  E E E E E   E  E
   |     |  |  |  | |  |   |          |  | | | | |   |  |
   /     /  /  /  / /  /   /          /  / / / / /   /  /

                  ~~
   S  S  E  E  E  Q    E  +E         +H.            +Q
|---------------------------------|-----------------------|
|---------------------------------|-----------------------|
|-14-14-12------------12-(12)b14==|=(12)-----------(12)r==|
|----------14-12-14---------------|-----------------------|
|---------------------------------|-----------------------|
|---------------------------------|-----------------------|


  C5             B5  C5   B5A5G5B5A5G5F#5
   E E E E E E E E     E  E E E E E E E
   | | | | | | | |     |  | | | | | | |
   / / / / / / / /     /  / / / / / / /

   ~~~~~~~~~~~~~~~~~~~~~~~
   W                  +W
|------------------|--------------------||
|------------------|--------------------||
|-12---------------|-(12)---------------||
|------------------|--------------------||
|------------------|--------------------||
|------------------|--------------------||


   Tapping Solo (Part 2)
    E5VII
     E       E       E       E       E       E       E       E
     |       |       |       |       |       |       |       |
     /       /       /       /       /       /       /       /

     T       T       T       T       T       T       T       T
     |-----6------|  |-----6------|  |-----6------|  |-----6------|
     S  S S  S  S S  S  S S  S  S S  S  S S  S  S S  S  S S  S  S S
||--15p12p0-15p12p0-15p12p0-15p12p0-15p12p0-15p12p0-15p12p0-15p12p0-|
||o-----------------------------------------------------------------|
||------------------------------------------------------------------|
||------------------------------------------------------------------|
||o-----------------------------------------------------------------|
||------------------------------------------------------------------|


  G5X
   E       E       E       E       E       E       E       E
   |       |       |       |       |       |       |       |
   /       /       /       /       /       /       /       /

   T       T       T       T       T       T       T       T
   |-----6------|  |-----6------|  |-----6------|  |-----6------|
   S  S S  S  S S  S  S S  S  S S  S  S S  S  S S  S  S S  S  S S
|-14p10p0-14p10p0-14p10p0-14p10p0-14p10p0-14p10p0-14p10p0-14p10p0-|
|-----------------------------------------------------------------|
|-----------------------------------------------------------------|
|-----------------------------------------------------------------|
|-----------------------------------------------------------------|
|-----------------------------------------------------------------|


  C5
   E      E      E      E      E      E      E      E
   |      |      |      |      |      |      |      |
   /      /      /      /      /      /      /      /

   T      T      T      T      T      T      T      T
   |----6-----|  |----6-----|  |----6-----|  |----6-----|
   S S S  S S S  S S S  S S S  S S S  S S S  S S S  S S S
|-12p8p0-12p8p0-12p8p0-12p8p0-12p8p0-12p8p0-12p8p0-12p8p0-|
|---------------------------------------------------------|
|---------------------------------------------------------|
|---------------------------------------------------------|
|---------------------------------------------------------|
|---------------------------------------------------------|


  B
   E      E      E      E      E      E      E      E
   |      |      |      |      |      |      |      |
   /      /      /      /      /      /      /      /

   T      T      T      T      T      T      T      T
   |----6-----|  |----6-----|  |----6-----|  |----6-----|
   S S S  S S S  S S S  S S S  S S S  S S S  S S S  S S S
|-11p7p0-11p7p0-11p7p0-11p7p0-11p7p0-11p7p0-11p7p0-11p7p0--|
|----------------------------------------------------------|
|----------------------------------------------------------|
|----------------------------------------------------------|
|----------------------------------------------------------|
|----------------------------------------------------------|


  E5
   E       E       E       E       E       E       E       E
   |       |       |       |       |       |       |       |
   /       /       /       /       /       /       /       /

   T       T       T       T       T       T       T       T
   |-----6------|  |-----6------|  |-----6------|  |-----6------|
   S  S S  S  S S  S  S S  S  S S  S  S S  S  S S  S  S S  S  S S
|-15p12p0-15p12p0-15p12p0-15p12p0-15p12p0-15p12p0-15p12p0-15p12p0-|
|-----------------------------------------------------------------|
|-----------------------------------------------------------------|
|-----------------------------------------------------------------|
|-----------------------------------------------------------------|
|-----------------------------------------------------------------|


  G/B
   E       E       E       E       E       E       E       E
   |       |       |       |       |       |       |       |
   /       /       /       /       /       /       /       /

   T       T       T       T       T       T       T       T
   |-----6------|  |-----6------|  |-----6------|  |-----6------|
   S  S S  S  S S  S  S S  S  S S  S  S S  S  S S  S  S S  S  S S
|-19p15p0-19p15p0-19p15p0-19p15p0-19p15p0-19p15p0-19p15p0-19p15p0--|
|------------------------------------------------------------------|
|------------------------------------------------------------------|
|------------------------------------------------------------------|
|------------------------------------------------------------------|
|------------------------------------------------------------------|


  C
   E       E       E       E       E       E       E       E
   |       |       |       |       |       |       |       |
   /       /       /       /       /       /       /       /

   T       T       T       T       T       T       T       T
   |-----6------|  |-----6------|  |-----6------|  |-----6------|
   S  S S  S  S S  S  S S  S  S S  S  S S  S  S S  S  S S  S  S S
|-20p15p0-20p15p0-20p15p0-20p15p0-20p15p0-20p15p0-20p15p0-20p15p0-|
|-----------------------------------------------------------------|
|-----------------------------------------------------------------|
|-----------------------------------------------------------------|
|-----------------------------------------------------------------|
|-----------------------------------------------------------------|


  B
   E       E       E       E       E       E       E       E
   |       |       |       |       |       |       |       |
   /       /       /       /       /       /       /       /

   T       T       T       T       T       T       T       T
   |-----6------|  |-----6------|  |-----6------|  |-----6------|
   S  S S  S  S S  S  S S  S  S S  S  S S  S  S S  S  S S  S  S S
|-19p14p0-19p14p0-19p14p0-19p14p0-19p14p0-19p14p0-19p14p0-19p14p0---||
|------------------------------------------------------------------o||
|-------------------------------------------------------------------||
|-------------------------------------------------------------------||
|------------------------------------------------------------------o||
|-------------------------------------------------------------------||


 Guitar Solo (Part 3)
  E5                       F#G5A5F#G5A5B5
   E E E E   E   E E E   E E E E E E E E
   | | | |   |   | | |   | | | | | | | |
   / / / /   /   / / /   / / / / / / / /

   H        +H           W
|-12-------(12)\-------|-----------------|
|----------------------|-----------------|
|----------------------|-----------------|
|----------------------|-----------------|
|----------------------|-----------------|
|----------------------|-----------------|


  C5            B5  C5B5 A5 G5 B5 A5 G5 F#5
  E E E E E E E E   E  E  E  E  E  E  E  E
  | | | | | | | |   |  |  |  |  |  |  |  |
  / / / / / / / /   /  /  /  /  /  /  /  /

  W                 E  E  E  E  E  E  E  E
|-----------------|------------------------|
|-----------------|---12-12----14-12-------|
|-----------------|---12-12----14-12-------|
|-----------------|---------14-------14-12-|
|-----------------|------------------------|
|-----------------|------------------------|


  E5                         F#G5A5F#G5A5B5  C5            B5  C5B5A5G5B5A5G5F#5
   E  E  E E   E   E E E   E E E E E E E E   E E E E E E E E   E E E E E E E E
   |  |  | |   |   | | |   | | | | | | | |   | | | | | | | |   | | | | | | | |
   /  /  / /   /   / / /   / / / / / / / /   / / / / / / / /   / / / / / / / /

         ~~
   E  E  Q    +Q     Q     W                 W                 W
|------------------------|-----------------|-----------------|-----------------|
|------------------------|-----------------|-----------------|-----------------|
|----12------------------|-----------------|-----------------|-----------------|
|-14----14---(14)\-------|-----------------|-----------------|-----------------|
|------------------------|-----------------|-----------------|-----------------|
|------------------------|-----------------|-----------------|-----------------|


  E5                                F#5  G5   A5F#5G5   A5   B5
   E     E E E   E  E E E         E E    E    E  E E    E    E
   |     | | |   |  | | |         | |    |    |  | |    |    |
   /     / / /   /  / / /         / /    /    /  / /    /    /

                                  |----3----|    |----3----|
   H            +Q..       +S     q    q    q    q    q    Q
|-17b20========(17)r======(17)r|=17---17---17---17---17r==17---|
|------------------------------|-------------------------------|
|------------------------------|-------------------------------|
|------------------------------|-------------------------------|
|------------------------------|-------------------------------|
|------------------------------|-------------------------------|


  C5                  B5  C5B5A5G5B5A5G5F#5
   E  E E E E E   E   E   E E E E E E E E
   |  | | | | |   |   |   | | | | | | | |
   /  / / / / /   /   /   / / / / / / / /

   H.            +Q       W
|-15------------(15)\---|------------------|
|-----------------------|------------------|
|-----------------------|------------------|
|-----------------------|------------------|
|-----------------------|------------------|
|-----------------------|------------------|


  E5                  F#G5A5F#G5    A5 B5
  E E E E E E E E   E E E E E  E     E  E
  | | | | | | | |   | | | | |  |     |  |
  / / / / / / / /   / / / / /  /     /  /

  W                 H       E  E     E  E
|-----------------|--------------------12-|
|-----------------|-----------------12----|
|-----------------|-----------14b15-------|
|-----------------|-----------------------|
|-----------------|-----------------------|
|-----------------|-----------------------|


  C5                    D5C5        B5   C5 B5 A5 G5 B5 A5 G5 F#5
   E    E       E       E  E    E E  E    E  E  E  E  E  E  E  E
   |    |       |       |  |    | |  |    |  |  |  |  |  |  |  |
   /    /       /       /  /    / /  /    /  /  /  /  /  /  /  /

                           ~~~~~
   |-------3-------|
   q       q       q       Q.        E    E  E  E  E  E  E  E  E
|--------------------------------------|---------------------------||
|-15b17---15b17---15b17---15b17-----12-|-15-12-13----12------------||
|--------------------------------------|----------14----12-14------||
|--------------------------------------|----------------------12---||
|--------------------------------------|---------------------------||
|--------------------------------------|---------------------------||


 Pre Out-Chorus
 2/4
  Gtr III
  Q   Q     H         H         H
  |
  o

  Gtrs I, II
  PM|         PM|         PM|
  E E E E   E E E E   E E E E   E E  E E
|---------|---------|---------|----------|
|---------|---------|---------|----------|
|---------|---------|---------|----------|
|---------|---------|---------|----------|
|-----9-5-|-7-----9-|-5-7-----|-----10-9-|
|-0-0-----|---0-0---|-----0-0-|-7-8------|


  H         H         H         H
  PM|         PM|         PM|
  E E E E   E E E E   E E E E   E E  E E
|---------|---------|---------|-----------|
|---------|---------|---------|-----------|
|---------|---------|---------|-----------|
|---------|---------|---------|-----------|
|-----9-5-|-7-----9-|-5-7-----|-----10-9--|
|-0-0-----|---0-0---|-----0-0-|-7-8-------|


  Em
  PM|         PM|         PM|
  E E E E   E E E E   E E E E   E E  E E
|---------|---------|---------|----------|
|---------|---------|---------|----------|
|---------|---------|---------|----------|
|---------|---------|---------|----------|
|-----9-5-|-7-----9-|-5-7-----|-----10-9-|
|-0-0-----|---0-0---|-----0-0-|-7-8------|


  PM|         PM|         PM|
                                |-3--|
  E E E E   E E E E   E E E E   Q Q  Q
|---------|---------|---------|---------||
|---------|---------|---------|---------||
|---------|---------|---------|---------||
|---------|---------|---------|---------||
|-----9-5-|-7-----9-|-5-7-----|-----10--||
|-0-0-----|---0-0---|-----0-0-|-7-8-----||


 Out-Chorus
  Em
  Gtr III
                                           ~~~~~~~~~~
   S       +S   +E   +Q       +Q.          E     +Q.      S  S
|--------------------------|------------------|----------------|
|--------------------------|-------------[12]-|-(12)-----------|
|-14pb15==(14)r(14)-(14)---|-(14)b15----------|----------14-12-|
|--------------------------|------------------|----------------|
|--------------------------|------------------|----------------|
|--------------------------|------------------|----------------|
|
| Gtrs I, II
|  PM----------|                     PM|               PM|
|  E             E    E  E     E     E E   E      E  E E  E
|--------------------------|------------------|----------------|
|--------------------------|------------------|----------------|
|--------------------------|------------------|----------------|
|--------------------------|------------------|----------------|
|---------------------9--5-|---7-----------9--|---5--7---------|
|--0-------------0---------|---------0-0------|--------0--0----|


               Em/G                 Am               Bm
                            |-3-|
   H           Q    E E   E S S S E E   S S E e  E   +H
|------------|----------|-------------|------------|-------------|
|------------|--------7-|-8-7h8p7-----|------------|-------------|
|-14\--------|-----/9---|---------9-7-|------------|-------------|
|------------|----------|-------------|-9s7-5-7-/9-|-(9)\--------|
|------------|----------|-------------|------------|-------------|
|------------|----------|-------------|------------|-------------|
|
|              PM|          PM----|           PM|
|  E  E  E E   E E  E E   E E     E E   E   E E  E    E   E  E E
|------------|----------|-------------|------------|-------------|
|------------|----------|-------------|------------|-------------|
|------------|----------|-------------|------------|-------------|
|------------|----------|-------------|------------|-------------|
|-------10-9-|------9-5-|-7---------9-|-5---7------|--------10-9-|
|--7--8------|-0-0------|---0-----0---|-------0--0-|--7---8------|


  Em                                       Em/G
  H         H         H         H          S T T S S S S S S
|---------|---------|---------|----------|-------------6-7-6-|
|---------|---------|---------|----------|-7-8p7---7-8-------|
|---------|---------|---------|----------|-------9-----------|
|---------|---------|---------|----------|-------------------|
|---------|---------|---------|----------|-------------------|
|---------|---------|---------|----------|-------------------|
|
| PM|         PM|         PM|              PM----|
| E E E E   E E E E   E E E E   E E  E E   E     E   E   E
|---------|---------|---------|----------|-------------------|
|---------|---------|---------|----------|-------------------|
|---------|---------|---------|----------|-------------------|
|---------|---------|---------|----------|-------------------|
|-----9-5-|-7-----9-|-5-7-----|-----10-9-|-----------9---5---|
|-0-0-----|---0-0---|-----0-0-|-7-8------|-0-----0-----------|


              Am                      Bm
                                         ~~~~~~~
  S S S S S S S S   S S S S S S S S   S  S  +E   E E
|-----------------|-----------------|-----------------|
|-7p5-8-7-5-------|-----------------|------------0-0--|
|-----------7-5-4-|-7-5-------------|------------0-0--|
|-----------------|-----7-5-4-7-5-4-|------------0-0--|
|-----------------|-----------------|-7-[6]-(6)-------|
|-----------------|-----------------|-----------------|
|
|     PM--|                 PM--|
| E   E   E   E     E   E   E   E     E      E   E E
|-----------------|-----------------|-----------------|
|-----------------|-----------------|-----------------|
|-----------------|-----------------|-----------------|
|-----------------|-----------------|-----------------|
|-7-----------9---|-5---7-----------|-----------10-9--|
|-----0---0-------|---------0---0---|-7------8--------|


  Em                                       Em/G
  H         H         H         H           S  S  S  S  S  S  S  S
|---------|---------|---------|----------|-17p12-------------------|
|---------|---------|---------|----------|-------15-12----12-------|
|---------|---------|---------|----------|-------------15----15-14-|
|---------|---------|---------|----------|-------------------------|
|---------|---------|---------|----------|-------------------------|
|---------|---------|---------|----------|-------------------------|
|
| PM|         PM|         PM|               PM---|
| E E E E   E E E E   E E E E   E E  E E    E     E     E     E
|---------|---------|---------|----------|-------------------------|
|---------|---------|---------|----------|-------------------------|
|---------|---------|---------|----------|-------------------------|
|---------|---------|---------|----------|-------------------------|
|-----9-5-|-7-----9-|-5-7-----|-----10-9-|--------------9-----5----|
|-0-0-----|---0-0---|-----0-0-|-7-8------|--0-----0----------------|


                 Am                               Bm
   S  S  S  S  E  S  S    S  S  S S  S  S  S  S    S  S  S  S  S  S  S S
|----------------------|------------------------|------------------------|
|-------14----12-------|------------------10-11-|-12-11-12-11-10---------|
|-13----14----12-------|-------11---11-12-------|----------------12-11-9-|
|----14----14----14-12-|-13-14------------------|------------------------|
|----------------------|------------------------|------------------------|
|----------------------|------------------------|------------------------|
|
|        PM---|                      PM---|
|  E     E     E  E       E     E    E     E       E     E     E     E
|----------------------|------------------------|------------------------|
|----------------------|------------------------|------------------------|
|----------------------|------------------------|------------------------|
|----------------------|------------------------|------------------------|
|--7--------------9----|--5-----7---------------|-------------10-----9---|
|--------0-----0-------|-------------0-----0----|--7-----8---------------|


  Em
   |------6------|  |------6------|    |------6------|  |------6------|
   S  S  S  S  S S  S  S  S  S  S S    S  S  S  S  S S  S  S  S  S  S S
|-----------------------------------|-----------------------------------|
|-12p11p10---------12p11p10---------|-12p11p10---------12p11p10---------|
|----------12p11p9----------12p11p9-|----------12p11p9----------12p11p9-|
|-----------------------------------|-----------------------------------|
|-----------------------------------|-----------------------------------|
|-----------------------------------|-----------------------------------|
|
|  PM------|                                    PM-----|
|  E        E       E        E         E        E       E        E
|-----------------------------------|-----------------------------------|
|-----------------------------------|-----------------------------------|
|-----------------------------------|-----------------------------------|
|-----------------------------------|-----------------------------------|
|-------------------9--------5------|--7-------------------------9------|
|--0--------0-----------------------|-----------0-------0---------------|


   |------6------|  |------6------|
   S  S  S  S  S S  S  S  S  S  S S
|------------------------------------|
|-12p11p10---------12p11p10----------|
|----------12p11p9----------12p11p9--|
|------------------------------------|
|------------------------------------|
|------------------------------------|
|
|                   PM------|
|  E        E       E        E
|------------------------------------|
|------------------------------------|
|------------------------------------|
|------------------------------------|
|--5--------7------------------------|
|-------------------0--------0-------|


  Em                           Em/G
   |------6------|
   S  S  S  S  S S   E  S  S    H
|----------------------15-17-|-17b19========|
|-12p11p10---------/17-------|--------------|
|----------12p11p9-----------|--------------|
|----------------------------|--------------|
|----------------------------|--------------|
|----------------------------|--------------|
|
|                               PM----|
|  E        E        E  E       E     E E E
|----------------------------|--------------|
|----------------------------|--------------|
|----------------------------|--------------|
|----------------------------|--------------|
|-------------------10--9----|----------9-5-|
|--7--------8----------------|--0-----0-----|


                             Am                     Bm
                                  ~~~~~                    ~~~~
   +E    E      +S     E.         Q.        E        +S    Q..
|-(17)r-17b19==(17)r-[17]b19---|-17b18-----17b19==|=(17)r-15--------||
|------------------------------|------------------|-----------------||
|------------------------------|------------------|-----------------||
|------------------------------|------------------|-----------------||
|------------------------------|------------------|-----------------||
|------------------------------|------------------|-----------------||
|
|        PM----|                         PM|
|                                                     |-----3-----|
|   E    E       E           E    E    E E  E         Q        Q  Q
|------------------------------|------------------|-----------------||
|------------------------------|------------------|-----------------||
|------------------------------|------------------|-----------------||
|------------------------------|------------------|-----------------||
|---7------------------------9-|--5----7----------|--------------10-||
|--------0-------0-------------|---------0--0-----|---7--------8----||


   Outro
    Em                        D/E
     S  S  S  S  S  S  S  S    S  S  S  S  S  S  S  S
||--15-15-15-15-15-15-15-15-|-14-14-14-14-14-14-14-14-|
||o-17-17-17-17-17-17-17-17-|-15-15-15-15-15-15-15-15-|
||--------------------------|-------------------------|
||--------------------------|-------------------------|
||o-------------------------|-------------------------|
||--------------------------|-------------------------|
|
|    PM---|                          PM---|
|    E     E     E     E       E     E     E     E
||--------------------------|-------------------------|
||o-------------------------|-------------------------|
||--------------------------|-------------------------|
||--------------------------|-------------------------|
||o--------------9-----5----|--7-----------------9----|
||---0-----0----------------|--------0-----0----------|


  C/E                       Bm/E
   S  S  S  S  S  S  S  S    S  S  S    S  S  S     S  S   3x
|-12-12-12-12-12-12-12-12-|-10-10-10---10-10-10S===15-15---||
|-13-13-13-13-13-13-13-13-|-12-12-12---12-12-12S===17-17--o||
|-------------------------|--------------------------------||
|-------------------------|--------------------------------||
|-------------------------|-------------------------------o||
|-------------------------|--------------------------------||
|
|              PM---|
|                            |---------3---------|
|  E     E     E     E       Q       Q           Q         3x
|-------------------------|--------------------------------||
|-------------------------|-------------------------------o||
|-------------------------|--------------------------------||
|-------------------------|--------------------------------||
|--5-----7----------------|---------------------10--------o||
|--------------0-----0----|--7-------8---------------------||


  Em                        D/E
   S  S  S  S  S  S  S  S    S  S  S  S  S  S  S  S
|-15-15-15-15-15-15-15-15-|-14-14-14-14-14-14-14-14-|
|-17-17-17-17-17-17-17-17-|-15-15-15-15-15-15-15-15-|
|-------------------------|-------------------------|
|-------------------------|-------------------------|
|-------------------------|-------------------------|
|-------------------------|-------------------------|
|
|  PM---|                          PM---|
|  E     E     E     E       E     E     E     E
|-------------------------|-------------------------|
|-------------------------|-------------------------|
|-------------------------|-------------------------|
|-------------------------|-------------------------|
|--------------9-----5----|--7-----------------9----|
|--0-----0----------------|--------0-----0----------|


  Am/E                                                     Em
   S  S  S  S  S  S  S  S    S  S  S    S  S  S     S  S    Q   Q
|-17-17-17-17-17-17-17-17-|-17-17-17---17-17-17----17-17-|-----------*|
|-17-17-17-17-17-17-17-17-|-17-17-17---17-17-17----17-17-|-----------*|
|-------------------------|------------------------------|-16\-------*|
|-------------------------|------------------------------|-----------*|
|-------------------------|------------------------------|-----------*|
|-------------------------|------------------------------|-----------*|
|
|              PM---|
|                            |---------3---------|
|  E     E     E     E       Q       Q           Q          Q   Q
|-------------------------|------------------------------|-----------*|
|-------------------------|------------------------------|-----------*|
|-------------------------|------------------------------|-----------*|
|-------------------------|------------------------------|--2--------*|
|--5-----7----------------|---------------------10-------|--2--------*|
|--------------0-----0----|--7-------8-------------------|--0--------*|



Duration Legend
---------------
W - whole; H - half; Q - quarter; E - 8th; S - 16th; T - 32nd; X - 64th; a - acciaccatura
+ - note tied to previous; . - note dotted; .. - note double dotted
Uncapitalized letters represent notes that are staccato (1/2 duration)
Irregular groupings are notated above the duration line
Duration letters will always appear directly above the note/fret number it represents the
duration for.  Duration letters with no fret number below them represent rests.  Multi-
bar rests are notated in the form Wxn, where n is the number of bars to rest for.  Low
melody durations appear below the staff

Tablature Legend
----------------
 h   - hammer-on
 p   - pull-off
 b   - bend
 pb  - pre-bend
 r   - bend release (if no number after the r, then release immediately)
 /\  - slide into or out of (from/to "nowhere")
 s   - legato slide
 S   - shift slide
<n> - natural harmonic
[n]  - artificial harmonic
n(n) - tapped harmonic
 ~   - vibrato
 tr  - trill
 T   - tap
 TP  - trem. picking
 PM  - palm muting
\n/  - tremolo bar dip; n = amount to dip
 \n  - tremolo bar down
 n/  - tremolo bar up
/n\  - tremolo bar inverted dip
 =   - hold bend; also acts as connecting device for hammers/pulls
 <> - volume swell (louder/softer)
 x   - on rhythm slash represents muted slash
 o   - on rhythm slash represents single note slash

Misc Legend
-----------
 |  - bar
||  - double bar
||o - repeat start
o|| - repeat end
*|  - double bar (ending)
 :  - bar (freetime)
 $  - Segno
 &  - Coda
Tempo markers - <E/E./Q/Q./H/H.> = BPM(8/16=s8/s16), where s8 = swing 8ths, s16 = swing 16ths

comments
We did not receive enough feedback on this tab! Please rate:
print report bad tab
1 2 3 4 5
I want to post or [tab]
guest
You may want to rate the tab now too:
select rating
Please do not post tabs as comments. Select "correction" instead!