Oops, an error
Loading. Please wait.

Dread And The Fugitive Mind Tab

ver3
20,427 views 30 this week
6 commentsread comments
1 2 3 4 5
accurate
x 21
Autoscroll
+/-
esc
set tempo
stop
Contributor
Hey! There's an official Ultimate Guitar app which is ideal
for learning songs when you're away from computer. Get the app
WARNING: You are trying to view
                                    content from Ultimate-Guitar.com
                                    in an unauthorized application,
                                    which is prohibited.

                                    Please use an official Ultimate
                                    Guitar Tabs application for iPhone,
                                    iPad or Android to access legitimate
                                    chords, guitar, bass, and drum tabs
                                    from Ultimate-Guitar.com database.

                                    Type "ultimate guitar tabs" in Apple
                                    App Store's or Android Market's
                                    search to find the application.
Megadeth - Dread and the Fugitive Mind
Album - The World Needs A Hero
Tabbed By - Garry Foster (gazfoster@hotmail.com)

                                                  8x
E||--------------------------|--------------------||-------------------------|
B||--------------------------|--------------------||-------------------------|
G||*-------------------------|-------------------*||-------------------------|
D||*----------------5-----4--|-------------------*||--7----------5--5--------|
A||---2-------------3-----2--|--2-----------------||--7----------7--7--------|
E||---0----0--2--3-----0-----|--0-----------------||-------0--0--------0--0--|


--------------------------|--------------------------|
--------------------------|--------------------------|
--------------------------|--------------------------|
--7--7--------5--5--------|--4--4--------5--5--------|
--7--7--------7--7--------|--5--5--------5--5--------|
--------0--0--------0--0--|--------0--0--------0--0--|


--------------------------|--------------------------|
--------------------------|--------------------------|
--------------------------|--------------------------|
--4--4--------5--5--------|--2--2--------0--0--------|
--5--5--------5--5--------|--3--3--------3--3--------|
--------0--0--------0--0--|--------0--0--------0--0--|


--------------------------|--------------------------|
--------------------------|--------------------------|
--------------------------|--------------------------|
--2--2--------0--0--------|--5--5--------4--4--------|
--3--3--------3--3--------|--5--5--------5--5--------|
--------0--0--------0--0--|--------0--0--------0--0--|


--------------------------||--------------------------|
--------------------------||--------------------------|
--------------------------||*-------------------------|
--7--7--------5--5--------||*----------9--------9-----|
--7--7--------7--7--------||---5----7-----5--7-----5--|
--------0--0--------0--0--||--------------------------|


--------------------------|-------------------------|--------------------------|
--------------------------|-------------------------|--------------------------|
--------------------------|-------------------------|--------------------------|
-----9--------9--------9--|----------9--------9-----|-----9--------9--------9--|
--7-----5--7-----5--7-----|-------7--------7--------|--7--------7--------7-----|
--------------------------|--8----------8--------8--|--------8--------8--------|


-------------------------|--------------------------|-------------------------|
-------------------------|--------------------------|-------------------------|
-------------------------|--------------------------|-------------------------|
----------9--------9-----|-----9--------9--------9--|----------4--------5-----|
-------7--------7--------|--7--------7--------7-----|-------6--------6--------|
--5----------5--------5--|--------5--------5--------|--7----------7--------7--|


---------------------------||-------------------------|
---------------------------||-------------------------|
--------------------------*||-------------------------|
-----4--------5-----4-----*||----------4--------5-----|
--6--------6-----------6---||-------6--------6--------|
--------7--------7---------||--7----------7--------7--|


                                                                           8x
--------------------------||--------------------------|--------------------||
--------------------------||--------------------------|--------------------||
--------------------------||*-------------------------|-------------------*||
-----4--------5-----4-----||*----------------5-----4--|-------------------*||
--6--------6-----------6--||---2-------------3-----2--|--2-----------------||
--------7--------7--------||---0----0--2--3-----0-----|--0-----------------||


-------------------------|--------------------------|--------------------------|
-------------------------|--------------------------|--------------------------|
-------------------------|--------------------------|--------------------------|
--7----------5--5--------|--7--7--------5--5--------|--4--4--------5--5--------|
--7----------7--7--------|--7--7--------7--7--------|--5--5--------5--5--------|
-------0--0--------0--0--|--------0--0--------0--0--|--------0--0--------0--0--|


--------------------------|--------------------------|
--------------------------|--------------------------|
--------------------------|--------------------------|
--4--4--------5--5--------|--2--2--------0--0--------|
--5--5--------5--5--------|--3--3--------3--3--------|
--------0--0--------0--0--|--------0--0--------0--0--|


--------------------------|--------------------------|
--------------------------|--------------------------|
--------------------------|--------------------------|
--2--2--------0--0--------|--5--5--------4--4--------|
--3--3--------3--3--------|--5--5--------5--5--------|
--------0--0--------0--0--|--------0--0--------0--0--|


--------------------------||--------------------------|
--------------------------||--------------------------|
--------------------------||*-------------------------|
--7--7--------5--5--------||*----------9--------9-----|
--6--6--------6--6--------||---5----7-----5--7-----5--|
--------0--0--------0--0--||--------------------------|


--------------------------|-------------------------|--------------------------|
--------------------------|-------------------------|--------------------------|
--------------------------|-------------------------|--------------------------|
-----9--------9--------9--|----------9--------9-----|-----9--------9--------9--|
--7-----5--7-----5--7-----|-------7--------7--------|--7--------7--------7-----|
--------------------------|--8----------8--------8--|--------8--------8--------|


-------------------------|--------------------------|-------------------------|
-------------------------|--------------------------|-------------------------|
-------------------------|--------------------------|-------------------------|
----------9--------9-----|-----9--------9--------9--|----------4--------5-----|
-------7--------7--------|--7--------7--------7-----|-------6--------6--------|
--5----------5--------5--|--------5--------5--------|--7----------7--------7--|


---------------------------||-------------------------|
---------------------------||-------------------------|
--------------------------*||-------------------------|
-----4--------5-----4-----*||----------4--------5-----|
--6--------6-----------6---||-------6--------6--------|
--------7--------7---------||--7----------7--------7--|


                                                         8x
--------------------------||-----------------------------||
--------------------------||-----------------------------||
--------------------------||*---------------------------*||
-----4--------5-----4-----||*---------------------------*||
--6--------6-----------6--||-------------------2---------||
--------7--------7--------||---0-0-0-0-2-2-3-3-0---------||


----------------------|-----------------------|---------------------|
----------------------|-----------------------|---------------------|
*---------------------|-----------------------|---------------------|
*----------------9----|--9/-10----9-----------|----------------9----|
---5------7-----------|------------------7----|---------7-----------|
----------------------|-----------------------|--8------------------|


-----------------------|---------------------|-----------------------|
-----------------------|---------------------|-----------------------|
-----------------------|---------------------|-----------------------|
--9/-10----9-----------|----------------9----|--9/-10----9-----------|
------------------7----|---------7-----------|------------------7----|
-----------------------|--5------------------|-----------------------|


---------------------|-----------------------||---------------------------|
---------------------|-----------------------||---------------------------|
---------------------|----------------------*||*--------------------------|
----------------4----|--4/-5----4-----------*||*--------9--------7--------|
---------6-----------|-----------------6-----||---5--7-----5--7-----5--7--|
--7------------------|-----------------------||---------------------------|


--------------------------|--------------------------|
--------------------------|--------------------------|
--------------------------|--------------------------|
--5--------7-----5-----5--|--------9--------7--------|
-----5--7-----7-----5-----|-----7--------7--------7--|
--------------------------|--8--------8--------8-----|


--------------------------|--------------------------|
--------------------------|--------------------------|
--------------------------|--------------------------|
--5--------7-----5-----5--|--------9--------7--------|
--------7-----7-----------|-----7--------7--------7--|
-----8--------------8-----|--5--------5--------5-----|


--------------------------|--------------------------|
--------------------------|--------------------------|
--------------------------|--------------------------|
--5--------7-----5-----5--|--------4--------5--------|
--------7-----7-----------|-----6--------6--------6--|
-----5--------------5-----|--7--------7--------7-----|


---------------------------||---------------------|----------------------|
---------------------------||---------------------|----------------------|
--------------------------*||---------------------|----------------------|
--4--------5-----4--------*||---------4------7/---|--10------9------7/---|
--------6--------------5---||--5------------------|----------------------|
-----7--------7-----7------||---------------------|----------------------|


-------------------|--------------------|--------------------|
-------------------|--------------------|--10b---------------|
-------------------|--------------------|--------------------|
--5~---------------|--5/-7~-------------|--------------------|
-------------------|--------------------|--------------------|
-------------------|--------------------|--------------------|


--------------------------|-----------------------|
------10r-----------------|--10--8/-10~-----------|
------------12--11---12---|-----------------------|
--------------------------|-----------------------|
--------------------------|-----------------------|
--------------------------|-----------------------|


--10h-8h-7~---------------------|------------------------------|
--------------------------------|--7--8--7h8h7-----------------|
----------------------------9---|--------------9--7------------|
------------------------9-------|--------------------9--7--10--|
--------------------------------|------------------------------|
--------------------------------|------------------------------|


------------------------------|----------------------|
------------------------------|----------------------|
------------------------------|----------------------|
--7--9--10h9h7------7---------|----------------------|
----------------10-----10--9--|--7--7~-----6--6~-----|
------------------------------|----------------------|


--------------------------------------------|--14~-----15--------------|
----------------12h11-12h11-----------------|--------------17----------|
----------12-14-------------14-12-11-12-14--|----------------------16--|
----12-14-----------------------------------|--------------------------|
--------------------------------------------|--------------------------|
--------------------------------------------|--------------------------|


--14~-----15----------17b-|--17~-----------20----|
--------------17----------|----------------------|
--------------------------|----------------------|
--------------------------|----------------------|
--------------------------|----------------------|
--------------------------|----------------------|


--17-15-17~-------14--15--17--|--15b-----19--15~-----14--|
------------------------------|--------------------------|
------------------------------|--------------------------|
------------------------------|--------------------------|
------------------------------|--------------------------|
------------------------------|--------------------------|


--15~-----14--12~-----14--|--11~---------------|
--------------------------|--------------------|
--------------------------|--------------------|
--------------------------|--------------------|
--------------------------|--------------------|
--------------------------|--------------------|


--12-17-12------------------------------------|--------------------|
-----------15-12-------15-12------------------|--17~---------------|
-----------------14-12-------14-12------------|--------------------|
-----------------------------------14-13-12---|--------------------|
----------------------------------------------|--------------------|
----------------------------------------------|--------------------|


--------------------------------------|
-----12-15-12-----12------------------|
--------------14-----14-12-14-14-12---|
--------------------------------------|
--------------------------------------|
--------------------------------------|


----------------------------------------12-14-|
-------------12----------------12-14-15-------|
----12-14-15----15-14-12-14-15----------------|
----------------------------------------------|
----------------------------------------------|
----------------------------------------------|


--15-12-14-12---------------------------|--------------------|
--------------15-12-15-12---------------|--17b---------------|
--------------------------14-12---------|--------------------|
--------------------------------14------|--------------------|
----------------------------------------|--------------------|
----------------------------------------|--------------------|


------------------------|--20~-------------20--|--19--19b---19b---19~-----|
--17~-------------------|----------------------|--------------------------|
----------------19--19--|----------------------|--------------------------|
------------------------|----------------------|--------------------------|
------------------------|----------------------|--------------------------|
------------------------|----------------------|--------------------------|


-----------------------------------|----------------------------------|
----8-10-7-8-7---------------------|----------------------------------|
---------------9-7-7-9-7-7----7----|--7-------------------------------|
---------------------------10---10-|----10-9-7-10-7-9-7---------------|
-----------------------------------|--------------------9-9-10-9-7----|
-----------------------------------|----------------------------------|


----------------------------------|--------------------------------|
----8-10-7-8-7--------------------|--------------------------------|
---------------9-7-7-9-7-7--------|-------------------7-8-7-7------|
---------------------------7-10-7-|--10-7------7-9-10--------------|
----------------------------------|-------9-10---------------------|
----------------------------------|--------------------------------|


-------------------------------------|---------------------------------------|
----8-10-8-7-10-7-8-10-8-7-10-7-8-10-|--8-7-10-7-8-10-8-7-10-7-8-10-8-7-10-7-|
-------------------------------------|---------------------------------------|
-------------------------------------|---------------------------------------|
-------------------------------------|---------------------------------------|
-------------------------------------|---------------------------------------|


--22--22b-------------|--22~---------------|
----------------------|--------------------|
----------------------|--------------------|
----------------------|--------------------|
----------------------|--------------------|
----------------------|--------------------|


----19--15------17--12------15--10------13-8-|
------------16----------13----------10-------|
---------------------------------------------|
---------------------------------------------|
---------------------------------------------|
---------------------------------------------|


-----10-10-8-7-8-7----7--------------|-------------------|------------------|
--8----------------10---10-7---7-----|-------------------|------------------|
-----------------------------9---9-7-|--9/---------------|------------------|
-------------------------------------|-------------------|------------------|
-------------------------------------|-------------------|------------------|
-------------------------------------|-------------------|------------------|


------------------|------------------|-----------------------|
------------------|------------------|-----------------------|
------------------|------------------|-----------------------|
------------------|------------------|-----------------------|
------------------|------------------|--2-------------2------|
------------------|------------------|--0----0--2--3--0------|


-------------------------|-------------------------|-------------------|
-------------------------|-------------------------|-------------------|
-------------------------|-------------------------|-------------------|
----------------5-----4--|----------------5-----4--|-------------------|
--2-------------3-----2--|--2-------------3-----2--|--2----------------|
--0----0--2--3-----0-----|--0----0--2--3-----0-----|--0----------------|


-----------------------|-------------------------|-------------------------|
-----------------------|-------------------------|-------------------------|
-----------------------|-------------------------|-------------------------|
-----------------------|----------------5-----4--|----------------5-----4--|
--2-------------2------|--2-------------3-----2--|--2-------------3-----2--|
--0----0--2--3--0------|--0----0--2--3-----0-----|--0----0--2--3-----0-----|


-------------------|-----------------------|-------------------------|
-------------------|-----------------------|-------------------------|
-------------------|-----------------------|-------------------------|
-------------------|-----------------------|----------------5-----4--|
--2----------------|--2-------------2------|--2-------------3-----2--|
--0----------------|--0----0--2--3--0------|--0----0--2--3-----0-----|


-------------------------|-------------------||
-------------------------|-------------------||
-------------------------|-------------------||
----------------5-----4--|-------------------||
--2-------------3-----2--|--2----------------||
--0----0--2--3-----0-----|--0----------------||


Rhythm Behind Solo -

||---------------------|---------------------|
||---------------------|---------------------|
||---------------------|---------------------|
||---------1------4/---|--7------5------4/---|
||--2------------------|---------------------|
||---------------------|---------------------|


-------------------|--------------------|-------------------------|
-------------------|--------------------|-------------------------|
-------------------|--------------------|-------------------------|
--2~---------------|--2/-4~-------------|--9----------------------|
-------------------|--------------------|--7----7--7--7--7--7--7--|
-------------------|--------------------|-------------------------|


--------------------------|--------------------------|
--------------------------|--------------------------|
--------------------------|--------------------------|
--------------------9-----|--------------------------|
--7--7--7--7--7--7--7-----|--10----------------------|
-----------------------0--|--8-----8--8--8--8--8--8--|


---------------------------|-------------------------|
---------------------------|-------------------------|
---------------------------|-------------------------|
---------------------------|-------------------------|
--------------------10-----|--7----------------------|
--8--8--8--8--8--8--8---0--|--5----5--5--5--5--5--5--|


--------------------------|-------------------------|------------------------|
--------------------------|-------------------------|------------------------|
--------------------------|-------------------------|------------------------|
--------------------------|-------------------------|--5---------------------|
--------------------7-----|--9----------------9-----|--3----3--3--9----------|
--5--5--5--5--5--5--5--0--|--7----7--7--7--7--7--0--|-------------7----7--7--|


-------------------------|--------------------------|--------------------------|
-------------------------|--------------------------|--------------------------|
-------------------------|--------------------------|--------------------------|
--9----------------------|--------------------9-----|--------------------------|
--7----7--7--7--7--7--7--|--7--7--7--7--7--7--7-----|--10----------------------|
-------------------------|-----------------------0--|--8-----8--8--8--8--8--8--|


---------------------------|-------------------------|
---------------------------|-------------------------|
---------------------------|-------------------------|
---------------------------|-------------------------|
--------------------10-----|--7----------------------|
--8--8--8--8--8--8--8---0--|--5----5--5--5--5--5--5--|


--------------------------|-------------------------|------------------------|
--------------------------|-------------------------|------------------------|
--------------------------|-------------------------|------------------------|
--------------------------|-------------------------|--5---------------------|
--------------------7-----|--9----------------9-----|--3----3--3--9----------|
--5--5--5--5--5--5--5--0--|--7----7--7--7--7--7--0--|-------------7----7--7--|


-------------------------|--------------------------|--------------------------|
-------------------------|--------------------------|--------------------------|
-------------------------|--------------------------|--------------------------|
--9----------------------|--------------------9-----|--------------------------|
--7----7--7--7--7--7--7--|--7--7--7--7--7--7--7-----|--10----------------------|
-------------------------|-----------------------0--|--8-----8--8--8--8--8--8--|


---------------------------|-------------------------|
---------------------------|-------------------------|
---------------------------|-------------------------|
---------------------------|-------------------------|
--------------------10-----|--7----------------------|
--8--8--8--8--8--8--8---0--|--5----5--5--5--5--5--5--|


--------------------------|-------------------------|------------------------|
--------------------------|-------------------------|------------------------|
--------------------------|-------------------------|------------------------|
--------------------------|-------------------------|--5---------------------|
--------------------7-----|--9----------------9-----|--3----3--3--9----------|
--5--5--5--5--5--5--5--0--|--7----7--7--7--7--7--0--|-------------7----7--7--|


-------------------------|--------------------------|--------------------------|
-------------------------|--------------------------|--------------------------|
-------------------------|--------------------------|--------------------------|
--9----------------------|--------------------9-----|--------------------------|
--7----7--7--7--7--7--7--|--7--7--7--7--7--7--7-----|--10----------------------|
-------------------------|-----------------------0--|--8-----8--8--8--8--8--8--|


---------------------------|-------------------------|
---------------------------|-------------------------|
---------------------------|-------------------------|
---------------------------|-------------------------|
--------------------10-----|--7----------------------|
--8--8--8--8--8--8--8---0--|--5----5--5--5--5--5--5--|


--------------------------|-------------------------|------------------------|
--------------------------|-------------------------|------------------------|
--------------------------|-------------------------|------------------------|
--------------------------|-------------------------|--5---------------------|
--------------------7-----|--9----------------9-----|--3----3--3--9----------|
--5--5--5--5--5--5--5--0--|--7----7--7--7--7--7--0--|-------------7----7--7--|


-------------------------|------------------------||
-------------------------|------------------------||
-------------------------|------------------------||
-------------------------|--5---------------------||
--9----------------9-----|--3----3--3--9----------||
--7----7--7--7--7--7--0--|-------------7----7--7--||


gazfoster@hotmail.com
comments
print report bad tab
6 comments total. Showing first comments.
0 reply
funeralforafrie wrote on March 25 2004, 12:00 am

Meh :[ I wish I could tab like you man :(, ahh well nice job, got the album the other day, ***ing classic

0 reply
Bleed Black wrote on April 18 2004, 12:00 am

Thank You =) ...but you can tab like me...you can tab BETTER!

0 reply
the_jammer wrote on November 14 2005, 08:28 pm

very good tab...this tab is quite good.

I want to post or [tab]
guest
You may want to rate the tab now too:
select rating
Please do not post tabs as comments. Select "correction" instead!