Oops, an error
Loading. Please wait.

Dread And The Fugitive Mind Tab

ver6
ver6
More versions @911Tabs.com
1,716 views 1 this week
no commentswrite comment
1 2 3 4 5
please rate
Autoscroll
+/-
esc
set tempo
stop
Contributor
Tuning
D# G# C# F# A# D#
WARNING: You are trying to view
                                    content from Ultimate-Guitar.com
                                    in an unauthorized application,
                                    which is prohibited.

                                    Please use an official Ultimate
                                    Guitar Tabs application for iPhone,
                                    iPad or Android to access legitimate
                                    chords, guitar, bass, and drum tabs
                                    from Ultimate-Guitar.com database.

                                    Type "ultimate guitar tabs" in Apple
                                    App Store's or Android Market's
                                    search to find the application.
#----------------------------------PLEASE NOTE---------------------------------#
#This file is the author's own work and represents their interpretation of the #
#song. You may only use this file for private study, scholarship, or research. #
#------------------------------------------------------------------------------#

DREAD & THE FUGITIVE MIND
As recorded by Megadeth
(From the 2001 Album THE WORLD NEEDS A HERO)

Transcribed by Fenian
	

Words and Music by Dave Mustaine

E5
x 7 9 x x x
	
C5VIII
8 10 x x x x
	
A5
5 7 x x x x
	
B5
7 9 x x x x

E5open
0 2 x x x x
	
B5II
x 2 4 x x x
	
C5III
x 3 5 x x x

Gtr I (Eb Ab Db Gb Bb Eb) - 'Untitled'
Gtr II (Eb Ab Db Gb Bb Eb) - 'Untitled'
Gtr III (Eb Ab Db Gb Bb Eb) - 'Untitled'

                 Verse
  Moderately Fast Rock Q=164
            E5open          C5IIB5E5opN.C.      E5open        C5IIB5E5open
 4/4
  Gtrs I, II
                      PM--|   PM                        PM--|   PM
  H    Q  E E     +E  E E E E E E E   H    Q  E E   +E  E E E E E E E
|-------------||--------------------|-------------|-------------------|
|-------------||o-------------------|-------------|-------------------|
|-------------||--------------------|-------------|-------------------|
|-------------||------------5---4---|-------------|-----------5---4---|
|-----------2-||o-(2)-------3-0-2-2-|-----------2-|-(2)-------3-0-2-2-|
|-----------0-||--(0)-0-2-3-------0-|-----------0-|-(0)-0-2-3-------0-|


  N.C.      E5open        C5IIB5E5N.C.        E5open        C5IIB5E5open
                    PM--|   PM                        PM--|   PM
  H    Q  E E   +E  E E E E E E E   H    Q  E E   +E  E E E E E E E
|-------------|-------------------|-------------|-------------------|
|-------------|-------------------|-------------|-------------------|
|-------------|-------------------|-------------|-------------------|
|-------------|-----------5---4---|-------------|-----------5---4---|
|-----------2-|-(2)-------3-0-2-2-|-----------2-|-(2)-------3-0-2-2-|
|-----------0-|-(0)-0-2-3-------0-|-----------0-|-(0)-0-2-3-------0-|


  N.C.      E5open        C5IIB5E5opN.C.      E5open        C5IIB5E5open
                    PM--|   PM                        PM--|   PM
  H    Q  E E   +E  E E E E E E E   H    Q  E E   +E  E E E E E E E
|-------------|-------------------|-------------|-------------------|
|-------------|-------------------|-------------|-------------------|
|-------------|-------------------|-------------|-------------------|
|-------------|-----------5---4---|-------------|-----------5---4---|
|-----------2-|-(2)-------3-0-2-2-|-----------2-|-(2)-------3-0-2-2-|
|-----------0-|-(0)-0-2-3-------0-|-----------0-|-(0)-0-2-3-------0-|


  N.C.      E5open        C5IIB5E5opN.C.      E5open        C5IIB5E5open
                    PM--|   PM                        PM--|   PM
  H    Q  E E   +E  E E E E E E E   H    Q  E E   +E  E E E E E E E
|-------------|-------------------|-------------|-------------------|
|-------------|-------------------|-------------|-------------------|
|-------------|-------------------|-------------|-------------------|
|-------------|-----------5---4---|-------------|-----------5---4---|
|-----------2-|-(2)-------3-0-2-2-|-----------2-|-(2)-------3-0-2-2-|
|-----------0-|-(0)-0-2-3-------0-|-----------0-|-(0)-0-2-3-------0-|


                Pre-Chorus
  N.C.      Emadd4       Em        Emadd4
                     PM|       PM|
  H    Q  E E    +E  E E E +E  E E E
|-------------||---------------------|
|-------------||---------------------|
|-------------||---------------------|
|-----------7-||-(7)-----5-(5)-----7-|
|-----------7-||-(7)-----7-(7)-----7-|
|-------------||-----0-0-------0-0---|


          Em        D/E         Dsus4/E   D/E
      PM|       PM|         PM|       PM|
  +E  E E E +E  E E E   +E  E E E +E  E E E
|---------------------|---------------------|
|---------------------|---------------------|
|---------------------|---------------------|
|-(7)-----5-(5)-----4-|-(4)-----5-(5)-----4-|
|-(7)-----7-(7)-----5-|-(5)-----5-(5)-----5-|
|-----0-0-------0-0---|-----0-0-------0-0---|


          Dsus4/E   C/E         Csus2/E   C/E
      PM|       PM|         PM|       PM|
  +E  E E E +E  E E E   +E  E E E +E  E E E
|---------------------|---------------------|
|---------------------|---------------------|
|---------------------|---------------------|
|-(4)-----5-(5)-----2-|-(2)-----0-(0)-----2-|
|-(5)-----5-(5)-----3-|-(3)-----3-(3)-----3-|
|-----0-0-------0-0---|-----0-0-------0-0---|


          Csus2/E   Dsus4/E     D/E       D#b5/E
      PM|       PM|         PM|       PM|
  +E  E E E +E  E E E   +E  E E E +E  E E E
|---------------------|---------------------|
|---------------------|---------------------|
|---------------------|---------------------|
|-(2)-----0-(0)-----5-|-(5)-----4-(4)-----7-|
|-(3)-----3-(3)-----5-|-(5)-----5-(5)-----6-|
|-----0-0-------0-0---|-----0-0-------0-0---|


                        Chorus
          D#/E      Em7
      PM|       PM|
  +E  E E E +E  E E E    +E  E E E E E E E
|---------------------||-------------------|
|---------------------||-------------------|
|---------------------||-------------------|
|-(7)-----5-(5)-------||-------9-----9-----|
|-(6)-----6-(6)-----5-||-(5)-7---5-7---5-7-|
|-----0-0-------0-0---||-------------------|


                Cmaj7
  E E E E E E E E   +E  E E E E E E E
|-----------------|-------------------|
|-----------------|-------------------|
|-----------------|-------------------|
|-9-----9-----9---|-------9-----9-----|
|---5-7---5-7-----|-----7-----7-----7-|
|---------------8-|-(8)-----8-----8---|


                Asus2                                 B           B+    B
  E E E E E E E E   +E  E E E E E E E   E E E E E E E E   +E  E E E E E E E
|-----------------|-------------------|-----------------|-------------------|
|-----------------|-------------------|-----------------|-------------------|
|-----------------|-------------------|-----------------|-------------------|
|-9-----9-----9---|-------9-----9-----|-9-----9-----9---|-------4-----5-----|
|-----7-----7-----|-----7-----7-----7-|-----7-----7---2-|-(2)-6---2-6---2-6-|
|---8-----8-----5-|-(5)-----5-----5---|---5-----5-------|-------------------|


    B+    B     Em7                                   Cmaj7
  E E E E E E E E   +E  E E E E E E E   E E E E E E E E   +E  E E E E E E E
|-----------------|-------------------|-----------------|-------------------|
|-----------------|-------------------|-----------------|-------------------|
|-----------------|-------------------|-----------------|-------------------|
|-4-----5---4-----|-------9-----9-----|-9-----9-----9---|-------9-----9-----|
|---2-6---2---6-5-|-(5)-7---5-7---5-7-|---5-7---5-7-----|-----7-----7-----7-|
|-----------------|-------------------|---------------8-|-(8)-----8-----8---|


                Asus2                                 B           B+    B
  E E E E E E E E   +E  E E E E E E E   E E E E E E E E   +E  E E E E E E E
|-----------------|-------------------|-----------------|-------------------|
|-----------------|-------------------|-----------------|-------------------|
|-----------------|-------------------|-----------------|-------------------|
|-9-----9-----9---|-------9-----9-----|-9-----9-----9---|-------4-----5-----|
|-----7-----7-----|-----7-----7-----7-|-----7-----7---2-|-(2)-6---2-6---2-6-|
|---8-----8-----5-|-(5)-----5-----5---|---5-----5-------|-------------------|


                                       1.
    B+    B                 B+    B       B+    B     E5open
  E E E E E E E E   +E  E E E E E E E   E E E E E E E E
|-----------------|-------------------|------------------||
|-----------------|-------------------|-----------------o||
|-----------------|-------------------|------------------||
|-4-----5---4-----|-------4-----5-----|-4-----5---4------||
|---2-6---2---6-2-|-(2)-6---2-6---2-6-|---2-6---2---6-2-o||
|-----------------|-------------------|---------------0--||


                     Interlude
  2.
    B+    B           N.C.            E5open   N.C.            E5open
                      PM--------------|        PM--------------|
  E E E E E E E E     S S S S S S S S E E Q    S S S S S S S S E E Q    4x
|-----------------||-------------------------|--------------------------||
|-----------------||o------------------------|-------------------------o||
|-----------------||-------------------------|--------------------------||
|-4-----5---4-----||-------------------------|--------------------------||
|---2-6---2---6-2-||o-----------------2------|-----------------2-------o||
|-----------------||--0-0-0-0-2-2-3-3-0------|-0-0-0-0-2-2-3-3-0--------||


    N.C.             E5open     N.C.                  E5open
    Gtr III
    Q.           E   +Q    Q    +E    a  Q.           Q   Q
||----------------------------|------------------------------|
||o---------------------------|------------------------------|
||----------------------------|------------------------------|
||-------------------------9--|-(9)---9h10------------9------|
||o-5------------7---(7)------|---------------------------7--|
||----------------------------|------------------------------|
|
|   Gtrs I, II
|   PM---------------|           PM-------------------|
|   S  S S S S S S S  E  E Q     S  S    S  S S S S S E E Q
||----------------------------|------------------------------|
||o---------------------------|------------------------------|
||----------------------------|------------------------------|
||----------------------------|------------------------------|
||o-------------------2-------|-----------------------2------|
||--0--0-0-0-2-2-3-3--0-------|--0--0----0--0-2-2-3-3-0------|


  N.C.             E5open     N.C.                  E5open
  ~~
  Q.           E   +Q    Q    +E    a  Q.           Q   Q
|---------------------------|------------------------------|
|---------------------------|------------------------------|
|---------------------------|------------------------------|
|------------------------9--|-(9)---9h10------------9------|
|--------------7---(7)------|---------------------------7--|
|-8-------------------------|------------------------------|
|
| PM---------------|           PM-------------------|
| S  S S S S S S S  E  E Q     S  S    S  S S S S S E E Q
|---------------------------|------------------------------|
|---------------------------|------------------------------|
|---------------------------|------------------------------|
|---------------------------|------------------------------|
|-------------------2-------|-----------------------2------|
|-0--0-0-0-2-2-3-3--0-------|--0--0----0--0-2-2-3-3-0------|


  N.C.             E5open     N.C.                  E5open
  Q.           E   +Q    Q    +E    a  Q.           Q   Q
|---------------------------|-------------------------------|
|---------------------------|-------------------------------|
|---------------------------|-------------------------------|
|------------------------9--|-(9)---9h10------------9-------|
|--------------7---(7)------|---------------------------7\--|
|-5-------------------------|-------------------------------|
|
| PM---------------|           PM-------------------|
| S  S S S S S S S  E  E Q     S  S    S  S S S S S E E Q
|---------------------------|-------------------------------|
|---------------------------|-------------------------------|
|---------------------------|-------------------------------|
|---------------------------|-------------------------------|
|-------------------2-------|-----------------------2-------|
|-0--0-0-0-2-2-3-3--0-------|--0--0----0--0-2-2-3-3-0-------|


  N.C.             E5open     N.C.                 E5open
  Q.           E   +Q    Q    +E    a Q.           Q   Q
|---------------------------|-------------------------------||
|---------------------------|------------------------------o||
|---------------------------|-------------------------------||
|------------------------4--|-(4)---4h5------------4--------||
|-2------------6---(6)------|--------------------------6---o||
|---------------------------|-------------------------------||
|
| PM---------------|           PM------------------|
| S  S S S S S S S  E  E Q     S  S   S  S S S S S E E Q
|---------------------------|-------------------------------||
|---------------------------|------------------------------o||
|---------------------------|-------------------------------||
|---------------------------|-------------------------------||
|-------------------2-------|----------------------2-------o||
|-0--0-0-0-2-2-3-3--0-------|--0--0---0--0-2-2-3-3-0--------||


    N.C.            E5open        N.C.            E5open
    Gtr III
    H               Q    Q        H               Q    Q
||------------------------------|-----------------------------|
||o---------------------12------|---------------------15------|
||----------------------14b16---|---------------------17b19---|
||------------------------------|-----------------------------|
||o-----------------------------|-----------------------------|
||------------------------------|-----------------------------|
|
|   Gtr II
|   E   E   E   E   E E  E    E   E   E   E   E   E E  E    E
||------------------------------|-----------------------------|
||o-----------------------------|-----------------------------|
||------------------------------|-----------------------------|
||----------9---------7---------|-5-----------7-----5---------|
||o-5---7-------5---7----5----7-|-----5---7-------7----5----7-|
||------------------------------|-----------------------------|
|
|   Gtr I
|   PM--------------|             PM--------------|
|   S S S S S S S S E E  Q        S S S S S S S S E E  Q
||------------------------------|-----------------------------|
||o-----------------------------|-----------------------------|
||------------------------------|-----------------------------|
||------------------------------|-----------------------------|
||o-----------------2-----------|-----------------2-----------|
||--0-0-0-0-2-2-3-3-0-----------|-0-0-0-0-2-2-3-3-0-----------|


  N.C.            E5open        N.C.            E5open
  H               Q    Q        H               Q    Q
|-----------------------------|-------------------------------|
|---------------------12------|---------------------15--------|
|---------------------14b16---|---------------------17b19-----|
|-----------------------------|-------------------------------|
|-----------------------------|-------------------------------|
|-----------------------------|-------------------------------|
|
| E   E   E   E   E E  E    E   E   E   E   E   E E  E    E
|-----------------------------|-------------------------------|
|-----------------------------|-------------------------------|
|-----------------------------|-------------------------------|
|---------9---------7---------|-5-----------7-----5-----------|
|-----7-----------7---------7-|---------7-----------------7---|
|-8-----------8--------8------|-----8-----------8----8--------|
|
| PM--------------|             PM--------------|
| S S S S S S S S E E  Q        S S S S S S S S E E  Q
|-----------------------------|-------------------------------|
|-----------------------------|-------------------------------|
|-----------------------------|-------------------------------|
|-----------------------------|-------------------------------|
|-----------------2-----------|-----------------2-------------|
|-0-0-0-0-2-2-3-3-0-----------|-0-0-0-0-2-2-3-3-0-------------|


  N.C.            E5open        N.C.            E5open
  H               Q    Q        H               Q    Q
|-----------------------------|------------------------------|
|---------------------12------|---------------------15-------|
|---------------------14b16---|---------------------17b19----|
|-----------------------------|------------------------------|
|-----------------------------|------------------------------|
|-----------------------------|------------------------------|
|
| E   E   E   E   E E  E    E   E   E   E   E   E E  E    E
|-----------------------------|------------------------------|
|-----------------------------|------------------------------|
|-----------------------------|------------------------------|
|---------9---------7---------|-5-----------7-----5----------|
|-----7-----------7---------7-|---------7-----------------7\-|
|-5-----------5--------5------|-----5-----------5----5-------|
|
| PM--------------|             PM--------------|
| S S S S S S S S E E  Q        S S S S S S S S E E  Q
|-----------------------------|------------------------------|
|-----------------------------|------------------------------|
|-----------------------------|------------------------------|
|-----------------------------|------------------------------|
|-----------------2-----------|-----------------2------------|
|-0-0-0-0-2-2-3-3-0-----------|-0-0-0-0-2-2-3-3-0------------|


                               1.
  N.C.            E5open        N.C.            E5open
  H               Q    Q        H               Q    Q
|-----------------------------|------------------------------||
|---------------------12------|---------------------15------o||
|---------------------14b16---|---------------------17b19----||
|-----------------------------|------------------------------||
|-----------------------------|-----------------------------o||
|-----------------------------|------------------------------||
|
| E   E   E   E   E E  E    E   E   E   E   E   E E  E    E
|-----------------------------|------------------------------||
|-----------------------------|-----------------------------o||
|-----------------------------|------------------------------||
|---------4---------5---------|-4-----------5-----4----------||
|-2---6-------2---6----2----6-|-----2---6-------2----2----6-o||
|-----------------------------|------------------------------||
|
| PM--------------|             PM--------------|
| S S S S S S S S E E  Q        S S S S S S S S E E  Q
|-----------------------------|------------------------------||
|-----------------------------|-----------------------------o||
|-----------------------------|------------------------------||
|-----------------------------|------------------------------||
|-----------------2-----------|-----------------2-----------o||
|-0-0-0-0-2-2-3-3-0-----------|-0-0-0-0-2-2-3-3-0------------||


 2.
  N.C.            E5open
  H               Q    Q
|------------------------------||
|---------------------15-------||
|---------------------17b19----||
|------------------------------||
|------------------------------||
|------------------------------||
|
| E   E   E   E   E E  E    E
|------------------------------||
|------------------------------||
|------------------------------||
|-4-----------5-----4--x----x--||
|-----2---6-------2------------||
|------------------------------||
|
| PM--------------|
| S S S S S S S S E E  Q
|------------------------------||
|------------------------------||
|------------------------------||
|------------------------------||
|-----------------2------------||
|-0-0-0-0-2-2-3-3-0------------||


 Guitar Break
  N.C.(B7b9)
  Gtr III
   ~~~                ~~~~               ~~~            ~~
   Q.   E +Q   Q      Q.   E +Q   Q      W           a  W
|-----------------|------------------|------------|----------||
|-----------------|------------------|------------|----------||
|-----------------|------------------|------------|----------||
|--------------7--|-/10----9-(9)--7--|------------|----------||
|-/6----9-(9)-----|------------------|-/10--------|-10s12----||
|-----------------|------------------|------------|----------||
|
| Gtr II
|  ~~~                ~~~~               ~~~            ~~
|  Q.   E +Q   Q      Q.   E +Q   Q      W           a  W
|-----------------|------------------|------------|----------||
|-----------------|------------------|------------|----------||
|-----------------|------------------|------------|----------||
|--------------4--|--/7----5-(5)--4--|------------|----------||
|-/2----6-(6)-----|------------------|--/7--------|--7s=9----||
|-----------------|------------------|------------|----------||


 Guitar Solo
         E5                                                  C5VIII
  Gtr III
           ~~~~~~~~~~~~~~~~~~~~~~~
   a      +W                  +E.    S  +E   E  E.    S  +E   E
|--------------------------|------------------------------------|
|--------------------------|------------------------------------|
|-14b16==(14)--------------|-(14)---14r(14)-12-11----12-(12)-14-|
|--------------------------|------------------------------------|
|--------------------------|------------------------------------|
|--------------------------|------------------------------------|
|
| Gtrs I, II
|              PM------------------------------|
|          Q   E E E E E E     E  E      E   E  E  E      E   E
|--------------------------|------------------------------------|
|--------------------------|------------------------------------|
|--------------------------|------------------------------------|
|----------9---------------|------------------------------------|
|----------7---7-7-7-7-7-7-|---7--7------7---7--7--7---------10-|
|--------------------------|----------------------------------8-|


              ~~~~~
                         |---3---|
    Q        +H          E   E   E
|---------------------------10---8-|
|----------------------------------|
|--12b14====(12)r------------------|
|----------------------------------|
|-----------------------10\--------|
|----------------------------------|
|
|         PM-------------------|
|  +E     E   E   E E E  E     E
|----------------------------------|
|----------------------------------|
|----------------------------------|
|----------------------------------|
|-(10)-----------------------------|
|--(8)----8---8---8-8-8--8-----8---|


                    A5                                        B5
  ~                                   PM  PM
  H       +E    E E E    E  S S E E E E E E   E S S E E E E E E
|-7-------(7)\--------|---------------------|--------------------|
|-------------------7-|--8--7h8-------------|--------------------|
|-----------------9---|---------9-7s4---5---|-4-5p4--------------|
|--------------/9-----|---------------7---7-|-------7-5-4-5------|
|---------------------|---------------------|---------------7-6--|
|---------------------|---------------------|--------------------|
|
| PM------|                 PM--------------------------|
| E E E E  E    E E E   +E  E   E E E E E E   E E   E E E E E E
|---------------------|---------------------|--------------------|
|---------------------|---------------------|--------------------|
|---------------------|---------------------|--------------------|
|---------------------|---------------------|--------------------|
|-------------------7-|-(7)-----------------|-----------------9--|
|-8-8-8-8--8----8---5-|-(5)-5---5-5-5-5-5-5-|-5-5---5-5-5-5---7--|


                     C5VIII                B5                     E5
   ~~~      ~
   Q    E E Q   +E    E     S   S  E  S  S  S  S  S   S  S  S  E   S  S
|-----------------------|-----------------------------------------------|
|-----------------------|------------------12p11-12p=11--------------17-|
|-----------------------|------------12h14--------------14p12-11/-16----|
|-----------------------|--11h=12-14------------------------------------|
|--7----x-6-6---(6)/----|-----------------------------------------------|
|-----------------------|-----------------------------------------------|
|
|     PM--------|                  PM|                   PM---|
| +E  E E E E E  E    E    +E      E  E     E    +E      E     E   E
|-----------------------|-----------------------------------------------|
|-----------------------|-----------------------------------------------|
|-----------------------|-----------------------------------------------|
|-----------------------|------------------------------------------9----|
|-(9)----------------10-|-(10)--------------9----(9)---------------7----|
|-(7)-7-7-7-7-7--7----8-|--(8)-----8--8-----7----(7)-----7-----7--------|


   ~~~                        ~~
   Q      a   E  E  +Q     E  E
|-------------------------------|
|-19----(19)s20-17-(17)------19-|
|-------------------------16----|
|-------------------------------|
|-------------------------------|
|-------------------------------|
|
|     PM---------------------|
| +E  E       E  E   E  E  E  E
|-------------------------------|
|-------------------------------|
|-------------------------------|
|-(9)---------------------------|
|-(7)-7-------7--7---7--7--7--7-|
|-------------------------------|


                            C5VIII
    ~~~~                                         ~~~~
   +Q     E  E  +E  E  E.       S         Q     +Q     +E    Q    S  S
|-------------------------------------|---------------------20---------|
|-(19)---20-17-(17)---22b24r===22b24==|==22----(22)---(22)r------22-20-|
|-------------------------------------|--------------------------------|
|-------------------------------------|--------------------------------|
|-------------------------------------|--------------------------------|
|-------------------------------------|--------------------------------|
|
|   PM---------|                             PM-------------------------
|   E  E  E  E   E  E  E     E           +E  E   E  E   E    E E  E
|-------------------------------------|--------------------------------|
|-------------------------------------|--------------------------------|
|-------------------------------------|--------------------------------|
|-------------------------------------|--------------------------------|
|---7--7--7--7---7--7-------10--------|-(10)---------------------------|
|----------------------------8--------|--(8)-8---8--8---8----8-8--8----|


                     A5
   ~~~                                    ~~~~~~~
   Q.     E  E  E  E  E        +Q      E  E  +Q     E  E
|---------------------------|---------19------------------------|
|-22------x-19-20-22-20b22==|=(20)r------20-(20)---19-19pb20====|
|---------------------------|-----------------------------------|
|---------------------------|-----------------------------------|
|---------------------------|-----------------------------------|
|---------------------------|-----------------------------------|
|
|-----------|                       PM----------------|
|  E  E E E  E  E  E  E        +E   E  E  E   E  E  E  E
|---------------------------|-----------------------------------|
|---------------------------|-----------------------------------|
|---------------------------|-----------------------------------|
|---------------------------|-----------------------------------|
|---------------------7-----|--(7)------------------------------|
|--8--8-8-8--8--8-----5-----|--(5)--5--5--5---5--5--5--5--------|


                         B5                             C5VIII
             ~~~~~~~                         ~~~~~~~
   +Q     E  E  +Q     E  E        +Q     E  E  +Q.      S S
|-------------------------------|----------------------------|
|-(19)r==19-----------19--------|--------------------------0-|
|-----------21-(21)------20b21==|=(20)r==20-20-(20)------0---|
|-------------------------------|----------------------------|
|-------------------------------|----------------------------|
|-------------------------------|----------------------------|
|
|   PM---------|                       PM-------------|
|   E  E  E  E   E  E  E  E        +E  E  E  E   E  E E  E
|-------------------------------|----------------------------|
|-------------------------------|----------------------------|
|-------------------------------|----------------------------|
|-------------------------------|----------------------------|
|-------------------------9-----|--(9)------------------10---|
|---5--5--5--5---5--5-----7-----|--(7)-7--7--7---7--7-7--8---|


                      B5                    E5
    S   S  S  S  S  S  S  S  S   S  S  S  E E
|--17p=12-------------------------------------|
|---------15p12-------15p12-----------------0-|
|---------------14p12-------14p=12----------0-|
|----------------------------------14p13-12---|
|---------------------------------------------|
|---------------------------------------------|
|
|          PM---|                   PM---|
|  +E      E     E     E    +E      E     E E
|---------------------------------------------|
|---------------------------------------------|
|---------------------------------------------|
|-------------------------------------------9-|
|-(10)-----------------9----(9)-------------7-|
|--(8)-----8-----8-----7----(7)-----7-----7---|


                                                                  C5VIII
   ~~~~~~~~~~~~~~~~~~~~~~~~~~~~                                ~~~
                                                    |---3---|
   W                      +S   S  S  S  E     S  S  E  E    E  E.     S
|----------------------|------------------------------------------------|
|-15b17================|=(15)r-0-15p12-------12-------------------------|
|----------------------|---------------14b16----15-12------14-12-----14-|
|----------------------|------------------------------14----------------|
|----------------------|------------------------------------------------|
|----------------------|------------------------------------------------|
|
|        PM----------------------------------------|
| +E     E E E E E E E     E      E     E     E     E    E     E   E
|----------------------|------------------------------------------------|
|----------------------|------------------------------------------------|
|----------------------|------------------------------------------------|
|-(9)------------------|------------------------------------------------|
|-(7)----7-7-7-7-7-7-7-|---7------7-----7-----7-----7----7--------10----|
|----------------------|-------------------------------------------8----|


    S   S  S  S  S  S  S  S  S  S  S  S  S  S  S  S
|---------------------------------------12h14h15p12--|
|------------12----------------12h14h15--------------|
|--12h=14h15----15p14-12h14h15-----------------------|
|----------------------------------------------------|
|----------------------------------------------------|
|----------------------------------------------------|
|
|          PM---------------------------------|
|  +E      E     E     E     E     E     E     E
|----------------------------------------------------|
|----------------------------------------------------|
|----------------------------------------------------|
|----------------------------------------------------|
|-(10)-----------------------------------------------|
|--(8)-----8-----8-----8-----8-----8-----8-----8-----|


                                  A5
   S  S  S  S  S  S  S  S  Q    E  E
|-14----12-------------------------------|
|----15----15-12----12------------17b19==|
|----------------15----15-12\---0--------|
|-------------------------------0--------|
|----------------------------------------|
|----------------------------------------|
|
|  PM---------------------|
|  E     E     E     E     E  E E  E
|----------------------------------------|
|----------------------------------------|
|----------------------------------------|
|----------------------------------------|
|----------------------------------7-----|
|--8-----8-----8-----8-----8--8----5-----|


                                                           B5
                                      ~~
   +H         +Q         E      E     H        +E     E  E  E
|----------------------------------|-----------------------20b22==|
|-(17)-------(17)b20====17b21==17r-|-17-------(17)\---------------|
|----------------------------------|----------------/19-19--------|
|----------------------------------|------------------------------|
|----------------------------------|------------------------------|
|----------------------------------|------------------------------|
|
|      PM-------------------------------------|
|  +E  E E E   E      E  E      E     E E E E   E     E  E  E
|----------------------------------|------------------------------|
|----------------------------------|------------------------------|
|----------------------------------|------------------------------|
|----------------------------------|------------------------------|
|--(7)-----------------------------|------------------------9-----|
|--(5)-5-5-5---5------5--5------5--|--5-5-5-5---5-----5-----7-----|


                     C5VIII                      B5                E5
   +H.             E  E    +E       +E   +E       +E   +Q     +Q
|-(20)r-----------20-19-|-(19)b20==(19)r(19)b20==(19)r(19)---(19)\---|
|-----------------------|--------------------------------------------|
|-----------------------|--------------------------------------------|
|-----------------------|--------------------------------------------|
|-----------------------|--------------------------------------------|
|-----------------------|--------------------------------------------|
|
|       PM--------|                  PM-|                  PM|
|  +E   E E E E E  E  E    +E        E    E        E   +E  E   E   E
|-----------------------|--------------------------------------------|
|-----------------------|--------------------------------------------|
|-----------------------|--------------------------------------------|
|-----------------------|------------------------------------------9-|
|--(9)---------------10-|-(10)---------------------9---(9)---------7-|
|--(7)--7-7-7-7-7--7--8-|--(8)-------8----8--------7---(7)-7---7-----|


   S   S  S S  S S S S S S S  S E S  S
|--------------------------------------|
|--8h=10----8--------------------------|
|--------11---11p9p7-7-9p7-7----7-7----|
|----------------------------10-----10-|
|--------------------------------------|
|--------------------------------------|
|
|         PM----------------------|
| +E      E    E   E   E   E    E E
|--------------------------------------|
|--------------------------------------|
|--------------------------------------|
|-(9)----------------------------------|
|-(7)-----7----7---7---7---7----7-7----|
|--------------------------------------|


                           C5VIII
  S S  S S S S  S S  E Q    S S     S   S  S S  S S S S S S E S S  S S
|-------------------------------|--------------------------------------|
|---------------------------0-0-|---8h=10----8-------------------------|
|-------------------------------|---------11---11p9p7-7-9p7-7----------|
|-9p7-10p7-9p7------------------|-----------------------------9p7-10p7-|
|--------------10p7-10-7--------|--------------------------------------|
|-------------------------------|--------------------------------------|
|
| PM----------------|                      PM---------------------|
| E    E   E    E    E E E  E      +E      E    E   E   E   E E    E
|-------------------------------|--------------------------------------|
|-------------------------------|--------------------------------------|
|-------------------------------|--------------------------------------|
|-------------------------------|--------------------------------------|
|-7----7---7----7----7-7---10---|-(10)---------------------------------|
|---------------------------8---|--(8)-----8----8---8---8---8-8----8---|


                          A5
                    ~
                                                    |-3--|
  S  S S S  S S S S Q   E  S   S     S   S S S  S S S  S S E  S S S  S S S
|-------------------------<7>-----|----------------------------------------|
|-----------------------------<7>-|--8h=10-7-8-10-7-8h10p8p7-10p7h8h10p8p7-|
|-------------7-8-7-7-------------|----------------------------------------|
|------7-9-10---------------------|----------------------------------------|
|-9-10----------------------------|----------------------------------------|
|---------------------------------|----------------------------------------|
|
| PM----------------|                      PM--------------------------|
| E    E    E   E   E E E  E        +E     E    E   E      E  E   E    E
|---------------------------------|----------------------------------------|
|---------------------------------|----------------------------------------|
|---------------------------------|----------------------------------------|
|---------------------------------|----------------------------------------|
|--------------------------7------|-(7)------------------------------------|
|-8----8----8---8---8-8----5------|-(5)----5----5---5------5--5---5----5---|


                                  B5                             C5VIII
   S S S  S S S  S S S  S S S   E  S  S    H            +Q     E  E
|-------------------------7-------19-22-|-22b24========(22)r==22-22-|
|-10p7h8h10p8p7-10p7h8h10---8-----------|---------------------------|
|-----------------------------/19-------|---------------------------|
|---------------------------------------|---------------------------|
|---------------------------------------|---------------------------|
|---------------------------------------|---------------------------|
|
|  PM----------------|                           PM-----------|
|  E   E    E    E   E    E     E  E      +E     E E E   E  E  E  E
|---------------------------------------|---------------------------|
|---------------------------------------|---------------------------|
|---------------------------------------|---------------------------|
|---------------------------------------|---------------------------|
|----------------------------------9----|-(9)--------------------10-|
|--5---5----5----5---5----5--------7----|-(7)----7-7-7---7--7--7--8-|


            B5
    ~~~~~~~~~~~~~~~~~~~~~
   +Q.       E       +Q     +E      S S
|-(22)r-----22pb24==(22)---(22)r\-----0-|
|---------------------------------/17---|
|---------------------------------------|
|---------------------------------------|
|---------------------------------------|
|---------------------------------------|
|
|       PM|              PM|
|  +E   E E  E       +E  E   E      E
|---------------------------------------|
|---------------------------------------|
|---------------------------------------|
|---------------------------------------|
|-(10)-------9-------(9)------------9---|
|--(8)--8-8--7-------(7)-7---7------7---|


                                           C5VIII
   S   S  S  S  S  S  S S  S  S  S  S  S S  S  S
|-19p=15-------17p14------14p10-------12p8----10-|
|--------16-17-------17-0-------10-10-------8----|
|------------------------------------------------|
|------------------------------------------------|
|------------------------------------------------|
|------------------------------------------------|
|
|         PM--------------------------|
| +E      E     E     E    E     E     E    E
|------------------------------------------------|
|------------------------------------------------|
|------------------------------------------------|
|------------------------------------------------|
|-(9)--------------------------------------10----|
|-(7)-----7-----7-----7----7-----7-----7----8----|


                                       Outro
                   B5              E5open
       |-3--|
    E  S S  S S  S S S  S  S S S E E    +H         H
|--10--7h8----7----------------------||--------------------|
|----------10---10-7----8--7-----7---||--------------------|
|--------------------9-------9-----9-||-(9)\---------------|
|------------------------------9-----||--------------------|
|------------------------------------||--------------------|
|------------------------------------||--------------------|
|
|                                            PM--|
|  +E  E      E    E   +E    E   E E    +E   E E E E E E E
|------------------------------------||--------------------|
|------------------------------------||--------------------|
|------------------------------------||--------------------|
|------------------------------------||--------------------|
|-(10)-------------9---(9)---------2-||-(2)--------2-----2-|
|--(8)-8------8----7---(7)---7---7-0-||-(0)--0-2-3-0-----0-|


            C5IIB5E5open        C5IIB5E5open
  Gtrs I, II
      PM--|   PM          PM--|   PM
  +E  E E E E E E E   +E  E E E E E E E   H    Q  E E
|-------------------|-------------------|-------------|
|-------------------|-------------------|-------------|
|-------------------|-------------------|-------------|
|-----------5---4---|-----------5---4---|-------------|
|-(2)-------3-0-2-2-|-(2)-------3-0-2-2-|-----------2-|
|-(0)-0-2-3-------0-|-(0)-0-2-3-------0-|-----------0-|


    E5open                        C5IIB5E5open
        PM--|               PM--|   PM
    +E  E E E E E E E   +E  E E E E E E E
||--------------------|-------------------|
||o-------------------|-------------------|
||--------------------|-------------------|
||--------------------|-----------5---4---|
||o-(2)-------2-----2-|-(2)-------3-0-2-2-|
||--(0)-0-2-3-0-----0-|-(0)-0-2-3-------0-|


                     1.,2.            3.
            C5IIB5E5open              N.C.
      PM--|   PM
  +E  E E E E E E E   H    Q  E E      W
|-------------------|--------------||-------*|
|-------------------|-------------o||-------*|
|-------------------|--------------||-------*|
|-----------5---4---|--------------||-------*|
|-(2)-------3-0-2-2-|-----------2-o||-------*|
|-(0)-0-2-3-------0-|-----------0--||-------*|



Duration Legend
---------------
W - whole; H - half; Q - quarter; E - 8th; S - 16th; T - 32nd; X - 64th; a - acciaccatura
+ - note tied to previous; . - note dotted; .. - note double dotted
Uncapitalized letters represent notes that are staccato (1/2 duration)
Irregular groupings are notated above the duration line
Duration letters will always appear directly above the note/fret number it represents the
duration for.  Duration letters with no fret number below them represent rests.  Multi-
bar rests are notated in the form Wxn, where n is the number of bars to rest for.  Low
melody durations appear below the staff

Tablature Legend
----------------
 h   - hammer-on
 p   - pull-off
 b   - bend
 pb  - pre-bend
 r   - bend release (if no number after the r, then release immediately)
 /\  - slide into or out of (from/to "nowhere")
 s   - legato slide
 S   - shift slide
 - natural harmonic
[n]  - artificial harmonic
n(n) - tapped harmonic
 ~   - vibrato
 tr  - trill
 T   - tap
 TP  - trem. picking
 PM  - palm muting
\n/  - tremolo bar dip; n = amount to dip
 \n  - tremolo bar down
 n/  - tremolo bar up
/n\  - tremolo bar inverted dip
 =   - hold bend; also acts as connecting device for hammers/pulls
 <> - volume swell (louder/softer)
 x   - on rhythm slash represents muted slash
 o   - on rhythm slash represents single note slash

Misc Legend
-----------
 |  - bar
||  - double bar
||o - repeat start
o|| - repeat end
*|  - double bar (ending)
 :  - bar (freetime)
 $  - Segno
 &  - Coda
Tempo markers -  = BPM(8/16=s8/s16), where s8 = swing 8ths, s16 = swing 16ths

comments
We did not receive enough feedback on this tab! Please rate:
1 2 3 4 5
I want to post or [tab]
guest
You may want to rate the tab now too:
select rating
Please do not post tabs as comments. Select "correction" instead!