Oops, an error
Loading. Please wait.

Duke Nukem Theme Tab

ver4
ver4

Whole song

Interactive

More versions @911Tabs.com
9,298 views 3 this week
no commentswrite comment
1 2 3 4 5
accurate
x 3
Autoscroll
+/-
esc
set tempo
stop
Contributor
Hey! There's an official Ultimate Guitar app which is ideal
for learning songs when you're away from computer. Get the app
WARNING: You are trying to view
                                    content from Ultimate-Guitar.com
                                    in an unauthorized application,
                                    which is prohibited.

                                    Please use an official Ultimate
                                    Guitar Tabs application for iPhone,
                                    iPad or Android to access legitimate
                                    chords, guitar, bass, and drum tabs
                                    from Ultimate-Guitar.com database.

                                    Type "ultimate guitar tabs" in Apple
                                    App Store's or Android Market's
                                    search to find the application.
#----------------------------------PLEASE NOTE---------------------------------#
#This file is the author's own work and represents their interpretation of the #
#song. You may only use this file for private study, scholarship, or research. #
#------------------------------------------------------------------------------#

DUKE NUKEM THEME: GRAB BAG
As recorded by Megadeth
(From the 2005 Album DUKE NUKEM: MUSIC TO SCORE BY)

Transcribed by livingzombie
        

Music by Lee Jackson
Arranged by Megadeth

Gtr I (E A D G B E) - 'Guitar I'
Gtr II (E A D G B E) - 'Guitar II'
Gtr III (E A D G B E) - 'Solo I'
Gtr IV (E A D G B E) - 'Solo II'
Gtr V (E A D G B E) - 'Solo III'

   Intro
    Q=167
    E5                                        F5
   4/4
    Gtrs I, II
    PM|   PM   PM|     PM          PM|   PM   PM|     PM
    E E E E Q  E E   E E H.        E E E E Q  E E   E E H.
||-----------------|-------------|----------------|------------||
||o----------------|-------------|----------------|-----------o||
||-----------------|-------------|----------------|------------||
||-----------------|-------------|----------------|------------||
||o-2-2---2----2-2-|---2---------|-2-2---2----3-3-|---3-------o||
||--0-0---0----0-0-|---0---------|-0-0---0----1-1-|---1--------||


   Chorus
                                                            1.,2.,3.
    $
      G5  A5      A5    B5      B5  C5         N.C.          C5
    Gtrs I, II
    PM      PM--|         PM--|          PM--|
    E E E E E E E E   E E E E E E E  E   E E E S S E E E E   Q.   Q.   Q   4x
||------------------|------------------|-------------------|---------------||
||o-----------------|------------------|-------------------|--------------o||
||------------------|------------------|-------------------|-5----5----5---||
||------------------|------------------|-------------------|-5----5----5---||
||o---5-x-7-------7-|-x-9-------9-x-10-|-------2h3p2-------|-3----3----3--o||
||--0-3-x-5-0-0-0-5-|-x-7-0-0-0-7-x--8-|-0-0-0-------5-3-0-|---------------||
|
|   Gtr III
|   W                 W                  W                   Q.   Q.   Q   4x
||------------------|------------------|-------------------|---------------||
||o-----------------|------------------|-------------------|-8----8----8--o||
||------------------|------------------|-------------------|-7----7----7---||
||------------------|------------------|-------------------|---------------||
||o-----------------|------------------|-------------------|--------------o||
||------------------|------------------|-------------------|---------------||


  4.
  C5
  Q.   Q.   Q    +E  E +Q   Q  Q
|--------------|------------------|
|--------------|------------------|
|-5----5----5--|-(5)-5-(5)--5--5--|
|-5----5----5--|-(5)-5-(5)--5--5--|
|-3----3----3--|-(3)-3-(3)--3--3--|
|--------------|------------------|
|
| Q.   Q.   Q    +E  E +Q   Q  Q
|--------------|------------------|
|-8----8----8--|-(8)-8-(8)--8--8--|
|-7----7----7--|-(7)-7-(7)--7--7--|
|--------------|------------------|
|--------------|------------------|
|--------------|------------------|


                                               To Coda
  F5
  Gtrs I, II
  PM|   PM   PM|     PM          PM|   PM   PM|     PM
  E E E E Q  E E   E E H.        E E E E Q  E E   E E H.
|----------------|-------------|----------------|-----------||
|----------------|-------------|----------------|-----------||
|----------------|-------------|----------------|-----------||
|----------------|-------------|----------------|-----------||
|-3-3---3----3-3-|---3---------|-3-3---3----3-3-|---3-------||
|-1-1---1----1-1-|---1---------|-1-1---1----1-1-|---1-------||


 Pre-Verse
  N.C.
  PM|   PM|   PM|     PM|   PM------------|   PM|   PM|     PM--------------|
  E E E E E E E E   E E E E E E S S E   E E E E E E E E   E E E E S S E S S E
|-----------------|-------------------|-----------------|----------------------|
|-----------------|-------------------|-----------------|----------------------|
|-----------------|-------------------|-----------------|----------------------|
|-----------------|-------------------|-----------------|----------------------|
|-----------------|-------------------|-----------------|----------------------|
|-0-0-0-0-0-0-0-0-|-0-0-0-0-0-0-0-0-0-|-0-0-0-0-0-0-0-0-|-0-0-0-0-0-0-0-0-0-0--|


  PM|   PM|   PM|     PM|   PM---------
  E E E E E E E E   E E E E E E S S E
|-----------------|-------------------|
|-----------------|-------------------|
|-----------------|-------------------|
|-----------------|-------------------|
|-----------------|-------------------|
|-0-0-0-0-0-0-0-0-|-0-0-0-0-0-0-0-0-0-|


 ---|   PM|   PM--------------------------|
  E E E E E E E E   S S E S S E S S E S S E
|-----------------|--------------------------||
|-----------------|--------------------------||
|-----------------|--------------------------||
|-----------------|--------------------------||
|-----------------|--------------------------||
|-0-0-0-0-0-0-0-0-|-0-0-0-0-0-0-0-0-0-0-0-0--||


 Verse
  Gtrs I, II
     PM|     PM|     PM|       PM|     PM---------
     E E  E  E  E  E E E    E  E  E E  E E S S E
|------------------------|-----------------------|
|------------------------|-----------------------|
|------------------------|-----------------------|
|------------------------|-----------------------|
|------------------------|-----------------------|
|----0-0--0--0--0--0-0-0-|--0--0--0-0--0-0-0-0-0-|
|
| Gtr III
|            ~~~~~~    ~~~~~~~~        ~~
|  a E E +E  E +Q    E E   +Q     Q    H
|------------------------|-----------------------|
|------------------------|-----------------------|
|------------------------|-----------------------|
|-12s9-9-(9)-9-(9)---9-9-|-(9)---10---10---------|
|------------------------|-----------------------|
|------------------------|-----------------------|


 ---|     PM|     PM|       PM--------------|
  E E  E  E  E  E E E    E  E E E S S E S S E
|---------------------|-----------------------|
|---------------------|-----------------------|
|---------------------|-----------------------|
|---------------------|-----------------------|
|---------------------|-----------------------|
|-0-0--0--0--0--0-0-0-|--0--0-0-0-0-0-0-0-0-0-|
|
|         ~~~~~~    ~~~~~~~~
| E E +E  E +Q    E E   +Q    Q   Q     Q
|---------------------|-----------------------|
|---------------------|-----------------------|
|---------------------|-----------------------|
|-7-7-(7)-7-(7)---7-7-|-(7)---5---4-----5-----|
|---------------------|-----------------------|
|---------------------|-----------------------|


  Gtr I
   PM|     PM|     PM|          PM----|   PM----------
   E E  E  E  E  E E E       E  E     E E E E  S S E
|-------------------------|--------------------------|
|-------------------------|--------------------------|
|-------------------------|--------------------------|
|-------------------------|--------------------------|
|-------------------------|--------------------------|
|--0-0--0--0--0--0-0-0----|--0--0-----0-0-0-0--0-0-0-|
|
| Gtr II
|  PM|     PM|     PM|          PM----|   PM----------
|  E E  E  E  E  E E E       E  E     E E E E  S S E
|-------------------------|--------------------------|
|-------------------------|--------------------------|
|-------------------------|--------------------------|
|-------------------------|--------------------------|
|-------------------------|--------------------------|
|--0-0--0--0--0--0-0-0----|--0--0-----0-0-0-0--0-0-0-|
|
| Gtr III
|          ~~~~~~
|  E E +E  E +Q    E E      +E.   +S  Q   Q    Q
|-------------------------|--------------------------|
|-------------------------|--------------------------|
|-------------------------|--------------------------|
|-/9-9-(9)-9-(9)---9-9b10-|-(9)---(9)-9---7----------|
|-------------------------|-------------------10-----|
|-------------------------|--------------------------|


       C5                  B5
 ----|    PM|    PM----------------------------|
   E E E  E E E  E     E    E  E S S E E E S S E
|------------------------|------------------------|
|------------------------|------------------------|
|------------------------|------------------------|
|------5------5----------|------------------------|
|--3-3-3--3-3-3--3-----3-|--2--2-2-2-2-2-2-2-2-2--|
|------------------------|------------------------|
|
|----|    PM|    PM----|
|  E E E  E E E  E     E    W
|------------------------|------------------------|
|------------------------|------------------------|
|------------------------|------------------------|
|------5------5----------|--4---------------------|
|--3-3-3--3-3-3--3-----3-|--2---------------------|
|------------------------|------------------------|
|
|                           ~~~
|  E Q    E E E +E   a E   +W
|------------------------|------------------------|
|------------------------|------------------------|
|------------------------|------------------------|
|-------------7-(7)\-2s4-|-(4)--------------------|
|-10s7---10--------------|------------------------|
|------------------------|------------------------|


             E5
  Gtrs I, II
     PM-|           PM-|        PM-|             PM-----|        PM-----------
     E    E    E    E    E  E   E    E      E    E        E  E   E   E S S E
|---------------------------------------|------------------------------------|
|---------------------------------------|------------------------------------|
|---------------------------------------|------------------------------------|
|---------------------------------------|------------------------------------|
|--------------2------------2-----------|---2----------------2---------------|
|----0----0----0----0----0--0---0----0--|---0----0--------0--0---0---0-0-0-0-|
|
| Gtr III
|                   ~~~~~~~~         ~~~~~~~~~~                  ~~~~~
|    E    E   +E    E   +Q      E    E     +E   +E       +Q      H
|-/(19)-(19)-(19)-(19)-(19)---(19)-(19)-|-(19)-(19)b20==(19)---(19)r---------|
|--/12---12--(12)--12--(12)----12---12--|-(12)-(12)b13==(12)----12r----------|
|---------------------------------------|------------------------------------|
|---------------------------------------|------------------------------------|
|---------------------------------------|------------------------------------|
|---------------------------------------|------------------------------------|


 ------|           PM-|        PM-|           PM-----------------------|
    E    E    E    E    E  E   E    E      E  E   E  E   S  S E   S  S E
|--------------------------------------|----------------------------------|
|--------------------------------------|----------------------------------|
|--------------------------------------|----------------------------------|
|--------------------------------------|----------------------------------|
|-------------2------------2-----------|---2------------------------------|
|---0----0----0----0----0--0---0----0--|---0--0---0--0---0--0-0---0--0-0--|
|
|                  ~~~~~~~~         ~~~~~~~~~~
|   E    E   +E    E   +Q      E    E     +Q      Q      Q        Q
|-(17)-(17)-(17)-(17)-(17)---(17)-(17)-|-(17)---(15)---(14)-----(15)------|
|--10---10--(10)--10--(10)----10---10--|-(10)-----8------7--------8-------|
|--------------------------------------|----------------------------------|
|--------------------------------------|----------------------------------|
|--------------------------------------|----------------------------------|
|--------------------------------------|----------------------------------|


  Gtr I
     PM-|           PM-|        PM-|              PM-----|        PM-------------
     E    E    E    E    E  E   E    E         E  E        E  E   E  E   S  S E
|------------------------------------------|------------------------------------|
|------------------------------------------|------------------------------------|
|------------------------------------------|------------------------------------|
|------------------------------------------|------------------------------------|
|--------------2------------2--------------|---2--------------2-----------------|
|----0----0----0----0----0--0---0----0-----|---0--0--------0--0---0--0---0--0-0-|
|
| Gtr II
|    PM-|           PM-|        PM-|              PM-----|        PM-------------
|    E    E    E    E    E  E   E    E         E  E        E  E   E  E   S  S E
|------------------------------------------|------------------------------------|
|------------------------------------------|------------------------------------|
|------------------------------------------|------------------------------------|
|------------------------------------------|------------------------------------|
|--------------2------------2--------------|---2--------------2-----------------|
|----0----0----0----0----0--0---0----0-----|---0--0--------0--0---0--0---0--0-0-|
|
| Gtr III
|                   ~~~~~~~~
|    E    E   +E    E   +Q      E    E        +E.    +S    Q      Q      Q
|-/(19)-(19)-(19)-(19)-(19)---(19)-(19)b20-|-(19)---(19)-(19)---(17)------------|
|--/12---12--(12)--12--(12)----12---12b13--|-(12)---(12)--12-----10----(20)-----|
|------------------------------------------|----------------------------12------|
|------------------------------------------|------------------------------------|
|------------------------------------------|------------------------------------|
|------------------------------------------|------------------------------------|


            C5                      B5
 ------|        PM-|        PM---------------------------|
    E    E  E   E  E   E    E   E     E  E S S E E E S S E
|---------------------------------|------------------------|
|---------------------------------|------------------------|
|---------------------------------|------------------------|
|-----------5----------5----------|------------------------|
|---3----3--3---3--3---3----3---3-|---2--2-2-2-2-2-2-2-2-2-|
|---------------------------------|------------------------|
|
|------|        PM-|        PM--|
|   E    E  E   E  E   E    E   E     W
|---------------------------------|------------------------|
|---------------------------------|------------------------|
|---------------------------------|------------------------|
|-----------5----------5----------|---4--------------------|
|---3----3--3---3--3---3----3---3-|---2--------------------|
|---------------------------------|------------------------|
|
|                                     ~~~~
|   E    Q      E  E   E   +Q         W
|-(15)s(12)---(15)---(17)-(17)\---|-(14)-------------------|
|---------------------10--(10)\---|---7--------------------|
|--12s===9-----12-----------------|------------------------|
|---------------------------------|------------------------|
|---------------------------------|------------------------|
|---------------------------------|------------------------|


                                          D.S. al Coda
  F5
  Gtrs I, II
  PM|   PM   PM|     PM          PM|   PM   PM|     PM
  E E E E Q  E E   E E H.        E E E E Q  E E   E E H.
|----------------|-------------|----------------|-----------||
|----------------|-------------|----------------|-----------||
|----------------|-------------|----------------|-----------||
|----------------|-------------|----------------|-----------||
|-3-3---3----3-3-|---3---------|-3-3---3----3-3-|---3-------||
|-1-1---1----1-1-|---1---------|-1-1---1----1-1-|---1-------||


 Verse
  &
        E5
  Gtrs I, II
   PM|        PM|       PM|         PM|     PM---------
   E  E   E   E   E  E  E  E     E  E  E E  E E S S E
|----------------------------|------------------------|
|----------------------------|------------------------|
|----------------------------|------------------------|
|----------------------------|------------------------|
|---------2----------2-------|---2-------2------------|
|--0--0---0---0---0--0--0--0-|---0--0--0-0--0-0-0-0-0-|
|
| Gtr III
|             ~~~~~~~      ~~~~~~~~~        ~~
|  E  E  +E   E  +Q     E  E    +Q     Q    H
|----------------------------|------------------------|
|-12-12-(12)-12-(12)---12-12-|-(12)---13---13---------|
|----------------------------|------------------------|
|--9--9--(9)--9--(9)----9--9-|--(9)---10---10---------|
|----------------------------|------------------------|
|----------------------------|------------------------|


 ----|        PM|       PM|         PM--------------|
   E  E   E   E   E  E  E  E     E  E E E S S E S S E
|----------------------------|-------------------------|
|----------------------------|-------------------------|
|----------------------------|-------------------------|
|----------------------------|-------------------------|
|---------2----------2-------|---2---------------------|
|--0--0---0---0---0--0--0--0-|---0--0-0-0-0-0-0-0-0-0--|
|
|             ~~~~~~~      ~~~~~~~~~
|  E  E  +E   E  +Q     E  E    +Q    Q   Q     Q
|----------------------------|-------------------------|
|-10-10-(10)-10-(10)---10-10-|-(10)---8---7-----8------|
|----------------------------|-------------------------|
|--7--7--(7)--7--(7)----7--7-|--(7)---5---4-----5------|
|----------------------------|-------------------------|
|----------------------------|-------------------------|


  Gtr I
   PM|        PM|       PM|         PM|     PM----------
   E  E   E   E   E  E  E  E     E  E  E E  E E  S S E
|----------------------------|-------------------------|
|----------------------------|-------------------------|
|----------------------------|-------------------------|
|----------------------------|-------------------------|
|---------2----------2-------|---2-------2-------------|
|--0--0---0---0---0--0--0--0-|---0--0--0-0--0-0--0-0-0-|
|
| Gtr II
|  PM|        PM|       PM|         PM|     PM----------
|  E  E   E   E   E  E  E  E     E  E  E E  E E  S S E
|----------------------------|-------------------------|
|----------------------------|-------------------------|
|----------------------------|-------------------------|
|----------------------------|-------------------------|
|---------2----------2-------|---2-------2-------------|
|--0--0---0---0---0--0--0--0-|---0--0--0-0--0-0--0-0-0-|
|
| Gtr III
|             ~~~~~~~      ~~~~~~~~~
|  E  E  +E   E  +Q     E  E    +Q     Q    Q    Q
|----------------------------|-------------------------|
|-12-12-(12)-12-(12)---12-13-|-(13)---12---10----------|
|----------------------------|------------------12-----|
|--9--9--(9)--9--(9)----9-10-|-(10)----9----7----------|
|----------------------------|------------------10-----|
|----------------------------|-------------------------|


       C5                  B5
 ----|    PM|      PM---------------------------|
   E E E  E E  E   E   E   E E S S E  E  E  S S E
|------------------------|-------------------------|
|------------------------|-------------------------|
|------------------------|-------------------------|
|------5-------5---------|-------------------------|
|--3-3-3--3-3--3---3---3-|-2-2-2-2-2--2--2--2-2-2--|
|------------------------|-------------------------|
|
|----|    PM|      PM--|
|  E E E  E E  E   E   E   W
|------------------------|-------------------------|
|------------------------|-------------------------|
|------------------------|-------------------------|
|------5-------5---------|-4-----------------------|
|--3-3-3--3-3--3---3---3-|-2-----------------------|
|------------------------|-------------------------|
|
|                          ~~~~~~~~~~~~~~
|  E Q    E E  E  +Q       H          Q     Q
|------------------------|-----------------15S=====|
|-------------10-(10)\---|-7----------x\----8S=====|
|-12s9---12--------------|-------------------------|
|--------------7--(7)\---|-4---------(4)-----------|
|-10s7---10--------------|-------------------------|
|------------------------|-------------------------|


        E5
   PM|        PM|       PM|           PM-|     PM---------
   E  E   E   E   E  E  E  E     E    E   E E  E E S S E
|----------------------------|---------------------------|
|----------------------------|---------------------------|
|----------------------------|---------------------------|
|----------------------------|---------------------------|
|---------2----------2-------|---2----------2------------|
|--0--0---0---0---0--0--0--0-|---0----0---0-0--0-0-0-0-0-|
|
|  W                             W
|----------------------------|---------------------------|
|----------------------------|---------------------------|
|--9-------------------------|--12-----------------------|
|--9-------------------------|--10-----------------------|
|----------------------------|---------------------------|
|----------------------------|---------------------------|
|
|             ~~~~~~~      ~~~~~~~~~~~~~~      ~~
|  E  E  +E   E  +Q     E  E    +E   +E   Q    H
|-19-19-(19)-19-(19)---19-19-|-(19)-(19)-20---20---------|
|-12-12-(12)-12-(12)---12-12-|-(12)-(12)-13---13---------|
|----------------------------|---------------------------|
|----------------------------|---------------------------|
|----------------------------|---------------------------|
|----------------------------|---------------------------|


 ----|        PM|       PM|         PM-----------------|
   E  E   E   E   E  E  E  E     E  E  E E  S S E  S S E
|----------------------------|----------------------------|
|----------------------------|----------------------------|
|----------------------------|----------------------------|
|----------------------------|----------------------------|
|---------2----------2-------|---2------------------------|
|--0--0---0---0---0--0--0--0-|---0--0--0-0--0-0-0--0-0-0--|
|
|  W                             W
|----------------------------|----------------------------|
|----------------------------|----------------------------|
|--7-------------------------|--12------------------------|
|--7-------------------------|--10------------------------|
|----------------------------|----------------------------|
|----------------------------|----------------------------|
|
|             ~~~~~~~      ~~~~~~~~~
|  E  E  +E   E  +Q     E  E    +Q     Q    Q      Q
|-17-17-(17)-17-(17)---17-17-|-(17)---15---14-----15------|
|-10-10-(10)-10-(10)---10-10-|-(10)----8----7------8------|
|----------------------------|----------------------------|
|----------------------------|----------------------------|
|----------------------------|----------------------------|
|----------------------------|----------------------------|


   PM|        PM|       PM|
   E  E   E   E   E  E  E  E
|----------------------------|
|----------------------------|
|----------------------------|
|----------------------------|
|---------2----------2-------|
|--0--0---0---0---0--0--0--0-|
|
|  W
|----------------------------|
|----------------------------|
|--9-------------------------|
|--9-------------------------|
|----------------------------|
|----------------------------|
|
|             ~~~~~~~      ~~~
|  E  E  +E   E  +Q     E  E
|-19-19-(19)-19-(19)---19-20-|
|-12-12-(12)-12-(12)---12-13-|
|----------------------------|
|----------------------------|
|----------------------------|
|----------------------------|


                                  C5
       PM|     PM--------------|     PM|      PM--|
    E  E  E E  E E  S S E    E  E E  E E  E   E    E
|-------------------------|--------------------------|
|-------------------------|--------------------------|
|-------------------------|--------------------------|
|-------------------------|-------5-------5----------|
|---2-------2-------------|--3--3-3--3-3--3---3----3-|
|---0--0--0-0--0-0--0-0-0-|--------------------------|
|
|   W                        W
|-------------------------|--------------------------|
|-------------------------|--------------------------|
|--12---------------------|--5-----------------------|
|--10---------------------|--5-----------------------|
|-------------------------|--------------------------|
|-------------------------|--------------------------|
|
|~~~~~~                                            ~~
|  +Q     Q    Q    Q        E  Q    E E  E  +E    E
|-(20)---19---17----------|--------------17-(17)\-14-|
|-(13)---12---10---20-----|-20s17---20---10-(10)\--7-|
|------------------12-----|-12s=9---12---------------|
|-------------------------|--------------------------|
|-------------------------|--------------------------|
|-------------------------|--------------------------|


  B5       N.C.
    Q   Q  +Q    Q      +H.              Q
|--------------------|----------------------||
|--------------------|----------------------||
|--------------------|----------------------||
|---4---9--(9)-------|------------------10--||
|---2------------9---|--(9)-----------------||
|--------------------|----------------------||
|
|   Q   Q   Q   +Q       Q    Q    Q     Q
|--------------------|----------------------||
|--------------------|------------15----13--||
|----------/8---(8)--|-/14---14-------------||
|---4---4------------|----------------------||
|---2---2------------|----------------------||
|--------------------|----------------------||
|
|   ~~~~
|  +W                   +H        +H
|-(14)---------------|-(14)------(14)\------||
|--(7)---------------|--(7)-------(7)\------||
|--------------------|----------------------||
|--------------------|----------------------||
|--------------------|----------------------||
|--------------------|----------------------||


 Interlude
  Gtr IV
   ~~~
   H      S  S  S  S  E  E     W
|--------15-15-15-15-15\-----|-----------------------|
|-15-------------------------|-----------------------|
|-15-------------------------|-----------------------|
|----------------------------|-----------------------|
|----------------------------|-----------------------|
|----------------------------|-----------------------|
|
| Gtr V
|  H      Q           E  E     E E   E E   +Q   +Q
|----------------------------|-----------------------|
|----------------------------|-----------------------|
|------------------------2b3-|---3b5---6b7-(6)--(6)--|
|-12\------------------------|-----------------------|
|----------------------------|-----------------------|
|----------------------------|-----------------------|


   ~~~~
   H         S  S  S  S  E  E     W
|-----------15-15-15-15-15\-----|-----------------------|
|-15----------------------------|-----------------------|
|-15----------------------------|-----------------------|
|-------------------------------|-----------------------|
|-------------------------------|-----------------------|
|-------------------------------|-----------------------|
|
| +E   E H               E  E     E E   E E   +Q   +Q
|-------------------------------|-----------------------|
|---------------------------2b3-|---3b4---5b6-(5)--(5)--|
|-(6)\----------------------2b3-|---3b5---6b7-(6)--(6)--|
|-------------------------------|-----------------------|
|-------------------------------|-----------------------|
|-------------------------------|-----------------------|


   ~~~~
   H         S  S  S  S  E  E    Q.          E  +E   E  +E  E
|-----------15-15-15-15-15\---|-------------------------------|
|-15--------------------------|-------------------------------|
|-15--------------------------|-----------------------------8-|
|-----------------------------|-------------11-(11)-12-(12)---|
|-----------------------------|-------------------------------|
|-----------------------------|-------------------------------|
|
| +E   E H               E  E   +E   E  +E   E  +E   E  +E  E
|-----------------------------|-------------------------------|
|-(5)\------------------------|-------------------------------|
|-(6)\------------------------|-----------------------------8-|
|---------------------------8-|-(8)-10-(10)-11-(11)-12-(12)---|
|-----------------------------|-------------------------------|
|-----------------------------|-------------------------------|


  +E   E  +E   E  +E   E  +E   E    +E   E  +E   E  +E   E      E  E
|--------------------------------|--------------10-(10)-11-----12-----||
|---------------------11-(11)-13-|-(13)-14-(14)-----------------------||
|-(8)-10-(10)-12-(12)------------|---------------7--(7)--8------9-----||
|----------------------8--(8)-10-|-(10)-11-(11)-----------------------||
|-------------10-(10)------------|------------------------------------||
|--------------------------------|------------------------------------||
|
| +E   E  +E   E  +E   E  +E   E    +E   E  +E   E  +E.     E.     E
|--------------------------------|--------------10-(10)----11-----12--||
|---------------------11-(11)-13-|-(13)-14-(14)-----------------------||
|-(8)-10-(10)-12-(12)------------|------------------------------------||
|--------------------------------|------------------------------------||
|--------------------------------|------------------------------------||
|--------------------------------|------------------------------------||


 Bridge
  Gtr III
                            ~~~~~~~~~      ~~~~~~~
   Q       E  Q       E  E  E    +Q    Q   H
|---------13---------13-13-13-|-(13)--14--14-----|
|-16b18------16b18------------|------------------|
|-----------------------------|------------------|
|-----------------------------|------------------|
|-----------------------------|------------------|
|-----------------------------|------------------|
|
| Gtr IV
|  H               H              W
|-12b13\----------------------|------------------|
|-----------------------------|------------------|
|-----------------------------|------------------|
|-----------------------------|------------------|
|-----------------------------|------------------|
|-----------------------------|------------------|
|
| Gtrs I, II
|  Q       Q       Q     Q        Q    Q   Q  Q
|----------6------------------|--------6---------|
|------------------6----------|------------7-----|
|--6---------------------6----|---6-----------6--|
|-----------------------------|------------------|
|-----------------------------|------------------|
|-----------------------------|------------------|


 ~~~~~~                          ~~~~~~~~~~~~~               ~~
   +E   E  +E   E  E     +E   E  E        +E   +Q     E  Q   Q
|-(14)---------------------------------|------------------------|
|------16-(16)-16-14b16r(14)-16-14b16==|=(14)-(14)r==14p13--14--|
|--------------------------------------|------------------------|
|--------------------------------------|------------------------|
|--------------------------------------|------------------------|
|--------------------------------------|------------------------|
|
|   W                                      W
|--------------------------------------|------------------------|
|--------------------------------------|------------------------|
|--------------------------------------|------------------------|
|--------------------------------------|------------------------|
|--------------------------------------|------------------------|
|--------------------------------------|------------------------|
|
|   Q       Q      Q          Q            Q       Q     Q   Q
|-----------6--------------------------|-----------6------------|
|------------------7-------------------|-----------------6------|
|---8-------------------------8--------|---6-----------------6--|
|--------------------------------------|------------------------|
|--------------------------------------|------------------------|
|--------------------------------------|------------------------|


    ~~~~       ~~
   +Q    E  E  Q   E  E        +Q     Q      Q   Q
|-------13-13-13--13-13b14==|=(13)r--13b14r=11------|
|-(14)----------------------|-------------------14--|
|---------------------------|-----------------------|
|---------------------------|-----------------------|
|---------------------------|-----------------------|
|---------------------------|-----------------------|
|
| Gtrs I, II
|   Q    Q     Q   Q            Q     Q      Q   Q
|--------6------------------|---------6-------------|
|--------------6------------|----------------7------|
|---6--------------6--------|---6----------------6S=|
|---------------------------|-----------------------|
|---------------------------|-----------------------|
|---------------------------|-----------------------|


   E.  S  +E   E  E  Q          +E
|------------------------------------|
|-14----------14----14b16======(14)r=|
|-----15-(15)------------------------|
|------------------------------------|
|------------------------------------|
|------------------------------------|
|
|  Q       Q      Q         Q
|----------9-------------------------|
|----------------11------------------|
|-11-----------------------11\-------|
|------------------------------------|
|------------------------------------|
|------------------------------------|


  F5
        ~~~~~~~~~~~~~~~~~~~~~~~
   +E   E  +H.             +Q    Q   H       W                H       H
|-----------------------|------------------|----------------|---------5S====|
|-(14)-13-(13)----------|-(13)-------------|----------------|---------6S====|
|-----------------------|------------------|----------------|---------------|
|-----------------------|--------x\--------|----------------|---------------|
|-----------------------|------------x\----|----------------|---------------|
|-----------------------|------------------|----------------|---------------|
|
|   PM-|       PM   PM|        PM            PM|   PM   PM|     PM
|   E   E   E  E Q  E E     E  E H.          E E E E Q  E E   E E H.
|-----------------------|------------------|----------------|---------------|
|-----------------------|------------------|----------------|---------------|
|-----------------------|------------------|----------------|---------------|
|-----------------------|------------------|----------------|---------------|
|---3---3------3----3-3-|------3-----------|-3-3---3----3-3-|---3-----------|
|---1---1------1----1-1-|------1-----------|-1-1---1----1-1-|---1-----------|


   TP      TP TP     TP TP    TP  TP TP   TP TP TP TP
   Q.      a  Q.     E  E    +E   E  Q    E  E  E  E
|-11------10S11-----10S11-|-(11)-10S11---10S11-10S11-|
|-13------12S13-----12S13-|-(13)-12S13---12S13-12S13-|
|-------------------------|--------------------------|
|-------------------------|--------------------------|
|-------------------------|--------------------------|
|-------------------------|--------------------------|
|
|  PM-|       PM     PM|          PM
|  E  E E     E  Q   E  E     E   E  H.
|-------------------------|--------------------------|
|-------------------------|--------------------------|
|-------------------------|--------------------------|
|-------------------------|--------------------------|
|--3--3-------3------3--3-|-------3------------------|
|--1--1-------1------1--1-|-------1------------------|


   TP      TP TP     TP TP    TP  TP TP   TP TP TP TP
   Q.      a  Q.     E  E    +E   E  Q    E  E  E  E
|-10-------9S10------9S10-|-(10)--9S10----9S10--9S10--|
|-11------10S11-----10S11-|-(11)-10S11---10S11-10S11--|
|-------------------------|---------------------------|
|-------------------------|---------------------------|
|-------------------------|---------------------------|
|-------------------------|---------------------------|
|
|  PM-|       PM     PM|          PM
|  E  E E     E  Q   E  E     E   E  H.
|-------------------------|---------------------------|
|-------------------------|---------------------------|
|-------------------------|---------------------------|
|-------------------------|---------------------------|
|--3--3-------3------3--3-|-------3-------------------|
|--1--1-------1------1--1-|-------1-------------------|


  TP     TPTP    TPTP   TP TPTP  TPTPTPTP  TPTP  TPTPTP TPTP  TPTPTP  TPTPTPTP
  Q.     a Q.    E E   +E  E Q   E E E E   E Q   a E Q  E E   E E Q   E E E E
|-8------7S8-----7S8-|-(8)-7S8---7S8-7S8-|-4-5---3S4-5--4S5-|-5-4S5---4S5-4S5--|
|-9------8S9-----8S9-|-(9)-8S9---8S9-8S9-|-6-6---5S6-6--5S6-|-6-5S6---5S6-5S6--|
|--------------------|-------------------|------------------|------------------|
|--------------------|-------------------|------------------|------------------|
|--------------------|-------------------|------------------|------------------|
|--------------------|-------------------|------------------|------------------|
|
| PM-|     PM    PM|       PM              PM|     PM   PM|     PM
| E  E E   E  Q  E E    E  E H.            E E E   E Q  E E   E E H.
|--------------------|-------------------|------------------|------------------|
|--------------------|-------------------|------------------|------------------|
|--------------------|-------------------|------------------|------------------|
|--------------------|-------------------|------------------|------------------|
|-3--3-----3-----3-3-|-----3-------------|-3-3-----3----3-3-|---3--------------|
|-1--1-----1-----1-1-|-----1-------------|-1-1-----1----1-1-|---1--------------|


  |--3--| |--3--| |-3-| |--3--|    |--3---| |-3--| |-3-| |-3-|
  E E   E E E   E E E E E E   E    E  E   E E  E E E E E E E E
|-4-----------------------------|------------------------------|
|---6---4---------4-------------|------------------------------|
|---------5-3-------5-3---------|-[5]-3------------5-3---------|
|---------------6-------6-3-----|---------6-3----------6-------|
|-----------------------------6-|--------------6-3-------3-----|
|-------------------------------|--------------------------6-4-|
|
| PM--|       PM        PM--|           PM
| E   E   E   E   Q     E   E      E    E   H.
|-------------------------------|------------------------------|
|-------------------------------|------------------------------|
|-------------------------------|------------------------------|
|-------------------------------|------------------------------|
|-3---3-------3---------3---3---|-------3----------------------|
|-1---1-------1---------1---1---|-------1----------------------|


  ~
  H       +E   Q.       W
|---------------------|------------||
|---------------------|------------||
|---------------------|------------||
|---------------------|------------||
|---------------------|-x\---------||
|-1-------(1)s13\-----|-x\---------||
|
| PM|   PM        PM|      PM
| E E E E  Q      E E   E  E H.
|---------------------|------------||
|---------------------|------------||
|---------------------|------------||
|---------------------|------------||
|-3-3---3---------3-3-|----3-------||
|-1-1---1---------1-1-|----1-------||


    F5                                        E5
    Gtrs I, II
    PM|   PM   PM|     PM          PM|   PM   PM|     PM
    E E E E Q  E E   E E H.        E E E E Q  E E   E E H.
||-----------------|-------------|----------------|------------||
||o----------------|-------------|----------------|-----------o||
||-----------------|-------------|----------------|------------||
||-----------------|-------------|----------------|------------||
||o-3-3---3----3-3-|---3---------|-3-3---3----2-2-|---2-------o||
||--1-1---1----1-1-|---1---------|-1-1---1----0-0-|---0--------||


   Outro
      G5  A5      A5    B5      B5  C5         N.C.
    PM      PM--|         PM--|          PM--|
    E E E E E E E E   E E E E E E E  E   E E E S S E E E E   3x
||------------------|------------------|---------------------||
||o-----------------|------------------|--------------------o||
||------------------|------------------|---------------------||
||------------------|------------------|---------------------||
||o---5-x-7-------7-|-x-9-------9-x-10-|-------2h3p2--------o||
||--0-3-x-5-0-0-0-5-|-x-7-0-0-0-7-x--8-|-0-0-0-------5-3-0---||


    G5  A5      A5    B5      B5  C5
  PM      PM--|         PM--|
  E E E E E E E E   E E E E E E E  E   Wx8
|-----------------|------------------|--------*|
|-----------------|------------------|--------*|
|-----------------|------------------|--------*|
|-----------------|------------------|--------*|
|---5-x-7-------7-|-x-9-------9-x-10-|--------*|
|-0-3-x-5-0-0-0-5-|-x-7-0-0-0-7-x--8-|--------*|



Duration Legend
---------------
W - whole; H - half; Q - quarter; E - 8th; S - 16th; T - 32nd; X - 64th; a - acciaccatura
+ - note tied to previous; . - note dotted; .. - note double dotted
Uncapitalized letters represent notes that are staccato (1/2 duration)
Irregular groupings are notated above the duration line
Duration letters will always appear directly above the note/fret number it represents the
duration for.  Duration letters with no fret number below them represent rests.  Multi-
bar rests are notated in the form Wxn, where n is the number of bars to rest for.  Low
melody durations appear below the staff

Tablature Legend
----------------
 h   - hammer-on
 p   - pull-off
 b   - bend
 pb  - pre-bend
 r   - bend release (if no number after the r, then release immediately)
 /\  - slide into or out of (from/to "nowhere")
 s   - legato slide
 S   - shift slide
<n> - natural harmonic
[n]  - artificial harmonic
n(n) - tapped harmonic
 ~   - vibrato
 tr  - trill
 T   - tap
 TP  - trem. picking
 PM  - palm muting
\n/  - tremolo bar dip; n = amount to dip
 \n  - tremolo bar down
 n/  - tremolo bar up
/n\  - tremolo bar inverted dip
 =   - hold bend; also acts as connecting device for hammers/pulls
 <> - volume swell (louder/softer)
 x   - on rhythm slash represents muted slash
 o   - on rhythm slash represents single note slash

Misc Legend
-----------
 |  - bar
||  - double bar
||o - repeat start
o|| - repeat end
*|  - double bar (ending)
 :  - bar (freetime)
 $  - Segno
 &  - Coda
Tempo markers - <E/E./Q/Q./H/H.> = BPM(8/16=s8/s16), where s8 = swing 8ths, s16 = swing 16ths

comments
We did not receive enough feedback on this tab! Please rate:
print report bad tab
1 2 3 4 5
I want to post or [tab]
guest
You may want to rate the tab now too:
select rating
Please do not post tabs as comments. Select "correction" instead!