Oops, an error
Loading. Please wait.

Gears Of War Bass Tab

ver1
ver1

Whole song

More versions @911Tabs.com
3,684 views 6 this week
no commentswrite comment
1 2 3 4 5
excellent!
x 2
Autoscroll
+/-
esc
set tempo
stop
Contributor
Difficulty
novice
NEW! There's an official Ultimate Guitar app which is ideal
for learning songs when you're away from computer. Get the app
WARNING: You are trying to view
                                    content from Ultimate-Guitar.com
                                    in an unauthorized application,
                                    which is prohibited.

                                    Please use an official Ultimate
                                    Guitar Tabs application for iPhone,
                                    iPad or Android to access legitimate
                                    chords, guitar, bass, and drum tabs
                                    from Ultimate-Guitar.com database.

                                    Type "ultimate guitar tabs" in Apple
                                    App Store's or Android Market's
                                    search to find the application.
 Q=77
 4/4
  Gtr I
|---------------|-------------|---------------|--------------|
|---------------|-------------|---------------|--------------|
|---------------|-3---2-------|---------------|-3---2--------|
|-0---/6----(6)-|---------3-2-|-0---/6----(6)-|---------3-2--|


|---------------|-------------|---------------|-------------|
|---------------|-------------|---------------|-------------|
|---------------|-3---2-------|---------------|-3---2-------|
|-0---/6----(6)-|---------3-2-|-0---/6----(6)-|---------3-2-|


|----------|------------|----------|--------------|
|----------|------------|----------|--------------|
|----------|------------|----------|--------------|
|-0--------|-(0)------0-|-0--------|-(0)--------0-|


                           Q=128
|----------|-------------|----------|-----|
|----------|-------------|----------|-----|
|----------|-------------|----------|-----|
|-0--------|-(0)-------0-|-0--------|-----|


|-------|---------|---------|------------|
|-------|---------|---------|------------|
|-------|---------|---------|----0-1-2---|
|-------|---------|---------|------------|


|------------------|------------------|-----------------|-------------------|
|------------------|------------------|-----------------|-------------------|
|-(2)--------0-1-2-|-(2)--------0-1-2-|-(2)-------0-2-3-|-(3)--------0-1-2--|
|------0-0-0-------|------0-0-0-------|-----0-0-0-------|------1-1-1--------|


|------------------|------------------|-----------------|-------------------|
|------------------|------------------|-----------------|-------------------|
|-(2)--------0-1-2-|-(2)--------0-1-2-|-(2)-------0-2-3-|-(3)--------0-1-2--|
|------0-0-0-------|------0-0-0-------|-----0-0-0-------|------1-1-1--------|


|------------------|------------------|-----------------|-------------------|
|------------------|------------------|-----------------|-------------------|
|-(2)--------0-1-2-|-(2)--------0-1-2-|-(2)-------0-2-3-|-(3)-------2-3-4---|
|------0-0-0-------|------0-0-0-------|-----0-0-0-------|-----1-1-1---------|


|------------------|------------------|------------------|------------------|
|------------------|------------------|------------------|------------------|
|-(4)--------2-3-4-|-(4)--------2-3-4-|-(4)--------2-4-5-|-(5)--------0-1-2-|
|------2-2-2-------|------2-2-2-------|------2-2-2-------|------3-3-3-------|


|------------------|------------------|------------------|------------------|
|------------------|------------------|------------------|------------------|
|-(2)--------0-1-2-|-(2)--------0-1-2-|-(2)--------0-2-3-|-(3)--------------|
|------0-0-0-------|------0-0-0-------|------0-0-0-------|------1-1-1-1-1-1-|


|---------------------------|-------------------------|
|---------------------------|-------------------------|
|-7-7-7-7-7-7-5s7-7-7-7-7---|-----------------------7-|
|-------------------------7-|-(7)-7-7-7-7-7-7-7-7-7---|


|-----------------------------|-----------------------|
|-----------------------------|-----------------------|
|-(7)-7-7-7-7-7-5s7-7-7-7-7---|-----------------------|
|---------------------------7-|-(7)-7-7-7-7-7-7-6-5-3-|


|---------------------------|-------------------------|
|---------------------------|-------------------------|
|-7-7-7-7-7-7-5s7-7-7-7-7---|-----------------------7-|
|-------------------------7-|-(7)-7-7-7-7-7-7-7-7-7---|


|-----------------------------|-----------------------|
|-----------------------------|-----------------------|
|-(7)-7-7-7-7-7-5s7-7-7-7-7---|-----------------------|
|---------------------------7-|-(7)-7-7-7-7-7-7-6-5-3-|


|---------|---------|------------|-------------------|
|---------|---------|------------|-------------------|
|---------|---------|------0-2-3-|-(3)-3-3-3-3-0-1-2-|
|---------|---------|------------|-------------------|


|------------------|------------------|------------------|------------------|
|------------------|------------------|------------------|------------------|
|-(2)--------0-1-2-|-(2)--------0-1-2-|-(2)--------0-2-3-|-(3)--------0-1-2-|
|------0-0-0-------|------0-0-0-------|------0-0-0-------|------1-1-1-------|


|------------------|------------------|------------------|------------------|
|------------------|------------------|------------------|------------------|
|-(2)--------0-1-2-|-(2)--------0-1-2-|-(2)--------0-2-3-|-(3)--------0-1-2-|
|------0-0-0-------|------0-0-0-------|------0-0-0-------|------1-1-1-------|


|------------------|------------------|------------------|------------------|
|------------------|------------------|------------------|------------------|
|-(2)--------0-1-2-|-(2)--------0-1-2-|-(2)--------0-2-3-|-(3)--------2-3-4-|
|------0-0-0-------|------0-0-0-------|------0-0-0-------|------1-1-1-------|


|------------------|------------------|------------------|------------------|
|------------------|------------------|------------------|------------------|
|-(4)--------2-3-4-|-(4)--------2-3-4-|-(4)--------2-4-5-|-(5)--------0-1-2-|
|------2-2-2-------|------2-2-2-------|------2-2-2-------|------3-3-3-------|


|------------------|------------------|------------------|------------------|
|------------------|------------------|------------------|------------------|
|-(2)--------0-1-2-|-(2)--------0-1-2-|-(2)--------0-2-3-|-(3)------3-2-----|
|------0-0-0-------|------0-0-0-------|------0-0-0-------|------1-1-----3-2-|


|---------------------------|-------------------------|
|---------------------------|-------------------------|
|-7-7-7-7-7-7-5s7-7-7-7-7---|-----------------------7-|
|-------------------------7-|-(7)-7-7-7-7-7-7-7-7-7---|


|-----------------------------|-----------------------|
|-----------------------------|-----------------------|
|-(7)-7-7-7-7-7-5s7-7-7-7-7---|-----------------------|
|---------------------------7-|-(7)-7-7-7-7-7-7-6-5-3-|


|---------------------------|-------------------------|
|---------------------------|-------------------------|
|-7-7-7-7-7-7-5s7-7-7-7-7---|-----------------------7-|
|-------------------------7-|-(7)-7-7-7-7-7-7-7-7-7---|


|---------------------------|-----------------------|
|---------------------------|-----------------------|
|-7-7-7-7-7-7-5s7-7-7-7-7---|-----------------------|
|-------------------------7-|-(7)-7-7-7-7-7-7-6-5-3-|


  Q=132
|-----------|---------|-----------|-----|
|-6-------6-|---------|-----------|-----|
|-4-------4-|---------|-4-------4-|-----|
|-----------|---------|-5-------5-|-----|


|-----------|---------|-----------|----------------|
|-2-------2-|---------|-6-------6-|--6-6-6-6-4-----|
|-4-------4-|---------|-6-------6-|------------6-4-|
|-----------|---------|-----------|----------------|


|----------------|---------------|----------------|---------------|
|----------------|---------------|----------------|---------------|
|-4--4-4-4-4-4-4-|-4-4-4-4-4--4--|-5--5-5-5-5-5-5-|-5-5-5-5-5--5--|
|----------------|---------------|----------------|---------------|


|----------------|---------------|----------------|---------------|
|----------------|---------------|----------------|---------------|
|----------------|---------------|----------------|---------------|
|-4--4-4-4-4-4-4-|-4-4-4-4-4--4--|-4--4-4-4-4-4-4-|-(4)-4-4-4-4-4-|


|----------------|---------------|----------------|---------------|
|----------------|---------------|----------------|---------------|
|-7--7-7-7-7-7-7-|-7-7-7-7-7--7--|-7--7-7-7-7-7-7-|-7-7-7-7-7--7--|
|----------------|---------------|----------------|---------------|


|----------------|---------------|----------------|---------------|
|----------------|---------------|----------------|---------------|
|----------------|---------------|----------------|---------------|
|-8--8-8-8-8-8-8-|-8-8-8-8-8--8--|-5--5-5-5-5-5-5-|-5-5-5-5-5--5--|


|----------------|---------------|----------------|---------------|
|----------------|---------------|----------------|---------------|
|-7--7-7-7-7-7-7-|-7-7-7-7-7--7--|-7--7-7-7-7-7-7-|-7-7-7-7-7--7--|
|----------------|---------------|----------------|---------------|


|----------------|---------------|----------------|---------------|
|----------------|---------------|----------------|---------------|
|----------------|---------------|----------------|---------------|
|-8--8-8-8-8-8-8-|-8-8-8-8-8--8--|-5--5-5-5-5-5-5-|-5-5-5-5-5--5--|


|----------------|---------------|----------------|---------------|
|----------------|---------------|----------------|---------------|
|-7--7-7-7-7-7-7-|-7-7-7-7-7--7--|-7--7-7-7-7-7-7-|-7-7-7-7-7--7--|
|----------------|---------------|----------------|---------------|


|----------------|---------------|------------|---------------|
|----------------|---------------|------------|---------------|
|----------------|---------------|-7---6---5--|-(5)-4---3--2--|
|-8--8-8-8-8-8-8-|-8-8-8-8-8--8--|------------|---------------|


|----------|------------|------------|--------|
|----------|------------|------------|--------|
|----------|------------|------------|--------|
|-0--------|-(0)--------|-(0)--------|-(0)----|
comments
We did not receive enough feedback on this tab! Please rate:
print report bad tab
1 2 3 4 5
I want to post or [tab]
guest
You may want to rate the tab now too:
select rating
Please do not post tabs as comments. Select "correction" instead!