Oops, an error
Loading. Please wait.

Go To Hell Bass Tab

ver2
ver2

Whole song

More versions @911Tabs.com
3,191 views 9 this week
1 commentread comment
1 2 3 4 5
excellent!
x 3
Autoscroll
+/-
esc
set tempo
stop
Contributor
Tuning
D A D G B E
WARNING: You are trying to view
                                    content from Ultimate-Guitar.com
                                    in an unauthorized application,
                                    which is prohibited.

                                    Please use an official Ultimate
                                    Guitar Tabs application for iPhone,
                                    iPad or Android to access legitimate
                                    chords, guitar, bass, and drum tabs
                                    from Ultimate-Guitar.com database.

                                    Type "ultimate guitar tabs" in Apple
                                    App Store's or Android Market's
                                    search to find the application.
This song was transcribed by creepingdeth66 on tTabs, NOT me.

Drop d Tuning

   intro
G-----------------------------------------------------------------------------------|
D-----------------------------------------------------------------------------------|
A-----------------------------------------------------------------------------------|
D---2---2-2-2-2---2---2-3---3-3-3-3---2---2-2-2-2---2---2-1---1-1-1-1-2---2-2-2-2---|

G-----------------------------------------------------------------------------------|
D-----------------------------------------------------------------------------------|
A---------------------------------------------2-------5/7~~~-2-------5/6~~~-2-------|
D-----2---2-3---3-3-3-3---2---2-2-2-2---2-2-1---5-4-3----------5-4-3----------5-4---|

G-----------------------------------------------------------------------------------|
D-----------------------------------------------------------------------------------|
A-----4/5~~~-2-------3/4~~~-----------------3-------------2---2-2-2-2-2-------------|
D---3----------5-4-3--------5-4-3---------------------------------------5-4-3-------|

G---||-------------------------------------------------------------------||---------|
D---||*-----------------------------4-2---------------------------------*||---------|
A---||*---2-2-2-3---3-3-----4-4-4-5-----3---2-2-2-3---3-3-------2-------*||---------|
D---||--2---------------2-----------------2---------------4-4-4---5-4-3--||---------|


    Spoken
G-----------------------------------------------------------------------------------|
D-----------------------------------------------------------------------------------|
A-----------------------------------------------------------------------------------|
D---2---2-2-2-2---2---2-3---3-3-3-3---2---2-2-2-2---2---2-1---1-1-1-1-2---2-2-2-2---|

G-----------------------------------------------------------------------------------|
D-----------------------------------------------------------------------------------|
A---------------------------------------------2-------5/7~~~-2-------5/6~~~-2-------|
D-----2---2-3---3-3-3-3---2---2-2-2-2---2-2-1---5-4-3----------5-4-3----------5-4---|

G-----------------------------------------------------------------------------------|
D-----------------------------------------------------------------------------------|
A-----4/5~~~-2-------3/4~~~-----------------3-------------2-------------------------|
D---3----------5-4-3--------5-4-3---------------------------------3-----------------|

G-------------------------------------------------------|---------------------------|
D-------------------------------------------------------|---------------------------|
A-------------5-4---3---------------------------5-4---3-|---------------------------|
D-------------------------------------------------------|---------------------------|


        verses
G---||------------------------------------------------------------------------------|
D---||*-----------------------------------------------------------------------------|
A---||*-------------2---------------3-------------0-------------5-4-3---------------|
D---||--2---2---2-2---------2-2-2-2-------2-2-2-2-------2-2-2-2---------2---2---2---|

G-----------------------------------------------------------------------------------|
D-----------------------------------------------------------------2-----------------|
A-----2---------------3-------------0-------------5-4-3-----------2-----------------|
D---2---------2-2-2-2-------2-2-2-2-------2-2-2-2---------2-2-2-2---------2-2-2-2---|

G--------------------------------------||-------------------------------------------|
D---3-----6-------------------------3-*||-------------------------------------------|
A---3-----6-----0-3-2---2-1-------3---*||-------------------------------------------|
D-------2-6---2-------6-----3-2-3------||-------------------------------------------|

G-----------------------------------------------------------------------------------|
D---------------------7-6-5---4/5-4---3-------------------7-6-5---4/5---4---3-------|
A---2-----3-----0-----------------------2-----3-----0-------------------------2-----|
D-----2-2---2-2---2-2---------------------2-2---2-2---2-2-----------------------2---|

G----------------------------------------------------------12-----------11----------|
D-----------------7-6-5---4/5---4---3----------------------11-11-----10----10-------|
A-----3-----0-------------------------2-----3-----0---10---------x-9----------------|
D---2---2-2---2-2-----------------------2-2---2-2---2-------------------------------|

G-----------------------------------------------------------------------------------|
D-----------------------------------------------------------------------------------|
A---2-----3-----0-------------------------------------------------------------------|
D-----2-2---2-2-------------2---------------------------2-----------------------3---|

G-----------------------------------------------------------|-----------------------|
D-----------------------------------------------------------|-----------------------|
A-----------------------------------------------------------|-----------------------|
D-----------------------2---------------------------------3-|-----------------------|


    solo
G-----------------------------------------------------------------------------------|
D-----------------------------------------------------------------------------------|
A---------------0-----------------------------------------0h2---0-------------------|
D---4---2-4-4-2-----------2---5-3---4/5-----4-----2-4-4-2-------------2-----5---3---|

G-----------------------------------------------------------------------------------|
D-----------------------------------------------------------------------------------|
A-----------------------------------------------------------------------------------|
D---5-----2-2-2-2-2-2-5-------0-----3---1---2/3-----2-2-2-2---2-2-5/7-----5-----0---|

G-----------------------------------------------------------------------------------|
D-------------------------------------------------------------------4-2-------------|
A---------------1/2-----2-2---2-3-----3-3---3---3/4---4-4---4-4-5-5-----3-1/2-------|
D-------3---1-3---------------------------------------------------------------------|

G-----------------------------------------------------------------------------------|
D-----------------------------------------------------------------------------------|
A---2-2---2-3---3---3-3---------------------4-3-2---1/2-----2-2-2-2/3---3---3---3---|
D-----------------------4---4-4-4-4-4/5---------------------------------------------|

G-----------------------------------------------------------------------------------|
D-----------------------4-2-----------------------------------------------------4---|
A-----3/4---4-4-4-4-5-------3---1/2---2-2-2---2-3-3-3---3-3-------------------------|
D-------------------------------------------------------------4---4-4-4-4-4/5-5-----|

G-----------------------------------------------------------------------------------|
D---4-2-----------------------------------------------------------------------------|
A-------2-2-------5-4-3---3-------5-4-3---2-------5-4-3---7-6-5---5-4-3---2---------|
D-----------2-2-2-------2---2-2-2-------2---2-2-2-------2-------2-------2---2-2-2---|

G-----------------------------------------------------------------------------------|
D-----------------------------------------------------------------------------------|
A---5-4-3---7-6-5---5-4-3---2-------5-4-3---7-6-5---5-4-3---1/2---2-2-2---2---2-----|
D---------2-------2-------2---2-2-2-------2-------2---------------------------------|

G-----------------------------------------------------------------------------------|
D-----------------------------------4-2---------------------------------------------|
A---3-3---3---3---3/4---4-4-4-4-4-5-----3---1/2---2-2-2-2-2-3---3-3---3---3---------|
D---------------------------------------------------------------------------4---4---|

G-----------------------------------------------------------------------------------|
D---------------4-2-----------------------------------------------------------------|
A-------------------2---------------0---------------------------------0h2---0-------|
D---4-4-4-4/5-5-------4-2---3-4---4---2---5---3---4/5---4-2---3-4---2---------0-2---|

G-----------------------------------------------------------------------------------|
D-----------------------------------------------------------------------------------|
A-----------------------------------------------------------------------------------|
D-----5-3---4/5---2-2-2-2-2-2-5-----0---3-1---2/3-----2-2-2-2-2-2---5/7-----5-------|

G-----------------------------------------------------------------------------------|
D-------------------------------------7-6-5-4/5-4-3-----------------------7-6-5-4---|
A-------------------2-----3-----0-----------------------2-----3-----0---------------|
D---0-----3-1-3-------2-2---2-2---2-2---------------------2-2---2-2---2-2-----------|

G----------------------------------------------------------------------|------------|
D---/5-4-3-----------------------7-6-5-4/5-4-3-------------------------|------------|
A--------------2-----3-----0-------------------2-----3-----0---2-------|------------|
D----------------2-2---2-2---2-2-----------------2-2---2-2---2---5-4-3-|------------|


    spoken - dave
G-----------------------------------------------------------------------------------|
D-----------------------------------------------------------------------------------|
A-----------------------------------------------------------------------------------|
D---2---2-2-2-2---2---2-3---3-3-3-3---2---2-2-2-2---2---2-1---1-1-1-1-2---2-2-2-2---|

G-----------------------------------------------------------------------------------|
D-----------------------------------------------------------------------------------|
A---------------------------------------------2-----------2---------2---------2-----|
D-----2---2-3---3-3-3-3---2---2-2-2-2---2-2-1---5-4-3---2---5-4-3-2---5-4-3-2---5---|

G-----------------------------------------------------||----------------------------|
D-----------------------------------------------------||----------------------------|
A---------2-------------------------------------------||----------------------------|
D---4-3-2---5-4-3-2---------------------------------2-||----------------------------|


====================================================================================
==                             TABLATURE EXPLANATION                              ==
====================================================================================

----------                ----------                ----t---|
----5h8--- Hammeron       ----(8)--- Ghost          ----6---| Tap
----------                ---------- Note           --------|
----5p8--- Pulloff        ----------                --------|

----------                ----------                -----p---|
----5/8--- Slide Up       -----x---- Dead           -----7---| Pop
----------                ---------- Note           --s------|
----58--- Slide Down     ----------                --5-------| Slap

----------                ||------|| Repeat         --------|
----5~~~-- Vibrato        ||*----*||                ---5^---| Bend
----------                ||*----*||                --------|
----------                ||------||                --------|

----------                ----------                --------|
-4:------- Time           ----------                --------|
-4:------- Signature      ----------                --------|
----------                ----------                --------|
comments
We did not receive enough feedback on this tab! Please rate:
1 2 3 4 5
1 comment total.
0 reply
MetalFrancis wrote on July 30 2012, 03:47 am

It's not in Drop D, Ellefson always use a five strings..

I want to post or [tab]
guest
You may want to rate the tab now too:
select rating
Please do not post tabs as comments. Select "correction" instead!