Oops, an error
Loading. Please wait.

Greatest Hits Tab

11,600 views 6 this week
5 commentsread comments
1 2 3 4 5
accurate
x 3
Autoscroll
+/-
esc
set tempo
stop
Contributor
Hey! There's an official Ultimate Guitar app which is ideal
for learning songs when you're away from computer. Get the app
WARNING: You are trying to view
                                    content from Ultimate-Guitar.com
                                    in an unauthorized application,
                                    which is prohibited.

                                    Please use an official Ultimate
                                    Guitar Tabs application for iPhone,
                                    iPad or Android to access legitimate
                                    chords, guitar, bass, and drum tabs
                                    from Ultimate-Guitar.com database.

                                    Type "ultimate guitar tabs" in Apple
                                    App Store's or Android Market's
                                    search to find the application.
Band- Megadeth
Album- Greatest Hits

This album didn't even come out yet,I don't know when it will be coming out,anyway here
is Megadeth's Greatest Hits!

Tracks:
1.Blackmail The Universe
2.Set The World Afire
3.Skin O' My Teeth
4.Scorpion
5.Wake Up Dead
6.Something I'm Not
7.In My Darkest Hour
8.Angry Again
9.Of Mice And Men
10.A Tout Le Monde
11.Die Dead Enough
12.Trust
13.Tornado Of Souls
14.Kick The Chair
15.Hanger 18
16.Sweating Bullets
17.Symphony Of Destruction
18.Back In The Day
19.Peace Sells/Mechanix
20.Holy Wars

---------------------------------------------------------

1.Blackmail The Universe
Band:Megadeth
Album:System Has Failed
Tuning:Standard

Riff 1 (Play 2x)
e|-------------------------|
B|-------------------------|
G|-------------------------|
D|-------------------------| ---|
A|-------------------------|    |
E|-0-0-0-3-2-0-0-0-0-5-3-0-|    |
   * * * * * * * * * * * *      |
          "This is..."          |
e|-------------------------|    |--> Play 2x
B|-------------------------|    |
G|-------------------------|    |
D|-------------------------| ---|
A|-------------------------|
E|-0-0-0-3-2-0-5-3-0-3-2-0-|
   * * * * * * * * * * * *
   "...breaking news..."

e|---------------------------------|
B|---------------------------------|
G|---------------------------------|
D|---------------------------------|
A|-----444-----333-----222-----333-|
E|-222-----222-----222-----222-----|
   ***     ***     ***     ***
  "...Middle East..."


Riff 1a
e|-------------------------|
B|-------------------------|
G|-------------------------|
D|-------------------------|
A|-------------------------|
E|-0-0-0-3-2-0-0-0-0-5-3-0-|
   * * * * * * * * * * * *
  "...missing..."
e|-------------------------|
B|-------------------------|
G|-------------------------|
D|-------------------------|
A|-------------------------|
E|-0-0-0-3-2-0-5-3-0-3-2-0-|
   * * * * * * * * * * * *
  "...Secretary of State..."
e|---------------------------------|
B|---------------------------------|
G|---------------------------------|
D|---------------------------------|
A|-----444-----333-----222-----333-|
E|-222-----222-----222-----222-----|
   ***     ***     ***     ***
  "...principles of..."
e|-------------------------|
B|-------------------------|
G|-------------------------|
D|-------------------------|
A|-------------------------|
E|-0-0-0-3-2-0-0-0-0-5-3-0-|
   * * * * * * * * * * * *
   "...stands at..."
e|-------------------------|
B|-------------------------|
G|-------------------------|
D|-------------------------|
A|-------------------------|
E|-0-0-0-3-2-0-5-3-0-3-2-0-|
   * * * * * * * * * * * *
   "...DEFCON 3..."



Riff 2 (Play 2x)
e|-------------------------------------------|
B|-------------------------------------------|
G|-------------------------------------------|
D|-------------------------------------------|
A|-------------------------------------2-3-4-|
E|-2-2--2-0-2-3-5-3-2-0-2-2--2-0-2-3-5-------|
        * * * * * * * *      * * * * *
   "The greatest crisis..."
e|--------------------------------------------|
B|--------------------------------------------|
G|--------------------------------------------|
D|--------------------------------------------|
A|--------------------------------------------|
E|-2-2--2-0-2-3-5-3-2-0-2-2-x-x-x-x-x-x-x-x-x-|
        * * * * * * * *
   "I 'red, white and blew it'..."



Riff 2a                                      x2
e|--------------------------------------------|
B|--------------------------------------------|
G|--------------------------------------------|
D|--------------------------------------------|
A|--------------------------------------------|
E|-2-2--2-0-2-3-5-3-2-0-2-2-x-x-x-x-x-x-x-x-x-|
        * * * * * * * *
   "Betrayal, I peel away..."
e|-------------------------------------------|
B|-------------------------------------------|
G|-------------------------------------------|
D|-------------------------------------------|
A|-------------------------------------2-3-4-|
E|-2-2--2-0-2-3-5-3-2-0-2-2--2-0-2-3-5-------|
        * * * * * * * *      * * * * *
   "important, no one will..."
e|-------------------------------------------|
B|-------------------------------------------|
G|-------------------------------------------|
D|-------------------------------------------|
A|---------------------------3-2-------------|
E|-2-2--2-0-2-3-5-3-2-0-2-2------5-3-2-0-2-3-|
        * * * * * * * *              * * * *
   "...found, God get me..."



Riff 3
e|-------------------------------------------|
B|-------------------------------------------|
G|-------------------------------------------|
D|-------------------------------------------|
A|-------------------------------------4-5-6-|
E|-4-4--4-2-4-5-7-5-4-2-4-4--4-2-4-5-7-------|
        * * * * * * * *      * * * * *
   "Nuclear battlefields..."
e|--------------------------------------------|
B|--------------------------------------------|
G|--------------------------------------------|
D|--------------------------------------------|
A|--------------------------------------------|
E|-4-4--4-2-4-5-7-5-4-2-4-4-x-x-x-x-x-x-x-x-x-|
        * * * * * * * *
          "...energized..."
e|-------------------------------------------|
B|-------------------------------------------|
G|-------------------------------------------|
D|-------------------------------------------|
A|-------------------------------------6-7-8-|
E|-6-6--6-4-6-7-9-7-6-4-6-6--6-4-6-7-9-------|
        * * * * * * * *      * * * * *
   "Cold wars are..."
e|--------------------------------------------|
B|--------------------------------------------|
G|--------------------------------------------|
D|--------------------------------------------|
A|--------------------------------------------|
E|-6-6--6-4-6-7-9-7-6-4-6-6-x-x-x-x-x-x-x-x-x-|
        * * * * * * * *
   "...again..."



Play Riff 2a   "The tensions mounting..."


Riff 4
e|------------------------------|
B|------------------------------|
G|------------------------------|
D|--------------2------4/5-4----|
A|-4-2-4----2-4-0--4-2-2/3-2-5--|
E|-2-0-2----0-2----2-0-------3--|
   * *      * *    * *
e|-------------------------------|
B|-------------------------------|
G|-------------------------------|
D|--------------2------4/5-------|
A|-4-2-4----2-4-0--4-2-2/3-2-2-3-|
E|-2-0-2----0-2----2-0-----0-0-1-|
   * *      * *    * *     * * *
                           "The stage..."




Riff 5 (Solo Rhythm)
e|------------------------------|
B|------------------------------|
G|------------------------------|
D|------------------------------|
A|--------------2------4/5-4----|
E|-4-2-4~---2-4----4-2-------5--|
   * *      * *    * *
e|-------------------------------|
B|-------------------------------|
G|-------------------------------|
D|-------------------------------|
A|--------------2------4/5-------|
E|-4-2-4~---2-4----4-2-----2-2-3-|
   * *      * *    * *     * * *
e|------------------------------|
B|------------------------------|
G|------------------------------|
D|------------------------------|
A|--------------2------4/5-4----|
E|-4-2-4~---2-4----4-2-------5--|
   * *      * *    * *
e|----------------------------|
B|----------------------------|
G|----------------------------|
D|----------------------------|
A|--------------2-5-4---3-2---|
E|-4-2-4~---2-4-------5-----3-|
   * *      * *


Solo (Poland)
e|-------------------------------------------|
B|-------------------------------------------|
G|-------------------------------------------|
D|----------------------13----13-16-13----13-|
A|-16-14-16-14----14-16----16----------16----|
E|-------------16----------------------------|

e|----------------------------------------14----|
B|-------------------------------14-16-17----17-|
G|----13----13-15-13----13-15-16----------------|
D|-16----16----------16-------------------------|
A|----------------------------------------------|
E|----------------------------------------------|

e|-----------17b19r17-----------|
B|-17b19--17----------19b21r19~-|
G|------------------------------|
D|------------------------------|
A|------------------------------|
E|------------------------------|

e|------------------------------------------------------|
B|-17b19--(19)r17-16p14---14----------------------------|
G|---------------------16----16-15-13----13-------------|
D|------------------------------------16----16-14-13----|
A|---------------------------------------------------16-|
E|------------------------------------------------------|

e|----------------------------------------|
B|----------------------------------------|
G|----------------------------------------|
D|-13----------------------------------18-|
A|----16-14-13----13----------------14----|
E|-------------16----16-14-12-14-16-------|

e|---------------------------------------|
B|----14-------------------14b16--14-----|
G|-16----16b18----16-13-16-----------13~-|
D|---------------------------------------|
A|---------------------------------------|
E|---------------------------------------|

End solo



Play Riff 4   "This is your 5 minute warning..."



Riff 6
e|---------------------------|
B|---------------------------|
G|---------------------------|
D|-2------0------0h2-----2-3-|
A|-2------0------0h2-----2-3-|
E|----0-0----0-0-----0-0-----|
      * *    * *     * *
  "...dead man!"
e|---------------------------|
B|---------------------------|
G|---------------------------|
D|-4------2------2h4-----4-5-|
A|-4------2------2h4-----4-5-|
E|----0-0----0-0-----0-0-----|
      * *    * *     * *
e|-----------------------|
B|-----------------------|
G|-----------------------|
D|-6------4------4h6-----|
A|-6------4------4h6-----|
E|----0-0----0-0-----0-0-|
      * *    * *     * *
e|---------------------------------|
B|---------------------------------|
G|---------------------------------|
D|-6-5-4-----2---5-4-3---------4-3-|
A|-4-3-2-----0---3-2-1-----6---2-1-|
E|-------0-0---0-------0-0-4-0-----|
         * *   *       * *   *


Riff 7
e|-------------------------------|
B|-------------------------------|
G|---------0---------------------|
D|-----4-----0---2----2-4/5\4----|
A|---------------0--4-0-2/3\2-5--|
E|-2~----2-----2----2---------3--|
         *     *    *
e|--------------------------------|
B|--------------------------------|
G|---------0----------------------|
D|-----4-----0--------------------|
A|------------------7/8-7/8---2---|
E|-2~----2-----2-0--5/6-5/6-3---0-|
         *     *            *
e|-------------------------------|
B|-------------------------------|
G|---------0---------------------|
D|-----4-----0---2----2-4/5\4----|
A|---------------0--4-0-2/3\2-5--|
E|-2~----2-----2----2---------3--|
         *     *    *
e|------------------------------------|
B|------------------------------------|
G|---------0--------------------------|
D|-----4-----0------------------------|
A|------------------7/8-7/8---7/8-7/8-|
E|-2~----2-----2-0--5/6-5/6-0-5/6-5/6-|
         *     *            *
e|-------------------------------|
B|-------------------------------|
G|---------0---------------------|
D|-----4-----0---2----2-4/5\4----|
A|---------------0--4-0-2/3\2-5--|
E|-2~----2-----2----2---------3--|
         *     *    *
e|--------------------------------|
B|--------------------------------|
G|---------0----------------------|
D|-----4-----0--------------------|
A|------------------7/8-7/8---2---|
E|-2~----2-----2-0--5/6-5/6-3---0-|
         *     *            *
e|-------------------------------|
B|-------------------------------|
G|---------0---------------------|
D|-----4-----0---2----2-4/5\4----|
A|---------------0--4-0-2/3\2-5--|
E|-2~----2-----2----2---------3--|
         *     *    *
e|---------------|
B|---------------|
G|---------0-----|
D|-----4-----0---|
A|---------------|
E|-2~----2-----2-|
         *     *


Riff 8  (Solo Rhythm, Play 2x)
e|------------------------------------------------|
B|------------------------------------------------|
G|------------------------------------------------|
D|----2--------3---------4------------------------|
A|------------------------------------------------|
E|-0----3-2-1-----3-5-2-----5-3-2-3-5--2-3-5--2-3-|
        * *       * *       * * * *    * *    * *
e|------------------------------------------------|
B|------------------------------------------------|
G|------------------------------------------------|
D|----2--------3---------4------------------------|
A|------------------------------------------------|
E|-0----3-2-1-----3-5-2-----5-3-2-3-5--2-3-5--3-2-|
        * *       * *       * * * *    * *    * *

Riff 8a (Solo Rhythm)
e|---------------------------------------|
B|---------------------------------------|
G|---------------------------------------|
D|-----14------------12----------10------|
A|-------14------------12----------10----|
E|-12------12-11-10------10-9-8------8-7-|

e|----------------------------------|
B|----------------------------------|
G|----------------------------------|
D|----8----------6----------4-------|
A|------8----------6----------4-----|
E|-6------6-5-4------4-3-2------2-1-|


Solo (Poland)
e|--------------------------------|
B|--------------------------------|
G|----------16-15-16-15------14~--|
D|-12/14-17-------------17~-------|
A|--------------------------------|
E|--------------------------------|

e|--------------------------------------------------|
B|--------------------------------------------------|
G|----14-16-----------------------------------------|
D|-17-------14-14b17~--(17)r14p12-14p12-------------|
A|--------------------------------------12~--10-----|
E|----------------------------------------------12\-|

e|-15b17--(17)b18--17b19--15-17-19--15-17-19--15-17-19-|
B|-----------------------------------------------------|
G|-----------------------------------------------------|
D|-----------------------------------------------------|
A|-----------------------------------------------------|
E|-----------------------------------------------------|

e|-20b22-(22)b23r22~----------------------------17----------|
B|---------------------22b24-20-22-20b22-22b24-----21b22r21-|
G|----------------------------------------------------------|
D|----------------------------------------------------------|
A|----------------------------------------------------------|
E|----------------------------------------------------------|

e|-----------------------------------------------|
B|-17-15----------17p15-17p15--------------------|
G|-------19b21r19-------------17p16p14-17p16p14\-|
D|-----------------------------------------------|
A|-----------------------------------------------|
E|-----------------------------------------------|

e|---------------------------------|
B|-----------------10-12-13p12-10\-|
G|---------9-11-12-----------------|
D|-12p9-12-------------------------|
A|---------------------------------|
E|---------------------------------|

e|-----------------------------------------------------|
B|-10-8-7---------8-7----------------------------------|
G|--------10-9-7------10-9-7----9-7--------------------|
D|---------------------------10-----10-9-7\5-7p5-7-7b8-|
A|-----------------------------------------------------|
E|-----------------------------------------------------|

e|------------------12----12----------12----------|
B|-15b17----(17)r15----15----15p12-15----15b17r15-|
G|------------------------------------------------|
D|------------------------------------------------|
A|------------------------------------------------|
E|------------------------------------------------|

e|-12----------12----------12----------12----------|
B|----15p12-15----15b17r15----15p12-15----15b17r15-|
G|-------------------------------------------------|
D|-------------------------------------------------|
A|-------------------------------------------------|
E|-------------------------------------------------|

e|-12----------12----------12----------12----------|
B|----15p12-15----15b17r15----15p12-15----17b20r17-|
G|-------------------------------------------------|
D|-------------------------------------------------|
A|-------------------------------------------------|
E|-------------------------------------------------|

e|-12----12----------------------------12-15-|
B|----15----15-13-12----------12-13-15-------|
G|-------------------14-12-14----------------|
D|-------------------------------------------|
A|-------------------------------------------|
E|-------------------------------------------|

e|-15b17b19~----21b22~----22b24~-|
B|-------------------------------|
G|-------------------------------|
D|-------------------------------|
A|-------------------------------|
E|-------------------------------|

End Solo



Riff 9 (Solo Rhythm)
e|-------------------------------------------------|
B|-------------------------------------------------|
G|-------------------------------------------------|
D|-------------------------------------------------|
A|-------------------------------------------------|
E|-0-0-0-0-0-0-0-0-0-0-0-0-0-0-0-0-0-0-0-0-0-0-0-0-|
   * * * * * * * * * * * * * * * * * * * * * * * *
e|-------------------------------------------------|
B|-------------------------------------------------|
G|-------------------------------------------------|
D|-------------------------------------------------|
A|-------------------------------2-3-5-3-2---------|
E|-0-0-0-0-0-0-0-0-0-0-0-0-2-3-5-----------5-4-3-2-|
   * * * * * * * * * * * * * * *       * * * * * *


Solo (Mustaine)
e|-------------------------------------|
B|-------------------------------------|
G|-------------------------------------|
D|-------------------------------------|
A|-------------------------------------|
E|-12-12-12-10-10-10-13-13-13-12-12-10-|

e|-------------------------------------|
B|-------------------------------------|
G|-------------------------------------|
D|-------------------------------------|
A|-------------11----------------11----|
E|-12-10-13-12----13-12-10-13-12----13-|

e|-------------------------------------|
B|-------------------------------------|
G|-------------------------------------|
D|-14-14-14-12-12-12-15-15-15-14-14-12-|
A|-------------------------------------|
E|-------------------------------------|

e|-------------------------------------|
B|-------------------------------------|
G|-------------13----------------13----|
D|-14-12-15-14----15-14-12-15-14----15-|
A|-------------------------------------|
E|-------------------------------------|

e|-------------------------------------|
B|-------------------------------------|
G|-13----------------13----------------|
D|----15-14-12-14-15----15-14-12-14-15-|
A|-------------------------------------|
E|-------------------------------------|

e|-------------------------------------|
B|-------------------------------------|
G|-16-13----------13-16-13----------13-|
D|-------15-14-15----------15-14-15----|
A|-------------------------------------|
E|-------------------------------------|

e|-------------------------------------|
B|-15-12----------12-15-12----------12-|
G|-------13-12-13----------13-12-13----|
D|-------------------------------------|
A|-------------------------------------|
E|-------------------------------------|

e|-------------------------------------|
B|-18-15----------15-18-15----------15-|
G|-------16-15-16----------16-15-16----|
D|-------------------------------------|
A|-------------------------------------|
E|-------------------------------------|

                                       x2
e|--------------------------------------|
B|-t17p12t17p12t17p12t17p12t17p12t17p12-|
G|--------------------------------------|
D|--------------------------------------|
A|--------------------------------------|
E|--------------------------------------|
                                       x2
e|--------------------------------------|
B|-t18p12t18p12t18p12t18p12t18p12t18p12-|
G|--------------------------------------|
D|--------------------------------------|
A|--------------------------------------|
E|--------------------------------------|
                                       x2
e|--------------------------------------|
B|-t17p12t17p12t17p12t17p12t17p12t17p12-|
G|--------------------------------------|
D|--------------------------------------|
A|--------------------------------------|
E|--------------------------------------|
                                       x2
e|--------------------------------------|
B|-t18p12t18p12t18p12t18p12t18p12t18p12-|
G|--------------------------------------|
D|--------------------------------------|
A|--------------------------------------|
E|--------------------------------------|

e|--------------------------------------|
B|-t17p12t17p12t17p12t17p12t17p12t17p12-|
G|--------------------------------------|
D|--------------------------------------|
A|--------------------------------------|
E|--------------------------------------|

e|--------------------------------------|
B|-t18p12t18p12t18p12t18p12t18p12t18p12-|
G|--------------------------------------|
D|--------------------------------------|
A|--------------------------------------|
E|--------------------------------------|

e|--------------------------------------|
B|-t17p12t17p12t17p12t17p12t17p12t17p12-|
G|--------------------------------------|
D|--------------------------------------|
A|--------------------------------------|
E|--------------------------------------|

e|--------------------------------------|
B|-t18p12t18p12t18p12t18p12t18p12t18p12-|
G|--------------------------------------|
D|--------------------------------------|
A|--------------------------------------|
E|--------------------------------------|

e|-12----------------------------|
B|-12-14-14^--12-12^----------12-|
G|----14-14^--12-12^----12h14-12-|
D|-------------------14-12h14----|
A|-------------------------------|
E|-------------------------------|

e|------------------------------------------|
B|-14p12----------12-14p12----------14-12~--|
G|-14p12-14-12h14-12-14p12-14-12h14-14-12~--|
D|-------14-12h14----------14-12h14---------|
A|------------------------------------------|
E|------------------------------------------|

End Solo



Riff 10
e|-------------------------------------------------|
B|-------------------------------------------------|
G|-------------------------------------------------|
D|-------------------------------------------------| ---|
A|-------------------------------------------------|    |
E|-0-0-0-0-0-0-0-0-0-0-3-2-1-1-1-1-1-1-1-1-1-1-2-3-|    |
   * * * * * * * * * * * * * * * * * * * * * * * *      |
   "Blackmail the universe..."                          |--> Play 3x
e|-------------------------------------------------|    |
B|-------------------------------------------------|    |
G|-------------------------------------------------|    |
D|-------------------------------------------------| ---|
A|-------------------------------2-3-5-3-2---------|
E|-2-2-2-2-2-2-2-2-2-2-5-3-2-3-5-----------5-4-3-2-|
   * * * * * * * * * * * * * * *       * * * * * *
   "...greatest of calamities..."

e|-------------------------------------------------|
B|-------------------------------------------------|
G|-------------------------------------------------|
D|-------------------------------------------------|
A|-----------------------------------------5-------|
E|-4-4-4-4-4-4-4-4-4-4-7-6-5-5-5-5-8-5-7-8---8-7-5-|
   * * * * * * * * * * * * * * * * * * * *   * * *
   "Lawful possessor..."
e|-------------------------|
B|-------------------------|
G|-------------------------|
D|-------------------------|
A|-------------------------|
E|-1-1-1-1-4-1-1-3-4-3-2-1-|
   * * * * * * * * * * * *
   "...the world's last 24 hours!"



Play Riff 9   Solo Rhythm


Solo (Mustaine)
e|------------------------------12--------------------|
B|-15b17~--15p12-15b17~-------12---15------12---------|
G|-----------------------12h13--------12h13--14b16r14-|
D|----------------------------------------------------|
A|----------------------------------------------------|
E|----------------------------------------------------|

e|----------------------------------------------------------|
B|----------------------------------------------------------|
G|-16\14-13\10----------------------------------------------|
D|-------------12-11-10-9/11--------------------------------|
A|---------------------------14-13-12-11----11-------11-----|
E|---------------------------------------13----13-12----12\-|

e|-------------------------------------------------------------|
B|-12---------12/15----------15/18----------18/21----------21/-|
G|-------10h13----------13h16----------16h19----------19h22----|
D|---9h12----------12h15----------15h18----------18h21---------|
A|-------------------------------------------------------------|
E|-------------------------------------------------------------|

NOTE: Heavy whammy bar vibrato:
e|---------------------------|
B|---------------------------|
G|-19~~*--19~~*--19~~*--21~--|
D|---------------------------|
A|---------------------------|
E|---------------------------|

End Solo



Riff 10a
Guitar 1
e|-------------------------------------------------|
B|-------------------------------------------------|
G|-------------------------------------------------|
D|-------------------------------------------------| ---|
A|-------------------------------------------------|    |
E|-0-0-0-0-0-0-0-0-0-0-3-2-1-1-1-1-1-1-1-1-1-1-2-3-|    |
   * * * * * * * * * * * * * * * * * * * * * * * *      |
   "Terror and ugliness..."                             |--> Play 3x
e|-------------------------------------------------|    |
B|-------------------------------------------------|    |
G|-------------------------------------------------|    |
D|-------------------------------------------------| ---|
A|-------------------------------2-3-5-3-2---------|
E|-2-2-2-2-2-2-2-2-2-2-5-3-2-3-5-----------5-4-3-2-|
   * * * * * * * * * * * * * * *       * * * * * *
   "...reveal what death..."

e|-------------------------------------------------|
B|-------------------------------------------------|
G|-------------------------------------------------|
D|-------------------------------------------------|
A|-----------------------------------------5-------|
E|-4-4-4-4-4-4-4-4-4-4-7-6-5-5-5-5-8-5-7-8---8-7-5-|
   * * * * * * * * * * * * * * * * * * * *   * * *
   "All along only..."
e|---------------------------|
B|---------------------------|
G|---------------------------|
D|---------------------------|
A|-------------------------2-|
E|-1-1-1-1-4-1-1-3-4-3-2-1-0-|
   * * * * * * * * * * * *
   "...another region of hell!"


Guitar 2              x2
e|---------------------|
B|---------------------|
G|---------------------|
D|-9----10---11----12--|
A|-7-----8----9----10--|
E|---------------------|

e|-------------------------------------------|
B|-------------------------------------------|
G|-------------------------------------------|
D|-9----10---11----12----13----14---10----9\-|
A|-7-----8----9----10----11----12----8----7\-|
E|-------------------------------------------|

-----------------------------------------------------

2.Set The World Afire
Band:Megadeth
Album:So Far,So Good...So What!
Tuning:Standard

Riff 1
Guitar 1                               x3
e|--------------------------------------|
B|--------------------------------------|
G|--------------------------------------|
D|--------------------10\9-10\9-10-10\9-|
A|---------------------8\7--8\7--8--8\7-|
E|-0-0-0-0-0-0-0-0-...------------------|
   * * * * * * * *
e|-------------------------|
B|-------------------------|
G|-------------------------|
D|---------------------7-8-|
A|---------------------5-6-|
E|-0-0-0-0-0-0-0-0-...-----|
   * * * * * * * *

Guitar 2               x3
e|----------------------|
B|----------------------|
G|----------------------|
D|----------------------|
A|----------------------|
E|-0-0-0-0-0-0-0-0-...--|
   * * * * * * * *
e|-------------------------|
B|-------------------------|
G|-------------------------|
D|---------------------7-8-|
A|---------------------5-6-|
E|-0-0-0-0-0-0-0-0-...-----|
   * * * * * * * *


Riff 2
e|---------------------------------|
B|---------------------------------|
G|---------------------------------|
D|-9------------------10\9-10\9-10-|
A|-7------2------------8\7--8\7--8-|
E|---0000-0-000000000--------------|
     ****   *********
e|----------------------------|
B|----------------------------|
G|----------------------------|
D|-10\9-------------------7-8-|
A|--8\7------2------------5-6-|
E|------0000-0-0000000000-----|
        ****   **********


Riff 3                                           x3
e|------------------------------------------------|
B|------------------------------------------------|
G|------------------------------------------------|
D|-------------------9-9--------------------12-12-|
A|-------------------7-7--------------------10-10-|
E|-0-0-0-5-6-7-0-0-0------0-0-0-5-6-7-0-0-0-------|
   * * * * * * * * *      * * * * * * * * *
e|-----------------------------------------------|
B|-----------------------------------------------|
G|-----------------------------------------------|
D|-------------------9-9--------12-12--------7-7-|
A|-------------------7-7--------10-10--------5-5-|
E|-0-0-0-5-6-7-0-0-0------0-0-0--------0-0-0-----|
   * * * * * * * * *      * * *        * * *

Final time
e|---------------------------------------------|
B|---------------------------------------------|
G|---------------------------------------------|
D|-------------------9-9--------12-12--------7-|
A|-------------------7-7--------10-10--------5-|
E|-0-0-0-5-6-7-0-0-0------0-0-0--------0-0-0---|
   * * * * * * * * *      * * *        * * *


Riff 4                         x3
e|------------------------------|
B|------------------------------|
G|------------------------------|
D|-9----------------------------|
A|-7------10------9------8------|
E|----000--8--000-7--000-6--000-|
      ***     ***    ***    ***
e|--------------------------|
B|--------------------------|
G|--------------------------|
D|-9---------------------9--|
A|-7------10------9------7--|
E|----000--8--000-7--000----|
      ***     ***    ***

Riff 5
e|------------------------------------|
B|------------------------------------|
G|-7-----------------10-9---7---------|
D|-5-----9-----7------8-7---5---2p0---|
A|-------7-----5--------------------0-|
E|---0-0---0-0---0-0------0---0-------|
     * *   * *   * *      *   *     *
e|----------------------------|
B|----------------------------|
G|-7--------------------------|
D|-5-----9-----7-----4--3--2--|
A|-------7-----5-----2--1--0--|
E|---0-0---0-0---0-0----------|
     * *   * *   * *

Play Riff 5  "Red flash..."


Riff 6
e|---------------------------------|
B|---------------------------------|
G|---------------------------------|
D|-5-5-5-4-4-4---------------------|
A|-3-3-3-2-2-2-5-5-5-4-4-4-4-4-4-4-|
E|-------------3-3-3-2-2-2-2-2-2-2-|
   * * * * * * * * * * * * * * * *
e|---------------------------------|
B|---------------------------------|
G|---------------------------------|
D|-7-7-7-------------9-9-9-5-5-4-4-|
A|-5-5-5-8-8-8-7-7-7-7-7-7-3-3-2-2-|
E|-------6-6-6-5-5-5---------------|
   * * * * * * * * * * * * * * * *
e|--------------------------------|
B|--------------------------------|
G|--------------------------------|
D|-5-5-5-4-4-4--------------------|
A|-3-3-3-2-2-2-5-5-5-4-4-4-4-4-4\-|
E|-------------3-3-3-2-2-2-2-2-2\-|
   * * * * * * * * * * * * * *


Riff 7                          x3
e|-------------------------------|
B|-------------------------------|
G|-------------------------------|
D|-----3-----2h3-2-----3-----3-3-|
A|-----3-----2h3-2-----3-----3-3-|
E|-0-0---0-0-------0-0---0-0-----|
   * *   * *       * *   * *
   "Distored figures..."
e|-----------------|
B|-----------------|
G|-----------------|
D|-----3-----2h3-2-|
A|-----3-----2h3-2-|
E|-0-0---0-0-------|
   * *   * *
   "...have grown to vines..."
e|--------------12-16-12--------------|
B|------------12--------12------------|
G|----------13------------13----------|
D|--------14----------------14--------|
A|------14--------------------14------|
E|-12-16------------------------16-12-|
                                x3
e|-------------------------------|
B|-------------------------------|
G|-------------------------------|
D|-----3-----2h3-2-----3-----3-3-|
A|-----3-----2h3-2-----3-----3-3-|
E|-0-0---0-0-------0-0---0-0-----|
   * *   * *       * *   * *
   "Bodies melted..."
e|----------------------|
B|----------------------|
G|----------------------|
D|-----3-----2h3-2------|
A|-----3-----2h3-2------|
E|-0-0---0-0--------X\\-|
   * *   * *
   "...it's too late..."


Riff 8
e|---------------------------------|
B|---------------------------------|
G|--------------------6-5----------|
D|--------------------4-3-6--9-7-6-|
A|-22222222-55555555------4--7-5-4-|
E|---------------------------------|
   ******** ********
   "The arsenal of megadeath..."
e|---------------------------------|
B|---------------------------------|
G|---------------------------------|
D|--------------------4-2----2-4-5-|
A|-00000000-33333333--2-0-4--0-2-3-|
E|------------------------2--------|
   ******** ********
   "...if it comes the living..."
e|-------------------------------|
B|-------------------------------|
G|-------------------------------|
D|-------------------------3-2-0-|
A|--------------5/8--4--7--3-2-0-|
E|-333333333333-3/6--2--5--------|
   ************
   "Racing for power..."


Riff 9
e|-------------------------------------|
B|-------------------------------------|
G|-------------------------------------|
D|-4----4p2----4-----5--4--------2---5-|
A|-2-22----5p2-2-222-3--2-222222-0-2-3-|
E|---------------------------------0---|
     **          ***      ******
   "...last..."
e|-------------------------------------|
B|-------------------------------------|
G|-------------------5-----------------|
D|-4----4p2----4-----3--4--------2---5-|
A|-2-22----5p2-2-222-3--2-222222-0-2-3-|
E|---------------------------------0---|
     **          ***      ******
   "...first stone cast..."


Play Riff 8   "No one will be left..."


Interlude:
Guitar 1
e|----------------------------------------|
B|----------------------------------------|
G|----------------------------------------|
D|--4--------4--------4--------4----4-3-2-|
A|--2--------2--------2--------2----2-1-0-|
E|----------------------------------------|

Guitar 2
e|--------------------------|
B|-[5]6r5-5p3---3-----------|
G|------------4---4p2---2-4-|
D|--------------------4-----|
A|--------------------------|
E|--------------------------|

e|-------------------------------------------|
B|-------------------------------------------|
G|-2h4p2-------------------------------------|
D|-------4-3-2-0------------------4----4-3-2-|
A|---------------2-5-2-1-0--------2----2-1-0-|
E|-------------------------3^-0-3------------|



Riff 10
e|---------------------------------|
B|---------------------------------|
G|---------------------------------|
D|-------------------------2---5-4-|
A|------4-------5-------4--0-2-3-2-|
E|-2222-2--3333-3--2222-2----0-----|
   ****    ****    ****
   "Too bad we couldn't..."
e|--------------------------------|
B|--------------------------------|
G|--------------------------------|
D|-------------------------2---5--|
A|------4-------5-------4--0-2-3--|
E|-2222-2--3333-3--2222-2----0----|
   ****    ****    ****
   "This lethal..."



Riff 11 (Solo Rhythm)
e|---------------------------------|
B|---------------------------------|
G|---------------------------------|
D|-------------------------5---8-7-|
A|------7-------8-------7--3-5-6-5-|
E|-5555-5--6666-6--5555-5----3-----|
   ****    ****    ****
e|--------------------------------|
B|--------------------------------|
G|--------------------------------|
D|-------------------------5---8--|
A|------7-------8-------7--3-5-6--|
E|-5555-5--6666-6--5555-5----3----|
   ****    ****    ****


Riff 12 (Solo Rhythm)                    x3
e|----------------------------------------|
B|----------------------------------------|
G|----------------------------------------|
D|----------------------------------------|
A|----------------------------00-11-22-33-|
E|-22222222-33333333-22222222-------------|
   ******** ******** ******** ** ** ** **
e|-------------------------------------|
B|-------------------------------------|
G|-------------------------------------|
D|-------------------------------------|
A|-------------------------------------|
E|-22222222-33333333-44444444-55555555-|
   ******** ******** ******** ********


Play Riff 5   Solo Rhythm


Solo (Mustaine)
e|-------------------------------------|
B|-------------------------------------|
G|-------------------------------------|
D|-------------------------------------|
A|-------------------------------------|
E|-------------------------------------|

e|-------------------------------------|
B|-------------------------------------|
G|-------------------------------------|
D|-------------------------------------|
A|-------------------------------------|
E|-------------------------------------|

e|-------------------------------------|
B|-------------------------------------|
G|-------------------------------------|
D|-------------------------------------|
A|-------------------------------------|
E|-------------------------------------|

e|-------------------------------------|
B|-------------------------------------|
G|-------------------------------------|
D|-------------------------------------|
A|-------------------------------------|
E|-------------------------------------|

End Solo


Play Riff 5   "Dig deep..."

Riff 6a
e|--------------------------------|
B|--------------------------------|
G|--------------------------------|
D|-5-5-5-4-4-4--------------------|
A|-3-3-3-2-2-2-5-5-5-4-4-4-4-4-4\-|
E|-------------3-3-3-2-2-2-2-2-2\-|
   * * * * * * * * * * * * * *
               "No survivors..."


Riff 7a (Solo Rhythm)           x3
e|-------------------------------|
B|-------------------------------|
G|-------------------------------|
D|-----3-----2h3-2-----3-----3-3-|
A|-----3-----2h3-2-----3-----3-3-|
E|-0-0---0-0-------0-0---0-0-----|
   * *   * *       * *   * *
e|------------------|
B|------------------|
G|------------------|
D|-----3-----2h3-2--|
A|-----3-----2h3-2--|
E|-0-0---0-0--------|
   * *   * *
                 "Set the world..."

Solo (Mustaine)
e|-------------------------------------|
B|-------------------------------------|
G|-------------------------------------|
D|-------------------------------------|
A|-------------------------------------|
E|-------------------------------------|

e|-------------------------------------|
B|-------------------------------------|
G|-------------------------------------|
D|-------------------------------------|
A|-------------------------------------|
E|-------------------------------------|

e|-------------------------------------|
B|-------------------------------------|
G|-------------------------------------|
D|-------------------------------------|
A|-------------------------------------|
E|-------------------------------------|

e|-------------------------------------|
B|-------------------------------------|
G|-------------------------------------|
D|-------------------------------------|
A|-------------------------------------|
E|-------------------------------------|

End Solo


RIff 7b (Solo Rhythm)           x8
e|-------------------------------|
B|-------------------------------|
G|-------------------------------|
D|-----3-----2h3-2-----3-----3-3-|
A|-----3-----2h3-2-----3-----3-3-|
E|-0-0---0-0-------0-0---0-0-----|
   * *   * *       * *   * *
  "...afire!"


Riff 6a (Solo Rhythm)             x2
e|---------------------------------|
B|---------------------------------|
G|---------------------------------|
D|-5-5-5-4-4-4---------------------|
A|-3-3-3-2-2-2-5-5-5-4-4-4-4-4-4-4-|
E|-------------3-3-3-2-2-2-2-2-2-2-|
   * * * * * * * * * * * * * * * *
                      "No survivors..."


Solo (Young)
e|-------------------------------------|
B|-------------------------------------|
G|-------------------------------------|
D|-------------------------------------|
A|-------------------------------------|
E|-------------------------------------|

e|-------------------------------------|
B|-------------------------------------|
G|-------------------------------------|
D|-------------------------------------|
A|-------------------------------------|
E|-------------------------------------|

e|-------------------------------------|
B|-------------------------------------|
G|-------------------------------------|
D|-------------------------------------|
A|-------------------------------------|
E|-------------------------------------|

e|-------------------------------------|
B|-------------------------------------|
G|-------------------------------------|
D|-------------------------------------|
A|-------------------------------------|
E|-------------------------------------|

End Solo


Ending:
e|---------------------------------|
B|---------------------------------|
G|-7-------------------------------|
D|-5-----9-----7-----------7/9-----|
A|-------7-----5-----9-----5/7-----|
E|---0-0---0-0---0-0-7-0-0-----0-0-|
     * *   * *   * *   * *     * *
  "...afire!"
e|-----------------------------------|
B|-----------------------------------|
G|-7---------------------------------|
D|-5-----9---7-9----9----9----9----9-|
A|-------7---5-7----7----7----7----7-|
E|---0-0---0-------------------------|
     * *   *
e|-------------------------------------|
B|-------------------------------------|
G|-------------------------------------|
D|-----------------9--------(9)----9\--|
A|-777777777777...-7--------(7)----7\--|
E|---------------------------------7\--|

-----------------------------------------------

3.Skin O' My Teeth
Band:Megadeth
Album:Countdown To Extinction
Tuning:Standard

Riff 1
e|--------------------------|
B|--------------------------|
G|--------------------------|
D|--------------------------|
A|-7----6----5----4----3--2-|
E|-5----4----3----2----1--0-|


Riff 2                              x3
e|-----------------------------------|
B|-----------------------------------|
G|---------------------5---7b8r7-5---|
D|-7-----7-----7-----7-5-7-7b8r7-5---|
A|-0-0-0-0-0-0-0-0-0-7-------------0-|
E|-----------------------------------|
     * *   * *   * * *   *         *
e|----------------|
B|----------------|
G|----------------|
D|-7-----7-----7--|
A|-0-0-0-0-0-0-0--|
E|----------------|
     * *   * *


Riff 3
e|----------------------------------|
B|----------------------------------|
G|--------------------5---7b8r7-5---|
D|-2-----5-----7----7-5-7-7b8r7-5---|
A|-0-0-0-3-3-3-5----7-------------0-|
E|----------------------------------|
     * *   * *      *   *         *
  "...wrists donning slits..."
e|----------------------------------|
B|----------------------------------|
G|--------------------5---7b8r7-5---|
D|-2-----5-----2----7-5-7-7b8r7-5---|
A|-0-0-0-3-3---0----7-------------0-|
E|-----------3----------------------|
     * *   * *      *   *         *
  "...flowing constantly..."


Riff 3a
e|----------------------------------|
B|----------------------------------|
G|--------------------5---7b8r7-5---|
D|-2-----5-----7----7-5-7-7b8r7-5---|
A|-0-0-0-3-3-3-5----7-------------0-|
E|----------------------------------|
     * *   * *      *   *         *
  "People clutter..."
e|----------------|
B|----------------|
G|----------------|
D|-2-----5-----2--|
A|-0-0-0-3-3---0--|
E|-----------3----|
     * *   * *
  "...take a look..."


Riff 4
e|-----------------------------------|
B|-----------------------------------|
G|---------------------5---7b8r7-5---|
D|--7----7----7------7-5-7-7b8r7-5---|
A|-------------------7-------------0-|
E|----5----4----3--------------------|
                     *   *         *
   "No escaping pain..."
e|-----------------------------------|
B|-----------------------------------|
G|---------------------5---7b8r7-5---|
D|--3----3----3------7-5-7-7b8r7-5---|
A|--------------5----7-------------0-|
E|----1----0-------------------------|
                     *   *         *
   "You belong to me..."

Riff 4a
e|-----------------------------------|
B|-----------------------------------|
G|---------------------5---7b8r7-5---|
D|--7----7----7------7-5-7-7b8r7-5---|
A|-------------------7-------------0-|
E|----5----4----3--------------------|
                     *   *         *
   "Clinging on to life..."
e|-------------------------|
B|-------------------------|
G|-------------------------|
D|--3----3----3------------|
A|--------------5----(5)b6-|
E|----1----0---------------|
   "...skin of my teeth..."


Play Riff 3    "My blood flows..."
Play Riff 3a   "In time the white..."
Play Riff 4    "No escaping pain..."
Play Riff 4a   "Clinging on to life..."
Use this as last bar:
e|--------------------------------|
B|--------------------------------|
G|--------------------------------|
D|--3----3----3-------------------|
A|--------------5----(5)b6--(6)r5-|
E|----1----0----------------------|
   "...skin of my teeth..."


Riff 5 (Solo Rhythm, Play 2x)
e|-------------------------------|
B|-------------------------------|
G|-------------------------------|
D|-------------------------------|
A|-------3---------3-------------|
E|-5-3-0----3-5------5-3-5-3-2-0-|

e|-------------------------------|
B|-------------------------------|
G|-------------------------------|
D|-------------------------------|
A|-------3---------3-------------|
E|-5-3-0----3-5------5-3-5-3-2-0-|

e|--------------------------|
B|--------------------------|
G|--------------------------|
D|-----4-----5------7-7-7-5-|
A|---4-----5---7----5-5-5-3-|
E|-2-----3-----5------------|
   * * * * * *      * * *
e|-----------------------------|
B|-----------------------------|
G|-----------------7-7-7-7/9-9-|
D|-----------------5-5-5-5/7-7-|
A|-------3---------------------|
E|-5-3-0----3-5----------------|
   * * *

Riff 5a (Solo Rhythm)
e|-------------------------------|
B|-------------------------------|
G|-------------------------------|
D|-------------------------------|
A|-2-----5----2----5-2---2-------|
E|---5-2----5----------5---5-4-2-|

e|-------------------------------|
B|-------------------------------|
G|-------------------------------|
D|-------------------------------|
A|-2-----5----2----5-2---2-------|
E|---5-2----5----------5---5-4-2-|

e|-------------------------------|
B|-------------------------------|
G|-------------------------------|
D|-------------------------------|
A|-2-----5----2----5-2---2-------|
E|---5-2----5----------5---5-4-2-|

e|------------------------|
B|------------------------|
G|------------------------|
D|------------4--3--2-----|
A|-2-----5----2--1--0--5--|
E|---5-2----5----------3--|


Play Riff 5  Solo Rhythm


Solo (Friedman)
e|---------------/12-8----8-----------------|
B|-8b10--(10)~~--------12---12-10---12b13~--|
G|--------------------------------9---------|
D|------------------------------------------|
A|------------------------------------------|
E|------------------------------------------|

e|-0-15b17------------15b17r15-14-[14]15r14------------|
B|---------[15]17~--------------------------15-[15]17~-|
G|-----------------------------------------------------|
D|-----------------------------------------------------|
A|-----------------------------------------------------|
E|-----------------------------------------------------|

e|-------15--------------------------------------|
B|-13h15----15p13----13-------13-15-[15]17r15p13-|
G|----------------14----14~~---------------------|
D|-----------------------------------------------|
A|-----------------------------------------------|
E|-----------------------------------------------|

e|-------------------|
B|-15b19r15p13-------|
G|-------------14~~--|
D|-------------------|
A|-------------------|
E|-------------------|

e|-------12-17p12-------12-15p14p12----12-15p12-|
B|-13-14----------14h15-------------15----------|
G|----------------------------------------------|
D|----------------------------------------------|
A|----------------------------------------------|
E|----------------------------------------------|

e|-19p12----12----------------------------|
B|-------15----15p13----13-15h16-15p13----|
G|-------------------14----------------14-|
D|----------------------------------------|
A|----------------------------------------|
E|----------------------------------------|

e|------------------------------------------------|
B|-13-15-12h13p12----12---------------------------|
G|----------------14----14-12-11h12p11----\5~-/-\-|
D|-------------------------------------14-----/-\-|
A|------------------------------------------------|
E|------------------------------------------------|

e|---------------------------------------------------------|
B|---7-----8------10---------------------------------------|
G|-----------------------9b11r9-9b11~~--9--8--7--5^-5-5----|
D|-4---4-5---5-/7-----7----------------------------------7-|
A|---------------------------------------------------------|
E|---------------------------------------------------------|

e|--------------8----------------7--------------------7-----------|
B|-----------10---10b12~--(10)p7---10p7-----------------10p7------|
G|---------9----------------------------9b11r9-(9)b11--------9b11-|
D|-7\5-/10--------------------------------------------------------|
A|----------------------------------------------------------------|
E|----------------------------------------------------------------|

e|-7------------------------7----------------------------------------|
B|---10p7-7---------------7---10p7----7------------------------------|
G|----------9b11r9-(9)b11----------10---10p9p7---9b11-7~--(7)\2-4/16-|
D|---------------------------------------------9---------------------|
A|-------------------------------------------------------------------|
E|-------------------------------------------------------------------|

e|----------------------------------------------------|
B|-15h17p15----15h17-14h15p14----14-------12h14p12----|
G|----------16----------------16----16\15----------14-|
D|----------------------------------------------------|
A|----------------------------------------------------|
E|----------------------------------------------------|

e|---------------------------------------------12----14p12----13p11----|
B|-12h14p12----12---------------------12-15-14----15-------15-------12-|
G|----------14----14-13h14-11~--14p13----------------------------------|
D|---------------------------------------------------------------------|
A|---------------------------------------------------------------------|
E|---------------------------------------------------------------------|

e|-11-13p10----10-12p9----9-11p8---|
B|----------11---------10--------9-|
G|---------------------------------|
D|---------------------------------|
A|---------------------------------|
E|---------------------------------|

e|-------------------------------17--------------------------------------|
B|-------14-17p14----------14h17---17p14----------14-17p14-17p14-17b20~~-|
G|-14h17----------17p14-17---------------17-14h17------------------------|
D|-----------------------------------------------------------------------|
A|-----------------------------------------------------------------------|
E|-----------------------------------------------------------------------|

e|--------------------------------17----------------17-|
B|--------14-17p14----------14h17----14/16----16/17----|
G|-14h17-----------17p14-17----------------17----------|
D|-----------------------------------------------------|
A|-----------------------------------------------------|
E|-----------------------------------------------------|

e|----------------------17------------------------------------------|
B|-20p17-20p17-20b22~~----20-17-20b22-20b22-20b22-20b22r20-20b22r20-|
G|------------------------------------------------------------------|
D|------------------------------------------------------------------|
A|------------------------------------------------------------------|
E|------------------------------------------------------------------|

e|-------------------------------------------17-|
B|-17----------------------------------15/17----|
G|----19b21r19p17-19-17b20r17-17b19-17----------|
D|----------------------------------------------|
A|----------------------------------------------|
E|----------------------------------------------|

e|-20b22-20-17----------------------17-|
B|-------------20-17-------17----------|
G|-------------------19h20----19h20----|
D|-------------------------------------|
A|-------------------------------------|
E|-------------------------------------|

e|-------------------------------|
B|-------------------------------|
G|-19-20p17-19b23-17-------------|
D|-------------------19~~--(19)\-|
A|-------------------------------|
E|-------------------------------|

End Solo


Riff 1a
Guitar 1
e|--------------------------|
B|--------------------------|
G|--------------------------|
D|--------------------------|
A|-7----6----5----4----3--2-|
E|-5----4----3----2----1--0-|

Guitar 2
e|-----------------------------|
B|-----------------------------|
G|-----------------------------|
D|-7~---6~---5~---4~---3--2----|
A|---------------------------0-|
E|-----------------------------|


Riff 2a                             x3
e|-----------------------------------|
B|-----------------------------------|
G|---------------------5---7b8r7-5---|
D|-7-----7-----7-----7-5-7-7b8r7-5---|
A|-0-0-0-0-0-0-0-0-0-7-------------0-|
E|-----------------------------------|
     * *   * *   * * *   *         *
e|-----------------------------------|
B|-----------------------------------|
G|-----------------------------------|
D|-7-----7-----7---------------------|
A|-0-0-0-0-0-0-0---------------------|
E|----------------X\-X/-X/--X\-X/-X/-|
     * *   * *


Play Riff 3    "I won't feel the hurt..."
Play Riff 3a   "So tag my toe..."
Play Riff 4    "No escaping pain..."
Play Riff 4a   "Clinging on to life..."


Ending:
e|----------------------------------|
B|----------------------------------|
G|--------------------5---7b8r7-5---|
D|-2-----5-----7----7-5-7-7b8r7-5---|
A|-0-0-0-3-3-3-5----7-------------0-|
E|----------------------------------|
     * *   * *      *   *         *
e|--------------|
B|--------------|
G|--------------|
D|--------------|
A|-------0--3---|
E|-5-3-0-0----5-|

------------------------------------------------

4.Scorpion
Band:Megadeth
Album:System Has Failed
Tuning:Standard

Riff 1
Guitar 1
e|-0h7-------0h7-------0h7----|
B|-----8---------8---------8--|
G|--------9---------9---------|
D|----------------------------|
A|----------------------------|
E|----------------------------|

e|-0h6-------0h6-------0h6---|
B|-----7---------7---------7-|
G|--------9---------9--------|
D|---------------------------|
A|---------------------------|
E|---------------------------|

Guitar 2 (Comes in later)
e|-----------------------------------|
B|-----------------------------------|
G|-----------------------------------|
D|-----------------------------------|
A|-3-3----2-0-----2--------4----(4)\-|
E|-h-h--------3-2-0--------2----(2)\-|

e|-----------------------|
B|-----------------------|
G|-----------------------|
D|-9-9-------------------|
A|-7-7--------4----(4)\--|
E|-0-0--------2----(2)\--|


Riff 1a
Guitar 1
e|-0h7-------0h7-------0h7----|
B|-----8---------8---------8--|
G|--------9---------9---------|
D|----------------------------|
A|----------------------------|
E|----------------------------|

e|-0h6-------0h6-------0h6---|
B|-----7---------7---------7-|
G|--------9---------9--------|
D|---------------------------|
A|---------------------------|
E|---------------------------|

Guitar 2 (Clean)
e|------------------------------|
B|------------------------------|
G|------------------------------|
D|-------5-2-5-2--------4-2-4-2-|
A|-----2--------------1---------|
E|-0-3------------0-2-----------|

NOTE: Keyboard plays above an octave higher
if you want to create a harmony on guitar.


Riff 1b (Distortion)
e|-----------------|
B|-----------------|
G|-----------------|
D|---5---2---4-----|
A|-3---0---2---5-4-|
E|-------------3-2-|
               * *


Riff 2
e|--------------------------------------------|
B|--------------------------------------------|
G|--------------------------------------------|
D|--------------------------------------------|
A|-2--4-4--x-x--x-x-x-x--2--4-5--x-x--x-x-x-x-|
E|-0--2-2--x-x--x-x-x-x--0--2-3--x-x--x-x-x-x-|
   "My life..."
e|---------------------------------------|
B|---------------------------------------|
G|---------------------------------------|
D|-----------------------1-------4-------|
A|-5--4-2--x-x--x-x-x-x--2--1-0--5--4-3~-|
E|-3--2-0--x-x--x-x-x-x------------------|
   "...that feeds my thirst..."



Riff 3 (Solo Rhythm)
e|------------------------------|
B|------------------------------|
G|------------------------------| ----|
D|------------------------------|     |
A|-2--2-0-2-3-2-0-2--2-0-2-3--0-|     |
E|------------------------------|     |
                                      |--> Play 3x
e|------------------------------|     |
B|------------------------------|     |
G|------------------------------|     |
D|------------------------------| ----|
A|-2--2-0-2-3-2-0-2-3--0-2-3--0-|
E|------------------------------|


e|------------------------------|
B|------------------------------|
G|------------------------------|
D|------------------------------|
A|-2--2-0-2-3-2-0-2--2-0-2-3--0-|
E|------------------------------|

e|-------------------------------------|
B|-------------------------------------|
G|----------------4p2p0----------------|
D|---------------------4p2p0-----------|
A|-2--2-0-2-3-2-0-----------3p2p0------|
E|-------------------------------3p2p0-|


Solo (Mustaine)
e|-------------------------|
B|-------------------------|
G|-----------7b8-----------|
D|----------------7~-------|
A|---------9---------------|
E|-7~--7~-------------X\\--|

e|-----------------------------------------|
B|-----------------------------------------|
G|-----------------------------------------|
D|-10p9p7-10p9p7---------------------------|
A|---------------10p9p7-10p9p7-9p7p6-9p7p6-|
E|-----------------------------------------|

e|---------------------------------------------------|
B|---------------------------------------------------|
G|---------------------------------------------------|
D|---------------------------------------------------|
A|---------------------------------------------------|
E|-8p7p5-8p7p5-7~~--[turn pickup off and on rapidly]-|

e|--------------------------------------------------|
B|-------------------------------------16----19-----|
G|---------------8---/11---14----16-------14----16\-|
D|-----9-----------7-----9----13----16--------------|
A|--------9-----------------------------------------|
E|-7~-------8~--------------------------------------|

e|-------------------------------------------|
B|-7h10p7-7h10p7-----------------------------|
G|---------------8h11p8-8h11p8---------------|
D|-----------------------------9h12p9-9h12p9-|
A|-------------------------------------------|
E|-------------------------------------------|

e|--------------------------|
B|--------------------------|
G|--------------------------|
D|--------------------------|
A|-9h12p9-9h12p9------------|
E|---------------7~~----X\\-|

End Solo



Riff 4
e|-----0-------------------------------------------|
B|-----0-------------------------------------------|
G|-------------------------------------------------|
D|----------------7/9\--5--------------------------|
A|-2--(2)--x-x--x-5/7\--3--3-3-3-3-3-3-2-0-2-3-2-0-|
E|-0--(0)--x-x--x----------------------------------|
                           * * * * * * * * * * * *
   "As I climb onto..."

Riff 4 ending chord leading into next section:
e|-----|
B|-----|
G|-----|
D|-----|
A|--2--|
E|--0--|


Play Riff 1
Play Riff 1a
Play Riff 1b
Play Riff 2   "My self..."
Play Riff 3   Solo Rhythm

Solo (Mustaine)
e|---------------------------------------------|
B|---------------------------------------------|
G|-------------------------------------7b8-----|
D|---------------------------------7h9-a----9~-|
A|---------------------7h10p7-9h10-------------|
E|-7~--7~--7h10p7-9h10-------------------------|

e|-----------------------------|
B|-----------------------------|
G|-----------------------------|
D|-9-10-7-9--------------------|
A|----------10-7-9-10-7-9------|
E|------------------------10-7-|

e|-----------------------------------------------------------|
B|-----------------------------------------------------------|
G|-----------------------------------------------------------|
D|-7-9----7--------------------------------------------------|
A|-----10---9-7----7-9-7-------------------------------------|
E|--------------10-------10-7~--[turn pickup off/on rapidly]-|

e|----------------------------------------------12-|
B|-------------------------------12----------13----|
G|----------------------------12----12-14-16-------|
D|------13~----13h16p13-15-16----------------------|
A|-/14~--------------------------------------------|
E|-------------------------------------------------|

e|--------------------|
B|-15--(15)^p12-------|
G|---------------14~--|
D|--------------------|
A|--------------------|
E|--------------------|

e|-11p8-------11p8------------14p11-------14p11-----------|
B|-----10--10-----10---(10)/-------13--13------13---(13)/-|
G|-------11---------11-(11)/---------14----------14-(14)/-|
D|--------------------------------------------------------|
A|--------------------------------------------------------|
E|--------------------------------------------------------|

e|-17p14-------17p14------------20p17-------20p17-----|
B|------16--16------16---(16)/-------19--19------19---|
G|--------17----------17-(17)/---------20----------20-|
D|----------------------------------------------------|
A|----------------------------------------------------|
E|----------------------------------------------------|

e|-----------------------------------|

B|-20~----[long hold]----------------|
G|-21~--------------------------16~--|
D|-----------------------------------|
A|-----------------------------------|
E|-----------------------------------|

End Solo


Play Riff 4   "As I climb onto..."



Riff 5 (Solo Rhythm)                          x3
e|-----2---------------------------------------|
B|-----2---------------------------------------|
G|---------------------------------------------|
D|----------------9/11\----------------4-------|
A|-4--(4)--x-x--x-7/-9\--3tr4----0h2h3---3-2-0-|
E|-2--(2)--x-x--x------------------------------|

e|-----2---------------------------------------------|
B|-----2---------------------------------------------|
G|---------------------------------------------------|
D|----------------9/11\--------------4---------------|
A|-4--(4)--x-x--x-7/-9\--3tr4--0h2h3---3-2-0-3-2-0---|
E|-2--(2)--x-x--x----------------------------------3-|



Solo (Mustaine)
e|----------------------------------------------------|
B|-14tm--(14tm)--(14tm)-------------------------------|
G|-----------------------[18]r16~--16~--16~--16~--16~-|
D|----------------------------------------------------|
A|----------------------------------------------------|
E|----------------------------------------------------|

e|-----------14------------14-------------|
B|---------14--17p14-----14--17p14-----14-|
G|-14-16b18---------16b18---------16b18---|
D|----------------------------------------|
A|----------------------------------------|
E|----------------------------------------|

e|---------------------|
B|---------------------|
G|-17p16p14------------|
D|----------16-14------|
A|----------------15~~-|
E|---------------------|

e|-17t14p12p9h14p12p9-17t14p12p9h14p12p9-|
B|---------------------------------------|
G|---------------------------------------|
D|---------------------------------------|
A|---------------------------------------|
E|---------------------------------------|

e|-17t14p12-19t14p12-17t14p12p9h14p12p9-|
B|--------------------------------------|
G|--------------------------------------|
D|--------------------------------------|
A|--------------------------------------|
E|--------------------------------------|

e|-----------------------------|
B|-13tr14----------------------|
G|--------14tr15---------------|
D|---------------15tr16--------|
A|----------------------15tr16-|
E|-----------------------------|

e|-------14------15------15------16------16------|
B|-17p14---17p14---18p15---18p15---19p16---19p16-|
G|-----------------------------------------------|
D|-----------------------------------------------|
A|-----------------------------------------------|
E|-----------------------------------------------|

e|-17------17------18-----18------19------19-------|
B|---20p17---20p17---21p18---21p18---22p19---22p19-|
G|-------------------------------------------------|
D|-------------------------------------------------|
A|-------------------------------------------------|
E|-------------------------------------------------|

e|-20------20------21------21------22-|
B|---23p20---23p20---24p21---24p21----|
G|------------------------------------|
D|------------------------------------|
A|------------------------------------|
E|------------------------------------|

e|-22b24~~----(24~)----(24~)----(24~)----|
B|---------------------------------------|
G|---------------------------------------|
D|---------------------------------------|
A|---------------------------------------|
E|---------------------------------------|

While holding bend, hit the 24th fret, which is bent
to 26, then release 24th fret to original position and hold
e|-(24~)----(24~)----{24}--(26)r24~~--|
B|----------------[string noise]------|
G|------------------------------------|
D|------------------------------------|
A|------------------------------------|
E|------------------------------------|

e|--------------------|
B|-22~--20~--19~--17~-|
G|--------------------|
D|--------------------|
A|--------------------|
E|--------------------|

e|-------------------------|
B|--20b22~--20~--19~--18~\-|
G|-------------------------|
D|-------------------------|
A|-------------------------|
E|-------------------------|

End Solo


Play Riff 4   "As I climb onto..."
Play Riff 2   "My lies..."

Riff 2 ending chord leading into next section:
e|-----|
B|-----|
G|-----|
D|-----|
A|--2--|
E|--0--|


Play Riff 1
Play Riff 1a

-----------------------------------------

5.Wake Up Dead
Band:Megadeth
Album:Peace Sells...But Who's Buying?
Tuning:1/4 Step Down

Riff 1
e|---------------------------------------------|
B|---------------------------------------------|
G|---------------------------------------------|
D|---------2----------------5----------------7-|
A|----4----0-----------4----3-----------4----5-|
E|-02-2-02----------02-2-02----------02-2-02---|
   **   **          **   **          **   **
    "I sneak in my..."
e|-------------------------|
B|-------------------------|
G|-------------------------|
D|---------9\--------------|
A|----4----7\------4----3--|
E|-02-2-02------02-2-02-1--|
   **   **      **   **
    "...say I've been out..."


Solo (Mustaine)
e|----------------------------------2----------------|
B|-----------------------------------5p2-------------|
G|-4b6r4-4b6----(6)r4d*----4b6--4b6-----4h5p4p2-4p2--|
D|-a-----a-----------------------------------------4-|
A|---------------------------------------------------|
E|---------------------------------------------------|

e|---------------------7p5-9p7p5----------------------|
B|------------------------------8p7p5---8p7p5---------|
G|-2---------------------------------7p5-----7p5------|
D|--4p2--2-4p2----2-4~--------------------------7p6p4-|
A|-----4------2h4-------------------------------------|
E|----------------------------------------------------|

e|------------------------|
B|------------------------|
G|------------------------|
D|-6~----6--6/7~---9---\4-|
A|------------------------|
E|------------------------|

e|-----------------------------------------|
B|-----------------------------------------|
G|-4b6-[slow release and dive ]--(16)-16~~-|
D|-a---[with tremolo bar, then]------------|
A|-----[raise and slide to the]------------|
E|-----[      next note       ]------------|

e|---------------------------------------14h7p14-17-19b20--19b21~-|
B|-14h17p14-14-14-17p14-19p14-14-14-17p14-------------------------|
G|----------------------------------------------------------------|
D|----------------------------------------------------------------|
A|----------------------------------------------------------------|
E|----------------------------------------------------------------|

e|-19p17p14-14-14-19p17p14-14-14-|
B|-------------------------------|
G|-------------------------------|
D|-------------------------------|
A|-------------------------------|
E|-------------------------------|

e|-19p17p14--14-19p17p14--14-19p17p14--14-19p17p14--14-|
B|---------17-----------17-----------17-----------17---|
G|-----------------------------------------------------|
D|-----------------------------------------------------|
A|-----------------------------------------------------|
E|-----------------------------------------------------|

e|-19p17p14--14-19p17p14--14-19p17p14--14-19p17p14--14-|
B|---------17-----------17-----------17-----------17---|
G|-----------------------------------------------------|
D|-----------------------------------------------------|
A|-----------------------------------------------------|
E|-----------------------------------------------------|

e|-19p17p14--14-19p17p14--14-19p17p14--14-19p17p14--14-|
B|---------17-----------17-----------17-----------17---|
G|-----------------------------------------------------|
D|-----------------------------------------------------|
A|-----------------------------------------------------|
E|-----------------------------------------------------|

e|--------------------------------------------|
B|--17----------------------------------------|
G|--16b17---[long hold and then release]------|
D|----------[slowly with tremolo bar vibrato]-|
A|--------------------------------------------|
E|--------------------------------------------|

End Solo


Riff 2
Guitar 1                                   x3
e|------------------------------------------|
B|------------------------------------------|
G|------------------------------------------|
D|-12\11-------12\11------------------------|
A|-10\-9-11/12-10\-9--9-10----9-------11/12-|
E|--------9/10-------------12---10-12--9/10-|
                       * *  * *  *  *
e|------------------------------------|
B|------------------------------------|
G|------------------------------------|
D|-12\11-------12\11------------------|
A|-10\-9-11/12-10\-9--9-10----9-------|
E|--------9/10-------------12---10-12-|
                       * *  * *  *  *
e|--------------------|
B|--------------------|
G|--------------------|
D|--------------------|
A|-11/12-7/8----------|
E|--9/10-5/6--0-0-0-0-|
              * * * *

Guitar 2                                   x3
e|------------------------------------------|
B|------------------------------------------|
G|------------------------------------------|
D|-12\11-------12\11-----9------------------|
A|-10\-9-11/12-10\-9--12---10-12-9-10-11/12-|
E|--------9/10-------------------------9/10-|
                       * *  *  * *  *
e|------------------------------------|
B|------------------------------------|
G|------------------------------------|
D|-12\11-------12\11-----9------------|
A|-10\-9-11/12-10\-9--12---10-12-9-10-|
E|--------9/10------------------------|
                       * *  *  * *  *
e|--------------------|
B|--------------------|
G|--------------------|
D|--------------------|
A|-11/12-7/8----------|
E|--9/10-5/6--0-0-0-0-|
              * * * *


Riff 3 (Play 4x)
e|------------------------------|
B|------------------------------|
G|--------------------------7---|
D|--------------------------5---|
A|-10-9-8-----7-----8---7-------|
E|--8-7-6-0-0-5-0-0-6-0-5-0---0-|
          * *   * *   *   *   *
e|-----------------------------|
B|-----------------------------|
G|-------------7---------------|
D|-------------5---------------|
A|-8-----7---------------------|
E|-6-0-0-5-0-0---0-0-0-0-0-0-0-|
     * *   * *   * * * * * * *


Riff 3a (Play 1x)
e|------------------------------|
B|------------------------------|
G|--------------------------7---|
D|--------------------------5---|
A|-10-9-8-----7-----8---7-------|
E|--8-7-6-0-0-5-0-0-6-0-5-0---0-|
          * *   * *   *   *   *
e|------------------------------------|
B|------------------------------------|
G|-------------7----------------------|
D|-------------5---9----8-7-6---5-4-3-|
A|-8-----7---------7-10-6-5-4-7-3-2-1-|
E|-6-0-0-5-0-0---0----8-------5-------|
     * *   * *   *


Riff 3b (Play 3x)
e|-----------------------|
B|-----------------------|
G|-------------------7---|
D|-------------------5---|
A|-----7-----8---7-------|
E|-0-0-5-0-0-6-0-5-0---0-|
   * *   * *   *   *   *
e|------------------------------------|
B|------------------------------------|
G|-------------7----------------------|
D|-------------5---9----8-7-6---5-4-3-|
A|-8-----7---------7-10-6-5-4-7-3-2-1-|
E|-6-0-0-5-0-0---0----8-------5-------|
     * *   * *   *


Lead into next section:
e|---------------|
B|---------------|
G|---------------|
D|---------5\3---|
A|-3-3-3/5-3\1-3-|
E|-1-1-1/3-----1-|
     *


Riff 4 (Solo Rhythm)          x3
e|-----------------------------|
B|-----------------------------|
G|-------4-------------7--6-4--|
D|-------4-------------7--6-4--|
A|-6-----2--4-5--6-----5--4-2--|
E|-4-444----2-3--4-444---------|
     ***           ***
e|----------------------------|
B|----------------------------|
G|-------4-------------6------|
D|-------4-------------6------|
A|-6-----2--4-5--6-----4--6-7-|
E|-4-444----2-3--4-444----4-5-|
     ***           ***

Solo (Mustaine)
e|-------------------------------------|
B|-------------------------------------|
G|--6b7tm----[long hold, slow release]-|
D|-------------------------------------|
A|-------------------------------------|
E|-------------------------------------|

e|----------------------------------------------------|
B|------------------------------------------4-----4-4-|
G|-6p4---------4------------4-6-4-----4-6b7---6p4-----|
D|-----6-6-4-6---5-6--4-5-6-------6-6-----------------|
A|-------------------4--------------------------------|
E|----------------------------------------------------|

e|-------------------------------------------------------------|
B|-5-6-7-6-7-8-7-8-9-8-9-10-9-10-11-10-11-12-11-12-13-12-13-14-|
G|-------------------------------------------------------------|
D|-------------------------------------------------------------|
A|-------------------------------------------------------------|
E|-------------------------------------------------------------|

e|----------------------------------------|
B|-13-14-15-14-15-16-15-16-17-18-19-18-19-|
G|----------------------------------------|
D|----------------------------------------|
A|----------------------------------------|
E|----------------------------------------|

e|-16-19p16--16-19p16--16-21p16-19p16--16-21p16-21b23~~-|
B|---------19--------19--------------19-----------------|
G|------------------------------------------------------|
D|------------------------------------------------------|
A|------------------------------------------------------|
E|------------------------------------------------------|

End Solo


Riff 4a (Solo Rhythm)
e|----------------------------------|
B|----------------------------------|
G|----------------6---------------8-|
D|----------------6---------------8-|
A|-8--------8-6-8-4---------8-6-8-6-|
E|-6-666666-6-4-6----666666-6-4-6---|
     ****** * * *    ****** * * *
e|--------------------------|
B|--------------------------|
G|--------------9------9-8--|
D|--------------9------9-8--|
A|--------8-6-8-7------7-6--|
E|-666666-6-4-6----666------|
   ****** * * *    ***
e|-------|
B|-------|
G|-------|
D|-------|
A|-------|
E|--X\\--|


Solo (Poland)
e|---------------------------------------------6h9-9b11r9-|
B|-------------------------------------------6------------|
G|-------------------------------6-------6h8--------------|
D|---------------6-------6h8p6h8---8p6h8------------------|
A|-----8-6h8p6h8---8p6h8----------------------------------|
E|-/9-----------------------------------------------------|

e|-6------------6----------------------|
B|---9-6-9b11r9---9p6---6--------------|
G|--------------------8---8b10r8p6-6b8-|
D|-------------------------------------|
A|-------------------------------------|
E|-------------------------------------|

e|------------------------------------|
B|------------------------------------|
G|------------------------------------|
D|-8-6--------------------------------|
A|-----8-6----------------------------|
E|---------9-6--9~~--(9)b10--7b8--4~~-|

End Solo


Riff 5
e|---------------------------------|
B|---------------------------------|
G|---------------------------------|
D|---------6p4---------------------|
A|-------------------------6p4-----|
E|-4-4-4-4-----4-4-4-4-4-4-----4-4-|
   * * * *     * * * * * *     * *
e|-----------------------------|
B|-----------------------------|
G|-----------------------------|
D|-----------------------------|
A|-------------------------7-4-|
E|-4-4-4-4-7-4-4-4-4-4-4-4-5-2-|
   * * * * * * * * * * * *
e|----------------------------------------------|
B|----------------------------------------------|
G|----------------------------------------------|
D|---------6p4----------------------------4-5---|
A|-------------------------6p4-----7-9-6--2-3-5-|
E|-4-4-4-4-----4-4-4-4-4-4-----4-4-5-7-4------3-|
   * * * *     * * * * * *     * *


Riff 6
e|---------------------------------|
B|---------------------------------|
G|---------------------------------|
D|---------4p2---------------------|
A|-------------------------4p2-----|
E|-2-2-2-2-----2-2-2-2-2-2-----2-2-|
   * * * *     * * * * * *     * *
e|---------------------------------|
B|---------------------------------|
G|---------------------------------|
D|---------------------------------|
A|---------------------------------|
E|-2-2-2-2-5-2-2-2-2-2-2-2-0-2-2-2-|
   * * * * * * * * * * * * * * * *
e|-----------------------------------------------|
B|-----------------------------------------------|
G|-----------------------------------------------|
D|-4-2-----2----------------------------6--------|
A|-----4-3---4-3-2-4-3-2---3-2--------5----5---5-|
E|-----------------------5-----5-2--4--------4---|



Riff 7
e|---------------------------|
B|---------------------------|
G|---------------------------|
D|-------2------------5----3-|
A|-4---4-0--2-3-4---4-3--5-1-|
E|-2-0-2----0-1-2-0-2----3---|
     * *          * *
   "Well I wonder..."
e|---------------------------|
B|---------------------------|
G|-------7--6-4--------------|
D|-------5--4-2-------7----7-|
A|-4---4--------4---4-5--6-5-|
E|-2-0-2--------2-0-2----4---|
     * *          * *
   "...bout the other..."
e|---------------------------------------|
B|---------------------------------------|
G|---------------------------------------|
D|-------2------------7--9----6----------|
A|-4---4-0--2-3-4---4-5--7----4--------4-|
E|-2-0-2----0-1-2-0-2------------------2-|
     * *          * *
                          "...named Diana."

Guitar fill over Riff 7 (Mustaine)
e|----------------------------------|
B|----------------------------------|
G|-6p4p2p0--------------------------|
D|---------5p4p2p0-5p4p2p0----------|
A|------------------------4p2p0-----|
E|------------------------------0-2-|



Lead into next section:
e|--------|
B|--------|
G|--------|
D|--------|
A|--4--3--|
E|--2--1--|



Riff 8 (Solo Rhythm)
e|----------------------------------|
B|----------------------------------|
G|----------------------------------|
D|------9---------------------9--7--|
A|-2----7----3--5555---5-7-2--7--5--|
E|-0----0----1-------7-----0--0-----|



Solo (Mustaine)
e|-8p0h8p7p0h7h8p0h8p7p0h7h8p0h8p7p0h7h8p0h8p7-8/10-|
B|--------------------------------------------------|
G|--------------------------------------------------|
D|--------------------------------------------------|
A|--------------------------------------------------|
E|--------------------------------------------------|

e|-12-/24\-2h3p2h3-/14h15p14h15-|
B|------------------------------|
G|------------------------------|
D|------------------------------|
A|------------------------------|
E|------------------------------|

e|-8p0h8p7p0h7h8p0h8p7p0h7h8p0h8p7p0h7h8p0h8p7-8/10-|
B|--------------------------------------------------|
G|--------------------------------------------------|
D|--------------------------------------------------|
A|--------------------------------------------------|
E|--------------------------------------------------|

e|-12--11-10--9--8--/15---------------------------|
B|------------------------------------------------|
G|------------------------------------------------|
D|------------------------------------------------|
A|------------------------------------11----11-12-|
E|-----------------------12~----10-12----12-------|

e|-----------------------------------------|
B|-----------------------------------------|
G|-----------------------------------------|
D|-----------------------------------------|
A|-14-12-11-14-11h12p11----11--------------|
E|----------------------13----13-12-10-12~-|

e|------------------------------------------------|
B|------------------------------------------------|
G|-------------------------------------------13---|
D|----------------------------12--14-12-15-14--15-|
A|-------11--12-11-14-12-15-14--15----------------|
E|-13-12---13-------------------------------------|

e|---------------------12--13---|
B|------12--13-12-15-13--15--15-|
G|-14-13--14--------------------|
D|------------------------------|
A|------------------------------|
E|------------------------------|

e|--------------------------------------|
B|-17~~--15-17-17~~--15-17-17-----------|
G|-----------------------------14-16-16-|
D|--------------------------------------|
A|--------------------------------------|
E|--------------------------------------|

e|--------------------------------------------|
B|--------------------------------------------|
G|-13-14-14-----------------------------------|
D|-----------14-15-15--12-14-14~~--12-14-14~~-|
A|--------------------------------------------|
E|--------------------------------------------|

e|-----------------------------------------|
B|-----------------------------------------|
G|-----------------------------------------|
D|-12-14-14--------------------------------|
A|-----------14-15-15--12-14-14--11-12-12\-|
E|-----------------------------------------|

e|--------------------------------------------------|
B|--------------------------------------------------|
G|--------------------------------------------------|
D|--------------------------------------12-14-15p14-|
A|---------11-12-14p12p11-12-14-15p14p12------------|
E|-12--13-------------------------------------------|

e|----------------------------------------16h17-19p17p16-|
B|----------------------------15h17-18p17----------------|
G|-13h14-16p14p13-14h16-17p16----------------------------|
D|-------------------------------------------------------|
A|-------------------------------------------------------|
E|-------------------------------------------------------|

e|-20p19p17-19p17-16-19p17p16-17p16-----------------------------|
B|---------------------------------18p17p15-17p15---------------|
G|-----------------------------------------------17p16p14-16p14-|
D|--------------------------------------------------------------|
A|--------------------------------------------------------------|
E|--------------------------------------------------------------|

e|-------------------------------------------------------------------|
B|-------------------------------------------------------------------|
G|-16p14p13-14p13----------------------------------------------------|
D|---------------15p14p12-14p12---------------------------------14~~-|
A|-----------------------------16p14p12-14p12\11-12p11--11-----------|
E|----------------------------------------------------13--13p12------|

End Solo


Play Riff 8   "Wake up dead..."

Final time:
e|---------------------------------|
B|---------------------------------|
G|---------------------------------|
D|------9---------------------9--7-|
A|-2----7----3--5555---5-7-2--7--5-|
E|-0----0----1-------7-----0--0----|
      "You.......die....wake up dead!"

------------------------------------------------

6.Something I'm Not
Band:Megadeth
Album:System Has Failed
Tuning:Standard

Intro                    x7
e|------------------------|
B|------------------------|
G|------------------------|
D|--------4-----------4---|
A|------------------------|
E|-2--2-2---2-x-x-0-2---2-|
      * *   *
  "...mind tells you..."
e|-------------------------------|
B|-------------------------------|
G|-------------------------------|
D|--------4-----------4----------|
A|-------------------------------|
E|-2--2-2---2-x-x-0-2---2----x-x-|
      * *   *
  "...again!"
                         x2
e|------------------------|
B|------------------------|
G|------------------------|
D|--------4-----------4---|
A|------------------------|
E|-2--2-2---2-x-x-0-2---2-|
      * *   *



Riff 1                   x3
e|------------------------|
B|------------------------|
G|------------------------|
D|--------4-----------4---|
A|------------------------|
E|-2--2-2---2-x-x-0-2---2-|
      * *   *
  "You said that..."
e|-------------------------------|
B|-------------------------------|
G|-------------------------------|
D|--------4-----------4----------|
A|-------------------------------|
E|-2--2-2---2-x-x-0-2---2----x-x-|
      * *   *
  "...wanted done..."
                         x3
e|------------------------|
B|------------------------|
G|------------------------|
D|--------4-----------4---|
A|------------------------|
E|-2--2-2---2-x-x-0-2---2-|
      * *   *
  "Innocence vulgar..."
e|-------------------------|
B|-------------------------|
G|-------------------------|
D|--------4-----------4----|
A|-------------------------|
E|-2--2-2---2-x-x-0-2---2--|
      * *   *
  "...your style!"



Riff 2
NOTE: The first bar is probably the same pattern
as the rest, but I really don't hear that.  So play
whichever version you prefer.

Guitar 1
e|------------------------------|
B|------------------------------|
G|------------------------------|
D|------------------------------|
A|------------------------------|
E|-0-2--0-2--0-2--0-2--xx-5p2p0-| <-- How I hear it.

e|-----------------------------|
B|-----------------------------|
G|-----------------------------|
D|-----------------------------|
A|---------------------0h1p0---|
E|-0-2--0-2--0-2--0-2--------2-| <-- probably what it is

Continue:
e|-----------------------------|
B|-----------------------------|
G|-----------------------------|
D|-----------------------------|
A|---------------------3h4p3---|
E|-3-5--3-5--3-5--3-5--------5-|

e|-----------------------------|
B|-----------------------------|
G|-----------------------------|
D|-----------------------------|
A|---------------------5h6p5---|
E|-5-7--5-7--5-7--5-7--------7-|

e|-----------------------------|
B|-----------------------------|
G|-----------------------------|
D|---------------------5h6p5---|
A|-3-5--3-5--5-7--5-7--------7-|
E|-----------------------------|


Guitar 2 (Wah pedal)
e|------------------------|
B|------------------------|
G|------------------------|
D|-2--[let ring with wah]-|
A|------------------------|
E|------------------------|

e|---------------------------|
B|---------------------------|
G|-5b7--2--------7b9--5------|
D|---------4~------------7~--|
A|---------------------------|
E|---------------------------|

e|------------------------------|
B|------------------------------|
G|-9b11--7~--11b13-10~----11~~--|
D|------------------------------|
A|------------------------------|
E|------------------------------|



Riff 3
e|---------------------------------|
B|---------------------------------|
G|---------------------------------|
D|---4p2---4p2---4p2---4p2---4p2p0-| ---|
A|---------------------------------|    |
E|-2-----2-----2-----2-----2-------|    |
         *     *     *     *            |
   "Everything about you..."            |--> Play 3x
e|---------------------------------|    |
B|---------------------------------|    |
G|---------------------------------|    |
D|---4p2---4p2---4p2---4p2---4p2p0-| ---|
A|-0-----0-----0-----0-----0-------|
E|---------------------------------|
         *     *     *     *
  "...one big charade..."

e|-------------------------------|
B|-------------------------------|
G|-------------------------------|
D|----4p2---4p2------4p2---4p2---|
A|-------------------------------|
E|-4------4-----4-3------3-----3-|
          *     *        *     *
  "It's something you are..."

e|------------------------|
B|------------------------|
G|------------------------|
D|--------4-----------4---|
A|------------------------|
E|-2--2-2---2-x-x-0-2---2-|
      * *   *
  "...something that I'm not!"

e|-------------------------------|
B|-------------------------------|
G|-------------------------------|
D|--------4-----------4----------|
A|-------------------------------|
E|-2--2-2---2-x-x-0-2---2----x-x-|
      * *   *



Play Riff 1   "When you forced me..."

Guitar fill over Riff 1:
e|--------------------------------|
B|--------------------------------|
G|-11--------9--------8--------7--|
D|--------------------------------|
A|--------------------------------|
E|--------------------------------|

e|-------------------------------------|
B|-------------------------------------|
G|---------------------------------11--|
D|--4--------7--------9----10--11------|
A|-------------------------------------|
E|-------------------------------------|



Play Riff 2


Riff 3a
e|---------------------------------|
B|---------------------------------|
G|---------------------------------|
D|---4p2---4p2---4p2---4p2---4p2p0-| ---|
A|---------------------------------|    |
E|-2-----2-----2-----2-----2-------|    |
         *     *     *     *            |
   "...you, I'm no vision..."           |--> Play 3x
e|---------------------------------|    |
B|---------------------------------|    |
G|---------------------------------|    |
D|---4p2---4p2---4p2---4p2---4p2p0-| ---|
A|-0-----0-----0-----0-----0-------|
E|---------------------------------|
         *     *     *     *
   "...lest you forget..."

e|-------------------------------|
B|-------------------------------|
G|-------------------------------|
D|----4p2---4p2------4p2---4p2---|
A|-------------------------------|
E|-4------4-----4-3------3-----3-|
          *     *        *     *
   "...something you are..."


1st ending:
e|------------------------|
B|------------------------|
G|------------------------|
D|--------4-----------4---|
A|------------------------|
E|-2--2-2---2-x-x-0-2---2-|
      * *   *
   "...something that I'm not!"

2nd ending:
e|--------------------------|
B|--------------------------|
G|--------------------------|
D|--------------------------|
A|-4----2----333333-2p0-----|
E|-2----0---------------3p0-|
             ******
   "...something that I'm not!"


Guitar fills over Riff 3a
e|-----------------|
B|-12b13--(13)b14--|
G|-----------------|
D|-----------------|
A|-----------------|
E|-----------------|

e|--------------------|
B|----12b13--10^------|
G|-9--------------11~-| [wah pedal]
D|--------------------|
A|--------------------|
E|--------------------|

e|-----------------|
B|-12b13--(13)b14--|
G|-----------------|
D|-----------------|
A|-----------------|
E|-----------------|



Riff 4 (Solo Rhythm)            x8
e|-------------------------------|
B|-------------------------------|
G|-------------------------------|
D|--------------------3----------|
A|---------3--1h2h3-1-1----------|
E|-3-1-3-1---------------1-0-1-2-|
   * * * *          *    * * * *

e|---------------------------|
B|---------------------------|
G|---------------------------|
D|---------------------------|
A|-------------5-4-3-2-3-4-5-|
E|-5-2-3-4-5-2---------------|
                                  x3
e|---------------------------------|
B|---------------------------------|
G|---------------------------------|
D|---------------------------------|
A|-------------------5-4-3-2-3-4-5-|
E|-2-3-4-5-2-3-4-5-2---------------|
                                  x3
e|---------------------------------|
B|---------------------------------|
G|---------------------------------|
D|---------------------------------|
A|-----------------0-3-2-1-0-1-2-3-|
E|-0-1-2-3-0-1-2-3-----------------|

e|---------------------------------------|
B|---------------------------------------|
G|---------------------------------------|
D|---------------------------------------|
A|-----------------0-3-2-1-0-1-2-3-0-----|
E|-0-1-2-3-0-1-2-3-------------------4-3-|

                         x4
e|------------------------|
B|------------------------|
G|------------------------|
D|--------4-----------4---|
A|------------------------|
E|-2--2-2---2-x-x-0-2---2-|
      * *   *


Solo (Mustaine)
e|-------------------------------------|
B|-------------------------------------|
G|-5--4--3-----------5--4--3-----------|
D|-5--4--3-----3-----5--4--3-----------|
A|---------------5~---------------7----|
E|---------X\\----------------X\\---6^-|

e|-------------------------------------------------|
B|-----------------------3--x-5--x-3--x-5--x-3-x-5-|
G|-5--4--3--3---3-5b6r5~-3--x-5--x-3--x-5--x-3-x-5-|
D|-5--4--3----5------------------------------------|
A|-------------------------------------------------|
E|-------------------------------------------------|

e|--------------------------------------------|
B|--------------------------------------------|
G|-------3----------5----------3---------3~---|
D|-3h4h5---5--3h4h5---5--3h4h5---5-3h4h5----5-|
A|--------------------------------------------|
E|--------------------------------------------|

e|-----------------------------------------------|
B|-----------------------------------------------|
G|-------5----------3--5-3---3b4-----------------|
D|-3h4h5---5--3h4h5----a-a-5-a---5-4-3---3-------|
A|-------------------------a-----a-a-a-5-a-5-4-3-|
E|-------------------------------------a---a-a-a-|

e|-------------------------------------------------|
B|-------------------------------------------------|
G|-------------------------------------------------|
D|-------------------------------------------------|
A|-------------------------------------------------|
E|-6p3p0-6p3p0-6p3p0-6p3p0-6p3p0-6p3p0-6p3p0-6p3p0-|

e|-22p17----20p17----17----------------|
B|-------17-------20----22p17-20p17----|
G|----------------------------------20-|
D|-------------------------------------|
A|-------------------------------------|
E|-------------------------------------|

e|-------------------------------------|
B|-22p17----20p17----17----------------|
G|-------20-------19----20p17-19p17----|
D|----------------------------------19-|
A|-------------------------------------|
E|-------------------------------------|

e|-------------------------------------|
B|-------------------------------------|
G|-20p17-----19p17----17---------------|
D|-------19--------19----20p17-19p17---|
A|----------------------------------19-|
E|-------------------------------------|

e|-------------------------------------|
B|-------------------------------------|
G|-19p17-19p17-19p17-19p17-19p17-19p17-|
D|-------------------------------------|
A|-------------------------------------|
E|-------------------------------------|

e|---------------------------------|
B|---------------------------------|
G|-23p19p17--17h19-23p19p17--17h19-|
D|---------19--------------19------|
A|---------------------------------|
E|---------------------------------|

e|----------------------------------------|
B|----------------------------------------|
G|-23p19p17-24p19p17-23p19p17-19p17-19p17-|
D|----------------------------------------|
A|----------------------------------------|
E|----------------------------------------|

e|-------------------------------------|
B|-20p19p17-20p19p17-22p20p17-22p20p17-|
G|-------------------------------------|
D|-------------------------------------|
A|-------------------------------------|
E|-------------------------------------|

e|-20p19p17-20p19p17-22p20p17-22p20p17-|
B|-------------------------------------|
G|-------------------------------------|
D|-------------------------------------|
A|-------------------------------------|
E|-------------------------------------|

e|-18p15---18p15---18p15---17p15---|
B|------15------15------15------15-|
G|---------------------------------|
D|---------------------------------|
A|---------------------------------|
E|---------------------------------|

e|-18p15---20p15---18p15---17p15---|
B|------15------15------15------16-|
G|---------------------------------|
D|---------------------------------|
A|---------------------------------|
E|---------------------------------|

e|-18p15---18p15---18p15---17p15---|
B|------16------16------16------16-|
G|---------------------------------|
D|---------------------------------|
A|---------------------------------|
E|---------------------------------|

e|-18p15---20p15---18p15---17p15---|
B|------16------16------16------17-|
G|---------------------------------|
D|---------------------------------|
A|---------------------------------|
E|---------------------------------|

e|-18p15---18p15---18p15---17p15---|
B|------17------17------17------17-|
G|---------------------------------|
D|---------------------------------|
A|---------------------------------|
E|---------------------------------|

e|-18p15---20p15---18p15---17p15---|
B|------17------17------17------16-|
G|---------------------------------|
D|---------------------------------|
A|---------------------------------|
E|---------------------------------|

e|-18p15---18p15---18p15---17p15---|
B|------16------16------16------16-|
G|---------------------------------|
D|---------------------------------|
A|---------------------------------|
E|---------------------------------|

e|-18p15---20p15---18p15---15\-|
B|------16------16------16-----|
G|-----------------------------|
D|-----------------------------|
A|-----------------------------|
E|-----------------------------|

e|-0tr2----(0tr2)----(0tr2)---------|
B|----------------------------------|
G|----------------------------------|
D|----------------------------------|
A|----------------------------------|
E|-----------------------------X\\--|

End Solo



Play Riff 1   "It makes me sick..."

Guitar fills over Riff 1 (wah pedal)
e|-----------------------|
B|-----------------------|
G|-17b18----(18)r17------|
D|-16b17----(17)r16-16~~-|
A|-----------------------|
E|-----------------------|

e|-------------------|
B|-------------------|
G|-------------------|
D|-7b8-7b8-7b8r7-----|
A|-a---a---a-----9~--|
E|-------------------|

e|-----------------------|
B|-----------------------|
G|-16b18-16b18-16-14-14~-|
D|-----------------------|
A|-----------------------|
E|-----------------------|

e|-------14-------14-14-----|
B|-------14-------14-14-----|
G|-16b18----16b18-----------|
D|--------------------------|
A|--------------------------|
E|----------------------X\\-|



Riff 5 (Solo Rhythm)                                x3
e|---------------------------------------------------|
B|---------------------------------------------------|
G|-------11---------10-------------9---------8-------|
D|---------------------------------------------------|
A|-/9999----999-7/8----8~--88-7777---777-5/6---6~-66-|
E|---------------------------------------------------|

e|--------------------------------------------|
B|--------------------------------------------|
G|------7---------6-------------5-------------|
D|------------------------------------2--3--4-|
A|-5555---555-3/4---4~--44-3333---333-0--1--2-|
E|--------------------------------------------|
                             "Something I'm not..."

Solo (Mustaine)
e|------------------------------------|
B|------------------------------------|
G|-------2----------------------------|
D|-4-------3-----3-2----------------9-|
A|----4-------4-------4--3~--2--/6----|
E|------------------------------------|

e|--------------------------------------------------|
B|--------------------------------------------------|
G|-------2-------2-4-4p2----------------------------|
D|-4-------3-------------4--4-4p3p2-4-3-2---2-------|
A|----4-------4---------------------------4---4-3-2-|
E|--------------------------------------------------|

e|-------5--------5-------------------|
B|-7-------6~-------5--------------12-|
G|----6--------6-------6--5--4--8-----|
D|------------------------------------|
A|------------------------------------|
E|------------------------------------|

e|-----------------------------------------|
B|-15--------------------------------------|
G|----11-----------14p11-13p10----------10-|
D|-------12h14p12--------------11h13p11----|
A|-----------------------------------------|
E|-----------------------------------------|

e|----------------------------------------------|
B|----------------------------------------------|
G|-13p10-12p9----------9-12\--------------------|
D|------------10h12p10--------7--8--9-----------|
A|-------------------------------------9~--(9)\-|
E|----------------------------------------------|

End Solo



Riff 6
e|------------------------|
B|------------------------|
G|------------------------|
D|--------4-------------2-|
A|----------------3--4----|
E|-2--2-2---2-x-x---------|
      * *   *
e|------------------------|
B|------------------------|
G|------------------------|
D|--------4----------2----|
A|----------------5-----5-|
E|-2--2-2---2-x-x---------|
      * *   *
               "Something that you are..."


Play Riff 5   Solo Rhythm

Solo (Mustaine)
e|-17t0h14-17t0h14-17t0--17t0h13-17t0h13-17t0-|
B|--------------------------------------------|
G|--------------------------------------------|
D|--------------------------------------------|
A|--------------------------------------------|
E|--------------------------------------------|

e|-17t0h12-17t0h12-17t0--17t0h11-17t0h11-17t0-|
B|--------------------------------------------|
G|--------------------------------------------|
D|--------------------------------------------|
A|--------------------------------------------|
E|--------------------------------------------|

e|-17t0h14-17t0h14-17t0--17t0h13-17t0h13-17t0-|
B|--------------------------------------------|
G|--------------------------------------------|
D|--------------------------------------------|
A|--------------------------------------------|
E|--------------------------------------------|

e|-17t0h12-17t0h12-17t0--17t0h11-17t0h11-19t0-|
B|--------------------------------------------|
G|--------------------------------------------|
D|--------------------------------------------|
A|--------------------------------------------|
E|--------------------------------------------|

e|-17t0h14-17t0h14-17t0--17t0h13-17t0h13-17t0-|
B|--------------------------------------------|
G|--------------------------------------------|
D|--------------------------------------------|
A|--------------------------------------------|
E|--------------------------------------------|

e|-17t0h12-17t0h12-17t0--17t0h11-17t0h11-17t0-|
B|--------------------------------------------|
G|--------------------------------------------|
D|--------------------------------------------|
A|--------------------------------------------|
E|--------------------------------------------|

e|-14t0h10-14t0h10-14t0--13t0h9-13t0h9-13t0-|
B|------------------------------------------|
G|------------------------------------------|
D|------------------------------------------|
A|------------------------------------------|
E|------------------------------------------|

e|-12t0h8-12t0h8-12t0--9t0h5-9t0h5-9t0-----|
B|-------------------------------------h7~-|
G|-----------------------------------------|
D|-----------------------------------------|
A|-----------------------------------------|
E|-----------------------------------------|

End Solo


Play Riff 6   "Something I'm not..."


Final chord:
e|-----|
B|-----|
G|-----|
D|-----|
A|--4--|
E|--2--|

----------------------------------------------

7.In My Darkest Hour
Band:Megadeth
Album:So Far,So Good...So What!
Tuning:Standard

Remix/Remaster intro (Acoustic)
e|--------------------------0------|
B|------------------------0---0----|
G|-------7--------------7-------7--|
D|-----5--------------5------------|
A|---9--------------9--------------|
E|-0--------------0----------------|



Riff 1
Guitar 1 (Acoustic)
e|-----------0--------------0------|
B|---------0---0----------0---0----|
G|-------7-------7------7----------|
D|-----5--------------5------------|
A|---9--------------9--------------|
E|-0-------------------------------|

e|---------------------------------|
B|---------------------------------|
G|---------------------------------|
D|---------------------------------|
A|-----------[silent]--------------|
E|---------------------------------|

Guitar 2 (Distortion)
e|----------------------------------|
B|----------------------------------|
G|----------------------------------|
D|----------------------------------|
A|-2----------------(2)---------2-2-|
E|-0----------------(0)---------0-0-|
                                * *
e|---------------------------------|
B|---------------------------------|
G|---------------------------------|
D|-----4---2-------------------4---|
A|---5---5---5-2-----------2-5---5-|
E|-0-------------5-3-2-3-5---------|
                   * * * *

Guitar 3 (Distortion)
e|----------------------------------|
B|----------------------------------|
G|----------------------------------|
D|----------------------------------|
A|-2----------------(2)---------2-2-|
E|-0----------------(0)---------0-0-|

e|----------------------------------|
B|----------------------------------|
G|----------------------------------|
D|----------------------------------|
A|-2----------------(2)-------------|
E|-0----------------(0)-------------|




Riff 2
Guitar 1 (Acoustic)
e|-----------0--------------5------|
B|---------0---0--------------5----|
G|-------7----------------7-----7--|
D|-----5----------------5----------|
A|---9----------------9------------|
E|-0----------------8--------------|

e|-----------9---------------------|
B|-------------10------------------|
G|---------9------9----------7-----|
D|------11-----------------5-------|
A|---12------------------9---------|
E|-9-------------------8-----------|

Guitar 2 (Distortion)
e|--------------------------------|
B|--------------------------------|
G|--------------------------------|
D|----------------4-5-----------5-|
A|-2--------------2-3-----------3-|
E|-0------------------------------|

e|------------------------------------|
B|------------------------------------|
G|------------------------------------|
D|-7--------------7-5---------2-0-----|
A|-4--------------4-3-------------3-2-|
E|------------------------------------|
                              * * * *

Guitar 3 (Distortion)
e|--------------------------------|
B|--------------------------------|
G|--------------------------------|
D|----------------4-5-----------5-|
A|-2--------------2-3-----------3-|
E|-0------------------------------|

e|------------------------------------|
B|------------------------------------|
G|------------------------------------|
D|-7--------------7-5-----------------|
A|-4--------------4-3-------3-3-2-0---|
E|----------------------------------3-|
                            * * * * *


Riff 3
Guitars 1 (Distortion)
e|---------------------------|
B|---------------------------|
G|---------------------------|
D|------2-0----------2-0-----|
A|-2--------3-2-3--------3-2-|
E|-0------------1------------|

Guitar 2 (Distortion)
e|---------------------------|
B|---------------------------|
G|---------------------------|
D|---------------------------|
A|-2----3-2-0---3----3-2-0---|
E|-0----------3-1----------3-|
        * * * *      * * * *


Riff 4                                x2
e|-------------------------------------|
B|-------------------------------------|
G|-------------------------------------|
D|-------------------------------------|
A|-2--------2--------2--------2--------|
E|-0--0-0-0-0--0-0-0-0--0-0-0-0--0-0-0-|
      * * *    * * *    * * *    * * *

Riff 5
Guitar 1
e|-------------------------------------------|
B|-------------------8-7-6-5-----------------|
G|---------------------------8-7-6-5---------|
D|-----------------------------------9-8-7-6-|
A|-2--------5--------------------------------|
E|-0--0-0-0-3--3-3-3-------------------------|
      * * *    * * *

Guitar 2 (Just an echo effect on guitar 1)
e|-------------------------------------------|
B|-------------------8-7-6-8-7-6-5-----------|
G|---------------------------------8-7-6-5---|
D|-----------------------------------------9-|
A|-2--------5--------------------------------|
E|-0--0-0-0-3--3-3-3-------------------------|
      * * *    * * *

Guitar 3
e|-------------------------------------------|
B|-------------------------------------------|
G|-------------------------------------------|
D|-------------------2-1-0-------------------|
A|-2--------5--------------4-3-2-1-0---------|
E|-0--0-0-0-3--3-3-3-----------------4-3-2-1-|
      * * *    * * * * * * * * * * * * * * *


Riff 6
Guitar 1
NOTE: Let ring for first four bars,
      then follow Guitar 2.
e|----------------------------------|
B|----------------------------------|
G|----------------------------------|
D|----------------------------------|
A|-2----------------(2)-------------|
E|-0----------------(0)-------------|

Guitar 2
e|-------------------------------------|
B|-------------------------------------|
G|-------------------------------------|
D|-----------------4-5--------5--------|
A|-2--------2------2-3--3-3-3-3--3-2---|
E|-0--0-0-0-0--0-0-------------------3-|
      * * *    * *      * * *    * * *
   "My hour of need..."
e|-------------------------------------|
B|-------------------------------------|
G|-------------------------------------|
D|-----------------4-5--------5--------|
A|-2--------2------2-3--3-3-3-3--3-2---|
E|-0--0-0-0-0--0-0-------------------3-|
      * * *    * *      * * *    * * *
   "Ha, no..."
e|-------------------------------------|
B|-------------------------------------|
G|-------------------------------------|
D|---------------9-8-7--------7--7-9-8-|
A|-2--------2----7-6-5--5-5-5-5--5-7-6-|
E|-0--0-0-0-0--0-----------------------|
      * * *    * * *    * * *    *
    "...and though..."
e|-------------------------------------|
B|-------------------------------------|
G|-------------------------------------|
D|-------------------------------------|
A|-9--------9------4-5--5-7-8-9--9-7-5-|
E|-7--7-7-7-7--7-7-2-3--3-5-6-7--7-5-3-|
      * * *    * * *    * * *    * * *
    "...wouldn't lend a hand..."


Riff 7
e|------------------------------------------|
B|------------------------------------------|
G|------------------------------------------|
D|-----------------4-5--------5---4-2h4p2---|
A|-2--------2------2-3--3-3-3---3---------3-|
E|-0--0-0-0-0--0-0--------------------------|
      * * *    * *      * * *   *
  "...me..."
e|------------------------------------------|
B|------------------------------------------|
G|------------------------------------------|
D|-----------------4-5--------5---4-2h4p2---|
A|-2--------2------2-3--3-3-3---3---------3-|
E|-0--0-0-0-0--0-0--------------------------|
      * * *    * *      * * *   *
e|------------------------------------------|
B|------------------------------------------|
G|----------------------------4---2-0h2p0---|
D|-2--------2--------4--------------------4-|
A|-0--0-0-0-0--0-3-0-2--2-2-2---2-----------|
E|------------------------------------------|
      * * *    * * *    * * *   *
e|--------------------------|
B|--------------------------|
G|----------4---2-0h2p0-----|
D|-2--------------------4/--|
A|-0--0-0-0---0-------------|
E|--------------------------|
      * * *   *
e|-------------------------------------------|
B|-------------------------------------------|
G|-------------------------------------------|
D|-7-7-7-7-7-7-7-7-7-7-7-7-7-7-7-7-7-7-7-3-2-|
A|-5-5-5-5-5-5-5-5-5-5-5-5-5-5-5-5-5-5-5-1-0-|
E|-------------------------------------------|
   * * * * * * * * * * * * * * * * * *
                                      "Did you..."

Riff 8
Guitar 1
NOTE: Let ring for entire riff.
e|----------------------------------|
B|----------------------------------|
G|----------------------------------|
D|----------------------------------|
A|-2----------------(2)-------------|
E|-0----------------(0)-------------|

Guitar 2
e|-------------------------------------|
B|-------------------------------------|
G|-------------------------------------|
D|-----------------4-5--------5------5-|
A|-2--------2------2-3--3-3-3-3--3-3-3-|
E|-0--0-0-0-0--0-0---------------------|
      * * *    * *      * * *    * *
   "...ever think..."
e|-------------------------------------|
B|-------------------------------------|
G|-------------------------------------|
D|-7--------7------7-5--------5--------|
A|-4--4-4-4-4--4-4-4-3--3-3-3-3--3-2---|
E|-----------------------------------3-|
      * * *    * *      * * *    * * *
   "...ever think stop thinking..."



Riff 9
e|--------------------------------------------|
B|--------------------------------------------|
G|--------------------------------------------|
D|-------------0-----------------0------3-2---|
A|---------0-1---1-0---------0-1---1-0--1-0-5-|
E|-0-000-3-----------0-000-3----------------3-|
   * *** * * *       * *** * * *
   "...you..."                        "Things will be..."


Play Riff 8  "...wrong, but oh..."


Riff 8a
Guitar 1 (Play 2x)
e|-------------------------|
B|-------------------------|
G|-------------------------|
D|-2p0-2-------2p0-2-------|
A|-------2-----------2-----|
E|---------3-0---------3-0-|
         * * *       * * *
                   "All these years..."
e|-------------------------|
B|-------------------------|
G|-------------------------|
D|-2p0-2-------2p0-2-------|
A|-------3-----------3-----|
E|---------3-0---------3-0-|
         * * *       * * *
            "...thought I was..."
e|-------------------------|
B|-------------------------|
G|-------------------------|
D|-2p0-2-------2p0-2-------|
A|-------4-----------4-----|
E|---------3-0---------3-0-|
         * * *       * * *
  "...wrong..."

1st ending
e|-------------------------|
B|-------------------------|
G|-------------------------|
D|-2p0-2-------2p0-2-------|
A|-------3-----------3-----|
E|---------3-0---------3-0-|
         * * *       * * *
   "...know it was you..."

2nd ending
e|-------------------------------|
B|-------------------------------|
G|-------------------------------|
D|-2p0-2-------2p0-2-------2p0-2-|
A|-------3-----------3-----------|
E|---------3-0---------3-0-------|
         * * *       * * *
      "...your eyes..."

Guitar 2
e|-------------------------------------|
B|-------------------------------------|
G|-------------------------------------|
D|-----------------4-5--------5------5-|
A|-2--------2------2-3--3-3-3-3--3-3-3-|
E|-0--0-0-0-0--0-0---------------------|
      * * *    * *      * * *    * *
            "All these years..."
e|-------------------------------------|
B|-------------------------------------|
G|-------------------------------------|
D|-7--------7------7-5--------5--------|
A|-4--4-4-4-4--4-4-4-3--3-3-3-3--3-2---|
E|-----------------------------------3-|
      * * *    * *      * * *    * * *
   "...wrong, now I know..."



Riff 7a
e|------------------------------------------|
B|------------------------------------------|
G|------------------------------------------|
D|-----------------4-5--------5---4-2h4p2---|
A|-2---------------2-3------3---3---------3-|
E|-0----------------------------------------|
                            *   *
e|---------------------------------------------|
B|---------------------------------------------|
G|---------------------------------------------|
D|--------------------4-5--------5---4-2h4p2---|
A|-2------------------2-3--3-3-3---3---------3-|
E|-0--0-0-0-0-0-0-0-0--------------------------|
      * * * * * * * *      * * *   *
e|------------------------------------------|
B|------------------------------------------|
G|------------------------------------------|
D|-----------------4-5--------5---4-2h4p2---|
A|-2---------------2-3------3---3---------3-|
E|-0----------------------------------------|
                            *   *
e|----------------|
B|----------------|
G|----------------|
D|-7---------(7)--|
A|-4---------(4)--|
E|----------------|

e|-------------------------------------------|
B|-------------------------------------------|
G|-------------------------------------------|
D|-7-7-7-7-7-7-7-7-7-7-7-7-7-7-7-7-7-7-7-3-2-|
A|-5-5-5-5-5-5-5-5-5-5-5-5-5-5-5-5-5-5-5-1-0-|
E|-------------------------------------------|
   * * * * * * * * * * * * * * * * * *


Riff 10 (Guitar 2 just plays the chords)
e|-------------------------------------------|
B|-------------------------------------------|
G|-----------2p1p0----------------2p1p0------|
D|-----0h1h2------2p1p0-----0h1h2------2p1p0-|
A|-2-2------------------3-3------------------|
E|-0-0------------------1-1------------------|
       "I walk..."
e|-------------------------------------------|
B|-------------------------------------------|
G|-----------2p1p0----------------2p1p0------|
D|-----0h1h2------2p1p0-----0h1h2------2p1p0-|
A|-4-4------------------5-5------------------|
E|-2-2------------------3-3------------------|
       "...to the promised land..."


Riff 11
e|---------------------------|
B|---------------------------|
G|---------------------------|
D|---------------------------|
A|-2------------3------------|
E|-0--0-0-0-0-0-1--1-1-1-1-1-|
      * * * * *    * * * * *
     "Ever lasting life..."
e|---------------------------|
B|---------------------------|
G|---------------------------|
D|---------------------------|
A|-4------------5------------|
E|-2--2-2-2-2-2-3--3-3-3-3-3-|
      * * * * *    * * * * *
     "...in a perfect world..."


Play Riff 11   Solo Rhythm

Solo (Mustaine)
e|-17b18r17-12h17p12--12--12------------------|
B|------------------15--15---15p12------12-17-|
G|--------------------------------14b16-------|
D|--------------------------------------------|
A|--------------------------------------------|
E|--------------------------------------------|

e|-------------------------------------------------|
B|-15p12h15p12-------------------12----------------|
G|-------------14-12-15p14p12-14----15p14p12h14p12-|
D|-------------------------------------------------|
A|-------------------------------------------------|
E|-------------------------------------------------|

e|------------------------------------------|
B|-------12h14p12---------------------------|
G|-14h15----------0-15-14-12-14-15-14-12~~~-|
D|------------------------------------------|
A|------------------------------------------|
E|------------------------------------------|

e|-----------------------------------------------------------|
B|-----------------------------------------------------------|
G|-----------------------------------------------------------|
D|-14-14-13-12-12-13-14-14-13-12--13-13-13-14--13--12--12b13-|
A|-----------------------------------------------------------|
E|-----------------------------------------------------------|

e|---------------------------------------------------12-------|
B|------------------------------------12-14p12-12-15----15p12-|
G|-----13--13-13-14-14p12----12-14h15-------------------------|
D|------------------------14----------------------------------|
A|-14---------------------------------------------------------|
E|------------------------------------------------------------|

e|-------------12h15p12-12----------12----------------12h15p12---|
B|----12-15b17-------------12h15-15----15p12----12-15----------0-|
G|-15----------------------------------------14------------------|
D|---------------------------------------------------------------|
A|---------------------------------------------------------------|
E|---------------------------------------------------------------|

e|-15-12-15-17-15p12----------12-12-15h17-------12-12-17b19~~~-|
B|-------------------15-12h15-------------12h15----------------|
G|-------------------------------------------------------------|
D|-------------------------------------------------------------|
A|-------------------------------------------------------------|
E|-------------------------------------------------------------|

End Solo



Riff 12
e|-------------------------------|
B|-------------------------------|
G|-------------------------------|
D|------------4---5--------------|
A|-2----------2---3--3-3-0-3-2-1-|
E|-0--0-0-0-0---0----------------|
      * * * *   *    * * * * * *
  "Time has a way..."
e|-------------------------------|
B|-------------------------------|
G|-------------------------------|
D|-2----------5---4--------------|
A|-0--0-0-0-0-3-0-2--2-2-2-5-6-7-|
E|-------------------------------|
      * * * *   *    * * * * * *
  "..time, loneliness..."
e|-------------------------------|
B|-------------------------------|
G|-------------------------------|
D|-9--------------5--------------|
A|-7--7-7-7-7-6-5-3--3-3-0-3-2-1-|
E|-------------------------------|
      * * * * * *    * * * * * *
  "...not only felt..."
e|-------------------------------|
B|-------------------------------|
G|-------------------------------|
D|-2----------5---4--------------|
A|-0--0-0-0-0-3-0-2--2-2-0-2-1-0-|
E|-------------------------------|
      * * * *   *    * * * * * *
  "...fools..."


Guitar fill over Riff 12 (Dave)
e|---------------------------------------------|
B|-15-------15-------15-------14\----14\--/15~-|
G|-14b16----14b16----14b16----14\----14\--/16~-|
D|---------------------------------------------|
A|---------------------------------------------|
E|---------------------------------------------|
   "...the pain, the pain, the pain..."

e|----------------------------------------------------|
B|-24d17r24*--23d19r23*-22d20r22*-19d17r19*-17d15r17*-|
G|----------------------------------------------------|
D|----------------------------------------------------|
A|----------------------------------------------------|
E|----------------------------------------------------|
   "...you just laughed, ha ha,..."

e|----------------------------------------|
B|-15d13r15-14d12r14*-12d10r12*--14d8r14*-|
G|----------------------------------------|
D|----------------------------------------|
A|----------------------------------------|
E|----------------------------------------|
   "...bitch..."



Riff 13 (Solo Rhythm)
e|-------------------------------|
B|-------------------------------|
G|-------------------------------|
D|-2--------------3--------------|
A|-0--0-0-0-0-0-0-1--0-0-0-0-0-0-|
E|-------------------------------|
      * * * * * *    * * * * * *
e|-------------------------------|
B|-------------------------------|
G|-------------------------------|
D|-5--------------10------9------|
A|-3--0-0-0-0-0-0--8--0-0-7--0-0-|
E|-------------------------------|
      * * * * * *     * *    * *

Solo (Young)
e|-----------------------------------------------------|
B|-----------------------------------------------------|
G|-----------------------------------------------------|
D|---------------------------------------5h6h7p6p5h6h7-|
A|---------------3h4h5p4p3/5h6h7p6-5-6-7---------------|
E|-3h4h5p4p3h4-5---------------------------------------|

e|-----------------------------------------------|
B|-----------5h6h7-8h9h10p9p8h9\6--8p5h6/8-10~~~-|
G|-5h6h7/9\7-------------------------------------|
D|-----------------------------------------------|
A|-----------------------------------------------|
E|-----------------------------------------------|

e|------------------17b19-19b20-20b22-22b24r22----------------|
B|-(10)p8/12h15~~~-----------------------[bend echos through]-|
G|---------------------------------------[    next bar      ]-|
D|------------------------------------------------------------|
A|------------------------------------------------------------|
E|------------------------------------------------------------|

e|------------------------------------------------------------------|
B|------------------------------------------------------------------|
G|------------------------------------------------------------------|
D|------------------------------------------------------------------|
A|-15-15-15-17-17-17-15-15-14-14-12-12-10-10-8-8-7-7-5-5-3----------|
E|---------------------------------------------------------7-3-3-5~-|
    *  *  *  *  *  *  *  *  *  *  *  *  *  * * * * * * * * * * *
e|--------------------------------------------------------------|
B|--------------------------------------------------------------|
G|-------------9-12p9----------9-12p9--------11-14p11-11-----12-|
D|-----10-9h10-------10-10-9h10------12-11-12-----------12-14---|
A|--------------------------------------------------------------|
E|-5/-----------------------------------------------------------|

e|-------------------------------------|
B|-------------------------------------|
G|-16p12-12-----12-16-17-14------17~~--|
D|---------14-14-----------15p14--a----|
A|-------------------------------------|
E|-------------------------------------|

e|----------------------------------------|
B|----------------------------------------|
G|----------------------------------------|
D|-15-15-14----------------14--15--14~~~~-|
A|-------------17--15--17-----------a-----|
E|----------------------------------------|
                *   *   *   *   *
e|---------------------------|
B|---------------------------|
G|-----------------9-9-12~~--|
D|---------9-10-12-----------|
A|-8-10-12-------------------|
E|---------------------------|

e|--------------------------------------|
B|--------------------------------------|
G|-------------------10-12-12p10--10-12-|
D|----------10-12-14------------14------|
A|-10-12-14-----------------------------|
E|--------------------------------------|

e|----------------14-15-17/20b22--20--19--17---------|
B|----12-13-16-17------------------a---a---a--20--17-|
G|-14------------------------------------------a---a-|
D|---------------------------------------------------|
A|---------------------------------------------------|
E|---------------------------------------------------|

e|--------------------------------------------------|
B|-20b22----(22)r20b24----(24)r20b25--(25)--(25)r20-|
G|--------------------------------------------------|
D|--------------------------------------------------|
A|--------------------------------------------------|
E|--------------------------------------------------|

e|---------------------21--(21)d17*----(17)d14*-|
B|-17--(17)d15*----------\----------------/-----|
G|------------------------\--------------/------|
D|-------------------------[steady gliss]-------|
A|----------------------------------------------|
E|----------------------------------------------|

End Solo

Solo (Mustaine) [Use pinch harmonics throughout]
e|-------------------------------------------------|
B|-------------------------------------------------|
G|-------------------------------------------5-----|
D|-7-6-5-------7-6-5-------7-6-5-------7-5-----7-5-|
A|-------7-6-5-------7-6-5-------7-6-5-----7-------|
E|-------------------------------------------------|

e|-------------------------------------------------|
B|-------------------------------------------------|
G|-------------------------------------------------|
D|-7-6-5-------7-6-5-------7-6-5-------------------|
A|-------7-6-5-------7-6-5-------7-6-5-----5-----5-|
E|-------------------------------------8-5---8-5---|

e|-------------------------------------------------|
B|-------------------------------------------------|
G|-------------------------------------------5-----|
D|-7-6-5-------7-6-5-------7-6-5-------7-5-----7-5-|
A|-------7-6-5-------7-6-5-------7-6-5-----7-------|
E|-------------------------------------------------|

e|-------------------------------------------------|
B|-------------------------------------------------|
G|-------------------------------------------------|
D|-7-6-5-------7-6-5-------7-6-5-------------------|
A|-------7-6-5-------7-6-5-------7-6-5-----5-----5-|
E|-------------------------------------8-5---8-5---|

End Solo


Play Riff 11   Play 2x

Riff 14
Guitar 1
e|---------------------------|
B|---------------------------|
G|---------------------------|
D|---------------------------|
A|-2------------3------------|
E|-0--0-0-0-0-0-1--1-1-1-1-1-|
      * * * * *    * * * * *
e|---------------------------|
B|---------------------------|
G|---------------------------|
D|---------------------------|
A|-4------------5------------|
E|-2--2-2-2-2-2-3--3-3-3-3-3-|
      * * * * *    * * * * *
e|---------------------------|
B|---------------------------|
G|---------------------------|
D|---------------------------|
A|-6------------7------------|
E|-4--4-4-4-4-4-5--5-5-5-5-5-|
      * * * * *    * * * * *
e|-----------------------------|
B|-----------------------------|
G|-----------------------------|
D|-----------------------------|
A|-8------------9--------------|
E|-6--6-6-6-6-6-7--7-7-5-7-3-5-|
      * * * * *    * * * * * *

Guitar 2
e|------0-0-0-0--------1-1-1-1--------2-2-2-2-|
B|------0-0-0-0--------1-1-1-1--------2-2-2-2-|
G|--------------------------------------------|
D|--------------------------------------------|
A|-2-------------3--------------4-------------|
E|-0--0----------1--1-----------2--2----------|
      *             *              *
e|------3-3-3-3--------4-4-4-4--------5-5-5-5-|
B|------3-3-3-3--------4-4-4-4--------5-5-5-5-|
G|--------------------------------------------|
D|--------------------------------------------|
A|-5-------------6--------------7-------------|
E|-3--3----------4--4-----------5--5----------|
      *             *              *
e|------6-6-6-6--------7-7-7-7-|
B|------6-6-6-6--------7-7-7-7-|
G|-----------------------------|
D|-----------------------------|
A|-8-------------9-------------|
E|-6--6----------7--7----------|
      *             *


Play Riff 1

Ending:
e|------------------------------------|
B|------------------------------------|
G|------------------------------------|
D|-9--------(9)--------(9)--------12\-|
A|-7--------(7)--------(7)--------10\-|
E|------------------------------------|

-----------------------------------------------

8.Angry Again
Band:Megadeth
Album:Hidden Treasures
Tuning:1/2 Step Down

Riff 1
Guitar 1
eb|-----------------------------------------|
Bb|-----------------------------------------|
Gb|-----------------------------------------|
Db|-0-1------4-5------8-9-------12-13-------|
Ab|-----2--------6--------10----------14----|
Eb|-------3--------7---------11----------15-|

Guitar 2
eb|------------------------------------------|
Bb|---------------------11-12------15-16-----|
Gb|-7-8------11-12-----------12---------16---|
Db|-----9---------13-----------13---------17-|
Ab|------10---------14-----------------------|
Eb|------------------------------------------|


Riff 2
eb|---------------------------------|
Bb|---------------------------------|
Gb|---------------------------------|
Db|-----2-----2---------------------|
Ab|---2-----3---3-2-2-----2---------|
Eb|-0-----0---------0-0-0-0-0-0-0-0-|
    *     *           * *   * * * *
eb|----------------------------------|
Bb|----------------------------------|
Gb|----------------------------------|
Db|-----2-----2----------------------|
Ab|---2-----3---3-2-2-----2---/4-3-2-|
Eb|-0-----0---------0-0-0-0-0-/5-4-3-|
    *     *           * *   *
eb|---------------------------|
Bb|---------------------------|
Gb|---------------------------|
Db|-----2-----2---------------|
Ab|---2-----3---3-2-2-----2---|
Eb|-0-----0---------0-0-0-0-0-|
    *     *           * *   *
eb|----------------------------------------|
Bb|----------------------------------------|
Gb|----------------------------------------|
Db|-----------------------7-------7--------|
Ab|-/4-3-2--/4-3-2--/4-3--5-------3------2-|
Eb|-/5-4-3--/5-4-3--/5-4------0-0----3b4-0-|
                              * *


Riff 2a
eb|---------------------------------|
Bb|---------------------------------|
Gb|---------------------------------|
Db|-----2-----2---------------------|
Ab|---2-----3---3-2-2-----2---------|
Eb|-0-----0---------0-0-0-0-0-0-0-0-|
    *     *           * *   * * * *
                   "The more of you that I inspect..."
eb|----------------------------------|
Bb|----------------------------------|
Gb|----------------------------------|
Db|-----2-----2----------------------|
Ab|---2-----3---3-2-2-----2---/4-3-2-|
Eb|-0-----0---------0-0-0-0-0-/5-4-3-|
    *     *           * *   *
                   "The more of me I see reflect..."
eb|---------------------------------|
Bb|---------------------------------|
Gb|---------------------------------|
Db|-----2-----2---------------------|
Ab|---2-----3---3-2-2-----2---------|
Eb|-0-----0---------0-0-0-0-0-0-0-0-|
    *     *           * *   * * * *
                   "The more I try to read your lips..."

eb|---------------------------------|
Bb|---------------------------------|
Gb|---------------------------------|
Db|-----2-----2---7-------7---------|
Ab|---2-----3---3-5-------3-------2-|
Eb|-0-----0-----------0-0----3b4--0-|
    *     *           * *
                  "The more the mask you're wearing rips..."


Play Riff 2   "But when I seek out your voice..."
Play Riff 1


Riff 3
eb|----------------------------------|
Bb|----------------------------------|
Gb|----------------------------------|
Db|-5---4-5----9-7-5-5-----2---4-4---|
Ab|-7---5-7---10-9-7-7-----3---5-5---|
Eb|---0-----0----------0-0---0-----0-|
      *     *          * *   *     *
   "Engaged in crime..."
eb|--------------------------------|
Bb|--------------------------------|
Gb|--------------------------------|
Db|-5---4-5----9\--2------4--------|
Ab|-7---5-7---10\--3------5--------|
Eb|---0-----0---------0-0----0-0-0-|
      *     *         * *    * * *
   "Enraged my mind..."
eb|----------------------------------|
Bb|----------------------------------|
Gb|----------------------------------|
Db|-5---4-5----9-7-5-5-----2---4-4---|
Ab|-7---5-7---10-9-7-7-----3---5-5---|
Eb|---0-----0----------0-0---0-----0-|
      *     *          * *   *     *
   "Enforce a mental..."
eb|----------------------------------------------|
Bb|----------------------------------------------|
Gb|----------------------------------------------|
Db|-5---4-5----9\--5------5------2------5--------|
Ab|-7---5-7---10\--3------2------0------2------2-|
Eb|---0-----0---------0-0----0-0----0-0----3b4-0-|
      *     *         * *    * *    * *
   "Angry again, angry again..."


Play Riff 2  "And when the story takes a twist..."
Play Riff 1
Play Riff 3  "Engaged in crime..."


Riff 4
eb|-----------------------------------------------|
Bb|-----------------------------------------------|
Gb|-----------------------------------------------|
Db|-----------------------------------------------|
Ab|-2-2-2---2-2-2---3-3-3---3-3-3---4-4-4---4-4-4-|
Eb|-0-0-0---0-0-0---1-1-1---1-1-1---2-2-2---2-2-2-|
    * * *   * * *   * * *   * * *   * * *   * * *
   "The searing of the sinew..."
eb|-----------------------------------------------|
Bb|-----------------------------------------------|
Gb|-----------------------------------------------|
Db|-----------------------------------------------|
Ab|-5-5-5---5-5-5---6-6-6---6-6-6---7-7-7---7-7-7-|
Eb|-3-3-3---3-3-3---4-4-4---4-4-4---5-5-5---5-5-5-|
    * * *   * * *   * * *   * * *   * * *   * * *
   "...lungs begin to tear..."

eb|----------------------------|
Bb|----------------------------|
Gb|----------------------------|
Db|-------------7-------7------|
Ab|-8-8-8---8-8-5-------3------|
Eb|-6-6-6---6-6-----0-0----3-0-|
    * * *   * *     * *
    "...I make out my sweaty face..."


Riff 5 (Solo Rhythm)
eb|------------------------------|
Bb|------------------------------|
Gb|------------------------------|
Db|-9-------------9-------7------|
Ab|-7-------------5-------3------|
Eb|-----0-0-0-0-0-----0-0----3-0-|
        * * * * *     * *

Riff 6 (Solo Rhythm)
eb|----------------------------------|
Bb|----------------------------------|
Gb|----------------------------------|
Db|------2-----2-----0-1-------------|
Ab|-2--2-----3---3-2-----2-----------|
Eb|-0------0---------------3-2-1-2-3-|
           *                 * * * *
eb|----------------------------------|
Bb|----------------------------------|
Gb|----------------------------------|
Db|-----2-----2-----0-1------4-5-----|
Ab|---2-----3---3-2-----2--------6---|
Eb|-0-----0---------------3--------7-|
          *
eb|----------------------------------|
Bb|----------------------------------|
Gb|----------------------------------|
Db|------4-----4-----2-3-------------|
Ab|-4--4-----5---5-4-----4-----------|
Eb|-2------2---------------5-4-3-4-5-|
           *                 * * * *
eb|----------------------------------|
Bb|----------------------------------|
Gb|----------------------------------|
Db|------4-----4-----2-3-------------|
Ab|-4--4-----5---5-4-----4-----------|
Eb|-2------2---------------5-4-3-2-1-|
           *                 * * * *

Solo (Friedman)
eb|---------------------------------------------|
Bb|---------------------------------------------|
Gb|------------------------------/16-14--12-11~-|
Db|-9--/14\--9-9b10~~----9--/14-----------------|
Ab|---------------------------------------------|
Eb|---------------------------------------------|

eb|--------------------0-7-12-0-7-12-0-7-10-|
Bb|-------------0-8-12----------------------|
Gb|-7-7--0-9-12-----------------------------|
Db|-----------------------------------------|
Ab|-----------------------------------------|
Eb|-----------------------------------------|

eb|-0-7-10-0-10-14-0-12-14-15-14h15p14p12-14-12--12---|
Bb|--------------------------------------------15--15-|
Gb|---------------------------------------------------|
Db|---------------------------------------------------|
Ab|---------------------------------------------------|
Eb|---------------------------------------------------|

eb|----------------------|
Bb|-15b17r15-12-15-12~~--|
Gb|----------------------|
Db|----------------------|
Ab|----------------------|
Eb|----------------------|

eb|----12-12h17p12---------------------------|
Bb|-15------------15p12--12---------------14-|
Gb|--------------------14--14b16r14-12----14-|
Db|------------------------------------14----|
Ab|------------------------------------------|
Eb|------------------------------------------|

eb|-----------------------------|
Bb|-----------------------------|
Gb|-12-14-12--(12)b13r12b13r12\-|
Db|-----------------------------|
Ab|-----------------------------|
Eb|-----------------------------|

eb|----------------------------------------------------|
Bb|----------------------------------------------------|
Gb|-3b4r3b4-3b4-3b4-3b4-{3}{3}{3}{3}{3}{3}{3}{3}{3}{3}-|
Db|----------------------------------------------------|
Ab|----------------------------------------------------|
Eb|----------------------------------------------------|

eb|----------------------------------------------|
Bb|----------------------------------------------|
Gb|-3h4p3p0------4-----4-------------------------|
Db|---------2--5---2-5---5-2--6-7------9-10------|
Ab|-------------------------------9-6-------12-9-|
Eb|----------------------------------------------|

eb|--------------------------------------|
Bb|--------------------------------------|
Gb|---------------------------/4b5r4b5~~-|
Db|-4/7-7-7-7-7-7/9-9-9-9-9\-------------|
Ab|--------------------------------------|
Eb|--------------------------------------|

eb|------------------------------17b19-17b19r17b19r17b19r17-|
Bb|---------------------16h17p14----------------------------|
Gb|-4-4-4/14-14-14-16~~-------------------------------------|
Db|---------------------------------------------------------|
Ab|---------------------------------------------------------|
Eb|---------------------------------------------------------|

eb|-19h20p19p17-19p17--------------17-19-|
Bb|------------------20-19-17-19-20------|
Gb|--------------------------------------|
Db|--------------------------------------|
Ab|--------------------------------------|
Eb|--------------------------------------|

eb|-22b24-22b24-22b24~~~\-|
Bb|-----------------------|
Gb|-----------------------|
Db|-----------------------|
Ab|-----------------------|
Eb|-----------------------|

End solo


Play Riff 2a   "Association that I choose..."
Play Riff 2    "A cut-out cardboard condo maze..."
Play Riff 1


Riff 3a
Guitar 1
eb|----------------------------------|
Bb|----------------------------------|
Gb|----------------------------------|
Db|-5---4-5----9-7-5-5-----2---4-4---|
Ab|-7---5-7---10-9-7-7-----3---5-5---|
Eb|---0-----0----------0-0---0-----0-|
      *     *          * *   *     *
   "Engaged in crime..."
eb|--------------------------------|
Bb|--------------------------------|
Gb|--------------------------------|
Db|-5---4-5----9\--2------4--------|
Ab|-7---5-7---10\--3------5--------|
Eb|---0-----0---------0-0----0-0-0-|
      *     *         * *    * * *
   "Enraged my mind..."
eb|----------------------------------|
Bb|----------------------------------|
Gb|----------------------------------|
Db|-5---4-5----9-7-5-5-----2---4-4---|
Ab|-7---5-7---10-9-7-7-----3---5-5---|
Eb|---0-----0----------0-0---0-----0-|
      *     *          * *   *     *
   "Enforce a mental..."
eb|--------------------------------------------|
Bb|--------------------------------------------|
Gb|--------------------------------------------|
Db|-5---4-5----9\--5------5------2------5------|
Ab|-7---5-7---10\--3------2------0------2------|
Eb|---0-----0---------0-0----0-0----0-0----3-0-|
      *     *         * *    * *    * *
   "Angry again, angry again..."
eb|-----------------------------|
Bb|-----------------------------|
Gb|-----------------------------|
Db|-5------5------2------5------|
Ab|-3------2------0------2------|
Eb|----0-0----0-0----0-0----3-0-|
       * *    * *    * *
       "...and again and again, again..."
eb|------------------------------------|
Bb|------------------------------------|
Gb|------------------------------------|
Db|-5-5---4-5----9-7-5-5-----2---4-4---|
Ab|-7-7---5-7---10-9-7-7-----3---5-5---|
Eb|-----0-----0----------0-0---0-----0-|
        *     *          * *   *     *
   "Engaged in crime..."
eb|--------------------------------|
Bb|--------------------------------|
Gb|--------------------------------|
Db|-5---4-5----9\--2------4--------|
Ab|-7---5-7---10\--3------5--------|
Eb|---0-----0---------0-0----0-0-0-|
      *     *         * *    * * *
   "Enraged my mind..."
eb|----------------------------------|
Bb|----------------------------------|
Gb|----------------------------------|
Db|-5---4-5----9-7-5-5-----2---4-4---|
Ab|-7---5-7---10-9-7-7-----3---5-5---|
Eb|---0-----0----------0-0---0-----0-|
      *     *          * *   *     *
   "Enforce a mental..."
eb|--------------------------------------------|
Bb|--------------------------------------------|
Gb|--------------------------------------------|
Db|-5---4-5----9\--5------5------2------5------|
Ab|-7---5-7---10\--3------2------0------2------|
Eb|---0-----0---------0-0----0-0----0-0----3b4-|
      *     *         * *    * *    * *
   "Angry again..."


Ending
Guitar 1
eb|----------------------------------------|
Bb|----------------------------------------|
Gb|----------------------------------------|
Db|-0-1------4-5------8-9------------------|
Ab|-----2--------6--------10-------------2-|
Eb|-------3--------7---------11--2-1-2-3-0-|
                                 * * * *
Guitar 2
eb|-----------------------------------------|
Bb|--------------------11-12----------------|
Gb|-7-8------11-12----------12--------------|
Db|-----9---------13----------13------------|
Ab|------10---------14--------------------2-|
Eb|-------------------------------2-1-2-3-0-|
                                  * * * *

----------------------------------------------------

9.Of Mice And Men
Band:Megadeth
Album:System Has Failed
Tuning:Standard

Riff 1
e|-----------------------------|
B|-----------------------------|
G|-----------------------------|
D|----------------------7-7-7--|
A|-----4-4-4------------5-5-5--|
E|-0-0-2-2-2--------0-0--------|
   * * * *          * * * *
e|---------------------------------|
B|---------------------------------|
G|---------------------------------|
D|-----4-4-4-----------------------|
A|-5-5-2-2-2----2-0-2-3-2-0-4-4-4--|
E|--------------------------2-2-2--|
   * * * *      * * * * * * * *



Riff 2
Guitar 1
e|---------------------------------|
B|---------------------------------|
G|---------------------------------|
D|-4---4-3-2---4---4-3-2---4-3-2---|
A|---4-------4---4-------4-------4-|
E|---------------------------------|
     *       *   *       *       *

Guitar 2
e|-------------------------------------------|
B|--------------------------------12---------|
G|-11b12r11\9/11~--------11b12r11----11b12~~-|
D|-------------------------------------------|
A|-------------------------------------------|
E|-------------------------------------------|

e|-------------------------------|
B|------------10b12-[long hold]--|
G|-11b12r11\9--------------------|
D|-------------------------------|
A|-------------------------------|
E|-------------------------------|




Riff 3
Guitar 1                            x3
e|-----------------------------------|
B|-----------------------------------|
G|-----------------------------------|
D|-------------------2---4-2---------|
A|-----2h3p2---2-3-4---4-----4-3-2---|
E|-2-5-------5---------------------5-|
             *
e|-----------------------------------|
B|-----------------------------------|
G|---------------------------2---4-2-|
D|-------------------2---4-2---4-----|
A|-----2h3p2---2-3-4---4-------------|
E|-2-5-------5-----------------------|
             *

Guitar 2                      x2
e|-----------------------------|
B|-----------------------------|
G|-----------------------------|
D|-11~----12~----13~----11~----|
A|-----------------------------|
E|-----------------------------|

e|-----------|
B|-----------|
G|-----------|
D|-----------|
A|------9~~--|
E|-X\\-------|



Riff 1a
e|-------------------------|
B|-------------------------|
G|-------------------------|
D|------------------7-7-7--|
A|---4-4------------5-5-5--|
E|-0-2-2--------0-0--------|
   * *          * * * *
   "At 25 I was surprised..."
e|---------------------------------|
B|---------------------------------|
G|---------------------------------|
D|-----4-4-4-----------------------|
A|-5-5-2-2-2----2-0-2-3-2-0-4-4-4--|
E|--------------------------2-2-2--|
   * * * *      * * * * * * * *
   "...half alive..."


Play Riff 1
Play Riff 2


Riff 3a
Guitar 1                            x3
e|-----------------------------------|
B|-----------------------------------|
G|-----------------------------------|
D|-------------------2---4-2---------|
A|-----2h3p2---2-3-4---4-----4-3-2---|
E|-2-5-------5---------------------5-|
             *
e|---------------------------------|
B|---------------------------------|
G|---------------------------2---4-|
D|-------------------2---4-2---4---|
A|-----2h3p2---2-3-4---4-----------|
E|-2-5-------5---------------------|
             *

Guitar 2                      x2
e|-----------------------------|
B|-----------------------------|
G|-----------------------------|
D|-11~----12~----13~----11~----|
A|-----------------------------|
E|-----------------------------|

Guitar 3 (Comes in the second time)
e|-----------------------------|
B|-14~----15~----16~-----------|
G|-----------------------------|
D|----------------------11~----|
A|-----------------------------|
E|-----------------------------|



Riff 4 (Solo Rhythm)             x3
e|--------------------------------|
B|--------------------------------|
G|--------------------------------|
D|------4-3-2---2-----------------|
A|------------4---4-3-2---2-------|
E|-2--2-----------------5---5-4-3-|

e|--------------------------------|
B|--------------------------------|
G|----------------------7---5---3-|
D|------4-3-2---2---2-7---5---3---|
A|------------4---4---------------|
E|-2--2---------------------------|


Solo (Mustaine)
e|----------------------------------------------|
B|----------------------------------------------|
G|-16b18~~--17p16p14----14h16-17p16p14----14h16-|
D|-------------------16----------------16-------|
A|----------------------------------------------|
E|----------------------------------------------|

e|----------------------------------------|
B|----------------10-9~------------(9)/15-|
G|----14\--9-9/11-------------------------|
D|-12-------------------------------------|
A|----------------------------------------|
E|----------------------------------------|

e|-22-21-19-21-19\17-21-19-17-19-17-|
B|----------------------------------|
G|----------------------------------|
D|----------------------------------|
A|----------------------------------|
E|----------------------------------|

e|-21p19p17-19p17p16-17p16----16----------------|
B|-------------------------19----19p17-19p17p15-|
G|----------------------------------------------|
D|----------------------------------------------|
A|----------------------------------------------|
E|----------------------------------------------|

e|----------16h17h19----------17h19h21------|
B|-15h17h19----------17h19h21----------19~--|
G|------------------------------------------|
D|------------------------------------------|
A|------------------------------------------|
E|------------------------------------------|

End Solo


Riff 3b (Play 3x)
Guitar 1                            x3
e|-----------------------------------|
B|-----------------------------------|
G|-----------------------------------|
D|-------------------2---4-2---------|
A|-----2h3p2---2-3-4---4-----4-3-2---|
E|-2-5-------5---------------------5-|
             *
e|-----------------------------------|
B|-----------------------------------|
G|---------------------------2---4-2-|
D|-------------------2---4-2---4-----|
A|-----2h3p2---2-3-4---4-------------|
E|-2-5-------5-----------------------|
             *


Guitar 2
e|-----------------------------|
B|-----------------------------|
G|-----------------------------|
D|-11~----12~----13~----11~----|
A|-----------------------------|
E|-----------------------------|

Guitar 3 (Comes in the second time)
e|----------------------19b21--17b19~----17b19-17--|
B|-14~----15~----16~-------------------------------|
G|-------------------------------------------------|
D|-------------------------------------------------|
A|-------------------------------------------------|
E|-------------------------------------------------|

e|----------------------19b21-19b21--17b19~----17b19r17~~\-|
B|-14~----15~----16~---------------------------------------|
G|---------------------------------------------------------|
D|---------------------------------------------------------|
A|---------------------------------------------------------|
E|---------------------------------------------------------|



Ending:
Guitar 1                            x3
e|-----------------------------------|
B|-----------------------------------|
G|-----------------------------------|
D|-------------------2---4-2---------|
A|-----2h3p2---2-3-4---4-----4-3-2---|
E|-2-5-------5---------------------5-|
             *
e|----------------------------------|
B|----------------------------------|
G|----------------------------------|
D|----------------------------------|
A|-----2h3p2---2-3-4-4--2--------4--|
E|-2-5-------5-------2--0--------2--|
             *

Guitar 2
e|-----------------------------|
B|-----------------------------|
G|-----------------------------|
D|-11~----12~----13~----11~----|
A|-----------------------------|
E|-----------------------------|

Guitar 3
e|----------------------------------|
B|---/14-14-14-15~----15-15-15-16~--|
G|----------------------------------|
D|----------------------------------|
A|----------------------------------|
E|----------------------------------|

e|--------------------------------------------|
B|-17b19-17-----------------------------------|
G|----------16b18-16~--(16)b18---(18)r16p14---|
D|-----------------------------------------14-|
A|--------------------------------------------|
E|--------------------------------------------|

e|-14--------------------------------|
B|---17p14---------------------------|
G|--------16b18r16p14----------------|
D|-------------------16\14~----(14)\-|
A|-----------------------------------|
E|-----------------------------------|

-----------------------------------------------

10.A Tout Le Monde
Band:Megadeth
Album:Youthanasia
Tuning:1/2 Step Down

Riff 1 (Clean)
eb|----------------------------------|
Bb|----------------------------------|
Gb|-----2-----2----------2-----2-----|
Db|----------------------------------|
Ab|---4-----4-----4----4-----4-----4-|
Eb|-2-----2-----2----0-----0-----0---|
   "Don't remember..."
eb|----------------------------------|
Bb|----------------------------------|
Gb|-----2-----2----------2-------2---|
Db|---4-----4---4------0-------2-----|
Ab|-2-----2------------------0-------|
Eb|----------------2h3-----3-------3-|
  "...realized life was a game..."


Riff 2 (Distortion)
eb|----------------------------------|
Bb|----------------------------------|
Gb|----------2------2h4----2-4-------|
Db|-4----2-4-2----2-2h4----2-4-2--4--|
Ab|-4----2-4------2------------2--4--|
Eb|----------------------------------|
         * *      *        *   *
   "So as you read.."
eb|------------------------------|
Bb|------------------------------|
Gb|------------2------4----2-4-2-|
Db|---4----2-4-2----2-4----2-4-2-|
Ab|---4----2-4------2------------|
Eb|-0----------------------------|
    *      * *      *      *   *
   "Please smile when you..."
eb|---------------------------------|
Bb|---------------------------------|
Gb|-7-7-7-7-7-7-7-7-7-7-7-7-7-7-7-7-|
Db|-7-7-7-7-7-7-7-7-7-7-7-7-7-7-7-7-|
Ab|---------------------------------|
Eb|---------------------------------|
   "..all..."


Riff 3
Guitar 1 (Distortion)
eb|------------------------------|
Bb|------------------------------|
Gb|------------------------------|
Db|---------------4--------------|
Ab|-4----4-2------2----7\-4----4-|
Eb|-2----2-0----0------5\-2----2-|
         *      *              *
  "A tout le monde, a tout mes amis..."
eb|-------------------------|
Bb|-------------------------|
Gb|-------------------------|
Db|-2------6----6-4----4--7-|
Ab|-0----0-4----4-2----2--5-|
Eb|-----------------------5-|
         *      *      *
  "These are the..., I'll ever speak..."


Guitar 2 (Clean)
eb|------9------9-------7-----7-|
Bb|---10---10---------9---9-----|
Gb|-9---------9-----9-------9---|
Db|-----------------------------|
Ab|-----------------------------|
Eb|-----------------------------|
  "A tout le monde, a tout mes amis..."

eb|-----7-----7-------5-----5-|
Bb|---7---7---------7---7-----|
Gb|-8-------8-----6-------6---|
Db|---------------------------|
Ab|---------------------------|
Eb|---------------------------|
  "Je vous aime, je dois partir..."

eb|-----5-----5-------4-----4-|
Bb|---5---5---------5---5-----|
Gb|-6-------6-----6-------6---|
Db|---------------------------|
Ab|---------------------------|
Eb|---------------------------|
  "These are the..., I'll ever speak..."

eb|-----2-----2--0----|
Bb|---2---2------3----|
Gb|-4-------4----2----|
Db|-------------------|
Ab|-------------------|
Eb|-------------------|
  "...and they'll set me free..."



Riff 1a
Guitar 1 (Clean)
eb|------------------------------------|
Bb|------------------------------------|
Gb|-----2-----2-----------2------2-----|
Db|------------------------------------|
Ab|---4-----4-----4----4------4------4-|
Eb|-2-----2-----2----0------0------0---|
   "If my heart..."
eb|--------------------------------------|
Bb|--------------------------------------|
Gb|------2------2----------2--------2----|
Db|----4------4---4------0--------2------|
Ab|--2------2-------------------0--------|
Eb|------------------2h3------3-------3--|
  "I know it would surely break..."

Guitar 2 (Distortion)
eb|----------------------------------|
Bb|----------------------------------|
Gb|-----2-----2----------2-----2-----|
Db|----------------------------------|
Ab|---4-----4-----4----4-----4-----4-|
Eb|-2-----2-----2----0-----0-----0---|
    * *   * *   *    * *   * *   *
eb|----------------------------------|
Bb|----------------------------------|
Gb|-----2-----2----------2-------2---|
Db|---4-----4---4------0-------2-----|
Ab|-2-----2------------------0-------|
Eb|----------------2-3-----3-------3-|
    * *   * *   *  * * *   * * *   *

Guitar 3 (Distortion)
eb|---------------------------------|
Bb|---------------------------------|
Gb|---------------------------------|
Db|---------------------------------|
Ab|-4-4-4-4-4-4-4-4-2-2-2-2-2-2-2-2-|
Eb|-2-2-2-2-2-2-2-2-0-0-0-0-0-0-0-0-|
    * * * * * * * * * * * * * * * *
eb|-----------------------------------|
Bb|-----------------------------------|
Gb|-----------------------------------|
Db|-4-4-4-4-4-4-4---------------------|
Ab|-2-2-2-2-2-2-2-4-5-----5-7-----5-4-|
Eb|---------------2-3-3-3-3-5-5-5-3-2-|
    * * * * * * *     * *     * *
eb|-------------------------------|
Bb|-------------------------------|
Gb|-------------------------------|
Db|-------------------------------|
Ab|-4-4-4-4-4-4-4-2-2-2-2-2-2-2-2-|
Eb|-2-2-2-2-2-2-2-0-0-0-0-0-0-0-0-|
    * * * * * * * * * * * * * * *
eb|---------------------------------|
Bb|---------------------------------|
Gb|---------------------------------|
Db|-4-4-4-4-4-4-4-------------------|
Ab|-2-2-2-2-2-2-2-4-5-----5-7-----5-|
Eb|---------------2-3-3-3-3-5-5-5-3-|
    * * * * * * *     * *     * *



Play Riff 2  "Moving on..."
Play Riff 3  "A tout le monde..."


Riff 4 (Solo Rhythm)
eb|-----------------------------------|
Bb|-----------------------------------|
Gb|-----------------------------------|
Db|-------------4---------------------|
Ab|-4-----2-----2-----4-5----5-7----5-|
Eb|-2-----0-----------2-3----3-5----3-|

eb|-----------------------------------|
Bb|-----------------------------------|
Gb|-----------------------------------|
Db|-------------4---------------------|
Ab|-4-----2-----2-----4-5----5-7----7-|
Eb|-2-----0-----------2-3----3-5----5-|


Solo (Friedman)
eb|-----------------------------------|
Bb|-----------------------------------|
Gb|-11h14--11\9--9h11-----------------|
Db|-------------------9/11~----11\9-7-|
Ab|-----------------------------------|
Eb|-----------------------------------|

eb|----------------------------------------|
Bb|----------------------------------------|
Gb|----6-----------------------------------|
Db|-9-----------------------------------4--|
Ab|-------9------7--9-9---9-9-7\4-4h5-5----|
Eb|----------7h9---------------------------|

eb|-------------------------------------------|
Bb|-------------------------------------------|
Gb|----/6-4~~---------------------------------|
Db|--4-------------7-9^-7-9~~--7-9^-7-9---7~\-|
Ab|------------/9-----------------------9-----|
Eb|-------------------------------------------|

eb|-----------------------------------12-------------|
Bb|-----10-10-10-10----10-10-10-11b12---[11]12r11-10-|
Gb|-/11-11-11-11-11-11----11-------------------------|
Db|--------------------------------------------------|
Ab|--------------------------------------------------|
Eb|--------------------------------------------------|

eb|-------------------|
Bb|-9h10p9------------|
Gb|--------11-9-------|
Db|-------------12~~\-|
Ab|-------------------|
Eb|-------------------|

eb|---------------------------|
Bb|---------------------------|
Gb|--/12-12-12/14--12--(12)\--|
Db|--/11-11-11/13--11--(11)\--|
Ab|---------------------------|
Eb|---------------------------|

eb|---------7-10-----7--10/12-9----------------9-12-11~~-|
Bb|-------8--------8------------10----------10-----------|
Gb|-----7--------7-----------------9------9--------------|
Db|-4/9---------------------------------11---------------|
Ab|-----------------------------------12-----------------|
Eb|------------------------------------------------------|

End solo


Riff 5
eb|---------------------------------|
Bb|---------------------------------|
Gb|----------4------4h6----4-6------|
Db|-6----4-6-4----4-4h6----4-6-4--6-|
Ab|-6----4-6------4------------4--6-|
Eb|---------------------------------|
         * *      *        *   *
   "So as you read.."
eb|--------------------------------|
Bb|--------------------------------|
Gb|------------4------4h6----4-6-4-|
Db|-4-6----4-6-4----4-4h6----4-6-4-|
Ab|-4-6----4-6------4--------------|
Eb|--------------------------------|
    *      * *      *        *   *
   "Please smile..."
eb|---------------------------------|
Bb|---------------------------------|
Gb|-9-9-9-9-9-9-9-9-9-9-9-9-9-9-9-9-|
Db|-9-9-9-9-9-9-9-9-9-9-9-9-9-9-9-9-|
Ab|---------------------------------|
Eb|---------------------------------|
   "...all..."


Play Riff 3   "A tout le monde..."


Riff 4a (Solo Rhythm)
eb|-----------------------------------|
Bb|-----------------------------------|
Gb|-----------------------------------|
Db|-------------4---------------------|
Ab|-4-----2-----2-----4-5----5-7----5-|
Eb|-2-----0-----------2-3----3-5----3-|

eb|-------------------|
Bb|-------------------|
Gb|-------------------|
Db|-------------4-----|
Ab|-4-----2-----2-----|
Eb|-2-----0-----------|


Solo
Guitar 1
eb|--------------------------------------------------|
Bb|--------------------------------------------------|
Gb|-14-13--14----14-13--14-11~------14-13~--11-------|
Db|-----------11------------------14-----------14-11-|
Ab|-----------------------------14-------------------|
Eb|--------------------------------------------------|

eb|---------------------------------------------------|
Bb|---------------------------------------------------|
Gb|-16-14--16----16-14--16-11~------12-16--14--12--11-|
Db|-----------12------------------12------------------|
Ab|-----------------------------14--------------------|
Eb|---------------------------------------------------|

eb|--------------------------------------------------|
Bb|--------------------------------------------------|
Gb|-14-13--14----14-13--14-11~------14-13~--11-------|
Db|-----------11------------------14-----------14-11-|
Ab|-----------------------------14-------------------|
Eb|--------------------------------------------------|

eb|----------------------------|
Bb|----------------------------|
Gb|-16-14--16----16-14--16-11~-|
Db|-----------12---------------|
Ab|----------------------------|
Eb|----------------------------|

eb|-------------------------------|
Bb|-------------------------------|
Gb|-7-6---------------------------|
Db|------7-6----------------------|
Ab|-----------7-5-----------------|
Eb|----------------7-5--4-5-7\--2-|

Guitar 2
eb|----------------------------------------------------|
Bb|-14-12--14----14-12--14--/14~------14-12~-----------|
Gb|-----------11--------------------13--------14-13----|
Db|-------------------------------14----------------14-|
Ab|----------------------------------------------------|
Eb|----------------------------------------------------|

eb|----------------------------------------------------|
Bb|-15-14--15----15-14--15--/15~------12-15~--14-12-10-|
Gb|-----------11--------------------12-----------------|
Db|-------------------------------12-------------------|
Ab|----------------------------------------------------|
Eb|----------------------------------------------------|

eb|----------------------------------------------------|
Bb|-14-12--14----14-12--14--/14~------14-12~-----------|
Gb|-----------11--------------------13--------14-13----|
Db|-------------------------------14----------------14-|
Ab|----------------------------------------------------|
Eb|----------------------------------------------------|

eb|------------------------------|
Bb|-15-14--15----15-14--15--/15~-|
Gb|-----------11-----------------|
Db|------------------------------|
Ab|------------------------------|
Eb|------------------------------|

eb|------------------------------------------|
Bb|-15-14------------------------------------|
Gb|--------14-13-----------------------------|
Db|---------------14-12----------------------|
Ab|----------------------14-12--11-12-14\--9-|
Eb|------------------------------------------|

End solo

Play Riff 1

Ending:
Guitar 1 (clean)
eb|-------------------------------------2----|
Bb|-------------------------------------2----|
Gb|-------------------------------------2----|
Db|------0---0------------0---0---------4----|
Ab|----4---4---4---4----4---4---4---4---4----|
Eb|--2-----------2----2-----------2-----2----|

Guitar 2 (distortion)
eb|------------------------------------------|
Bb|-------------------------------------6b7~-|
Gb|------------------------------------------|
Db|------------------------------------------|
Ab|------------------------------------------|
Eb|------------------------------------------|

----------------------------------------------------

11.Die Dead Enough
Band:Megadeth
Album:System Has Failed
Tuning:Standard

Riff 1 (Solo Rhythm)
e|-2-----2-3-----3-4-----4-3-----3-|
B|---3-------3-------3-------3-----|
G|-----4-------4-------4-------4---|
D|---------------------------------|
A|---------------------------------|
E|---------------------------------|

e|-2-----2-3-----------------------|
B|---3-------3---3-----3---5p3-----|
G|-----4-------4---0-4---4-----4-0-|
D|---------------------------------|
A|---------------------------------|
E|---------------------------------|

Repeat above until orchestra comes in, then
before the verse guitar picks up with this:
e|-----------------------------------|
B|-----------------------------------|
G|-----------------------------------|
D|-------0---2-0---------------------|
A|-----2---2-----2-----------0-1-2---|
E|-2-3-------------3-2-2-2-2-------3-|
   * * * * * * * * * * * * *


Solo (Poland)
e|--------------------------------|
B|--------------------------------|
G|-16~*-------16~*----18-19-18~*--|
D|--------------------------------|
A|--------------------------------|
E|--------------------------------|

e|--------------------------------------|
B|-15-17-15~*---17-19-17~*---19-20-19~*-|
G|--------------------------------------|
D|--------------------------------------|
A|--------------------------------------|
E|--------------------------------------|

e|-------------------------------------------------|
B|-19h20-19-17-------------------------------------|
G|-------------19~----(19)d16*--[fades out diving]-|
D|-------------------------------------------------|
A|-------------------------------------------------|
E|-------------------------------------------------|

e|------------------|
B|------------------|
G|-4tm//12tm//19tm--|
D|-4tm//12tm//19tm--|
A|------------------|
E|------------------|

e|----------------------------------------------|
B|----------------------------------------------|
G|-16t10-16t10p9p7h10h11p10p9p7h10h11p10p9p7h10-|
D|----------------------------------------------|
A|----------------------------------------------|
E|----------------------------------------------|

e|--------------------|
B|--------------------|
G|-16t11p10p9p7h10h11-|
D|--------------------|
A|--------------------|
E|--------------------|

e|-------------------------|
B|-------------------------|
G|-9b11r9p7----------------|
D|----------9-7------------|
A|-------------------------|
E|--------------7-7--(7)d*-|

End Solo



Riff 2
e|---------------------------------|
B|---------------------------------|
G|---------------------------------|
D|---------------------------------|
A|---------0-1-2-----------0-1-2---|
E|-0-0-0-0-------3-0-0-0-0-------3-|
   * * * *         * * * *
   "It's twilight and..."


Riff 3
Guitar 1
e|--------------------------------|
B|--------------------------------|
G|--------------------------------|
D|---4---4h5--4------4---4h5--4---|
A|-2---2--------2-0----0--------0-|
E|--------------------------------|
   "Oh, I can't punch hard enough..."
e|---------------------------------|
B|---------------------------------|
G|---------------------------------|
D|----4---4h5--4------4---4h5--4---|
A|---------------------------------|
E|-3----3--------3-0----0--------0-|
   "...I can't kick high enough..."
e|---------------------------------|
B|---------------------------------|
G|---------------------------------|
D|----4---4h5--4------4---4h5--4---|
A|-2----2--------2-0----0--------0-|
E|---------------------------------|
   "...I can't shoot straight..."
e|---------------------------------|
B|---------------------------------|
G|---------------------------------|
D|----4---4h5-4--------------------|
A|----------------2----------------|
E|-3----3-------3-0--0-0-0-0-0-0-0-|
                     * * * * * * *
   "...I can't hold on enough..."
e|--------------------------------|
B|--------------------------------|
G|--------------------------------|
D|---4---4h5--4------4---4h5--4---|
A|-2---2--------2-0----0--------0-|
E|--------------------------------|
   "Oh, I can't stay down..."
e|---------------------------------|
B|---------------------------------|
G|---------------------------------|
D|----4---4h5--4------4---4h5--4---|
A|---------------------------------|
E|-3----3--------3-0----0--------0-|
   "...I can't take pain enough..."
e|---------------------------------|
B|---------------------------------|
G|---------------------------------|
D|----4---4h5--4------4---4h5--4---|
A|-2----2--------2-0----0----------|
E|-------------------------------0-|
   "...I can't bleed fast..."
e|-------------------------------------------------|
B|-------------------------------------------------|
G|-------------------------------------------------|
D|------4---5--------------------------------------|
A|-5----5---5-----5----------------5-5-5-5-0-1-2---|
E|-3--3-3-3-3-0-2-3--3-3-3-3-3-3-3-3-3-3-3-------3-|
              * *    * * * * * * * * * * *
   "...can't die dead enough!"


Guitar 2
e|---------------------------|
B|---------------------------|
G|-11--11/12--11--11\9--9-9~-|
D|---------------------------|  ----|
A|---------------------------|      |
E|---------------------------|      |
                                    |--> Play 3x
e|-----------------------------|    |
B|-----------------------------|    |
G|-12--14--12--14\12--12--11\9-| ---|
D|-----------------------------|
A|-----------------------------|
E|-----------------------------|

e|---------------------------|
B|---------------------------|
G|-11--11/12--11--11\9--9-9~-|
D|---------------------------|
A|---------------------------|
E|---------------------------|



Play Riff 2   "The air is thick..."


Riff 3a
Guitar 1
e|--------------------------------|
B|--------------------------------|
G|--------------------------------|
D|---4---4h5--4------4---4h5--4---|
A|-2---2--------2-0----0--------0-|
E|--------------------------------|
   "Oh, I can't punch hard enough..."
e|---------------------------------|
B|---------------------------------|
G|---------------------------------|
D|----4---4h5--4------4---4h5--4---|
A|---------------------------------|
E|-3----3--------3-0----0--------0-|
   "...I can't kick high enough..."
e|---------------------------------|
B|---------------------------------|
G|---------------------------------|
D|----4---4h5--4------4---4h5--4---|
A|-2----2--------2-0----0--------0-|
E|---------------------------------|
   "...I can't shoot straight..."
e|---------------------------------|
B|---------------------------------|
G|---------------------------------|
D|----4---4h5-4--------------------|
A|----------------2----------------|
E|-3----3-------3-0--0-0-0-0-0-0-0-|
                     * * * * * * *
   "...I can't hold on enough..."
e|--------------------------------|
B|--------------------------------|
G|--------------------------------|
D|---4---4h5--4------4---4h5--4---|
A|-2---2--------2-0----0--------0-|
E|--------------------------------|
   "Oh, I can't stay down..."
e|---------------------------------|
B|---------------------------------|
G|---------------------------------|
D|----4---4h5--4------4---4h5--4---|
A|---------------------------------|
E|-3----3--------3-0----0--------0-|
   "...I can't take pain enough..."
e|---------------------------------|
B|---------------------------------|
G|---------------------------------|
D|----4---4h5--4------4---4h5--4---|
A|-2----2--------2-0----0----------|
E|-------------------------------0-|
   "...I can't bleed fast..."
e|-----------------------------------------------|
B|-----------------------------------------------|
G|-----------------------------------------------|
D|----4---5--------------------------------------|
A|-5--5---5-----5----------------5-5-5-5-5-5-5-5-|
E|-3--3-3-3-0-2-3--3-3-3-3-3-3-3-3-3-3-3-3-3-3-3-|
            * *    * * * * * * * * * * * * * * *
   "...can't die dead enough!"


Guitar 2
e|---------------------------|
B|---------------------------|
G|-11--11/12--11--11\9--9-9~-|
D|---------------------------|  ----|
A|---------------------------|      |
E|---------------------------|      |
                                    |--> Play 3x
e|-----------------------------|    |
B|-----------------------------|    |
G|-12--14--12--14\12--12--11\9-| ---|
D|-----------------------------|
A|-----------------------------|
E|-----------------------------|

e|---------------------------|
B|---------------------------|
G|-11--11/12--11--11\9--9-9~-|
D|---------------------------|
A|---------------------------|
E|---------------------------|




Riff 4
e|----------------------------------|
B|----------------------------------|
G|----------------------------------|
D|---9---9h10--9--------------------|
A|-7---7---------7----9---9h10--9---|
E|-----------------7----7---------7-|
   "I don't know..."
e|---------------------------------|
B|---------------------------------|
G|---------------------------------|
D|----7---7h9--7-------------------|
A|-5----5--------5----7---9---10---|
E|-----------------5----5---5----0-|
                        *   *    *
   "And I don't know..."

e|-----------------------------------|
B|-----------------------------------|
G|-----------------------------------|
D|----9---9h10--9--------------------| ---|
A|-7----7---------7----9---9h10--9---|    |
E|------------------7----7---------7-|    |
   "I don't know..."                      |
e|---------------------------------|      |--> Play 2x
B|---------------------------------|      |
G|---------------------------------|      |
D|----7---7h9--7-------------------| -----|
A|-5----5--------5----7---9---10---|
E|-----------------5----5---5----0-|
                        *   *    *
   "And I don't know..."

e|---------------------------------|
B|---------------------------------|
G|---------------------------------|
D|----5---5h7--5-------------------|
A|-3----3--------3----5---5h7--5---|
E|-----------------3----3--------0-|
                                *
   "Something's compelling..."
e|-------------------------------|
B|-------------------------------|
G|-------------------------------|
D|-4----5-4----5-4-5-4-5---------|
A|-2----3-2----3-2-3-2-3-0-1-2---|
E|-----------------------------3-|
   "...to run into the dark..."


Guitar fill over Riff 4
e|-24--------19---------22--------19-|
B|-------20------20-----------19-----|
G|----21------------21-----19--------|
D|-----------------------------------|
A|-----------------------------------|
E|-----------------------------------|

e|-22-------17------21--------17-----|
B|-------17-----17--------17-----17--|
G|----19---------------18------------|
D|-----------------------------------|
A|-----------------------------------|
E|-----------------------------------|

e|-----------------------------|
B|-12-----12-----{12}--12---\--|
G|-14b16--14b16--{14}--14b16\--|
D|-----------------------------|
A|-----------------------------|
E|-----------------------------|

e|----------------------------------|
B|----------------------------------|
G|----------------------------------|
D|-9--10-9--10-9-10-9-10-7-8-9------|
A|-----------------------------10-7-|
E|----------------------------------|



Riff 5
e|-------------------------------|
B|-------------------------------|
G|-------------------------------|
D|-------------------------------|
A|-2----------5--2---------5-----|
E|-0--x--3-2-----0--x--3-2---3-2-|
                             * *
     "And now I am..."
e|-------------------------------|
B|-------------------------------|
G|-------------------------------|
D|-------------------------------|
A|-2----------5--2-------0-1-2---|
E|-0--x--3-2-----0--x--3-------3-|
     "And now I live..."



Riff 6 (Solo Rhythm)              x4
e|---------------------------------|
B|---------------------------------|
G|---------------------------------|
D|-2p1-2~----------------------4-5-|
A|---------2-3--2-0----------3-----|
E|-------------------3-2-1-2-------|


Riff 6a (Solo Rhythm)
e|---------------------------------|
B|---------------------------------|
G|---------------------------------|
D|---------------------------------|
A|-2-2-2-2-2-2-2-2-2-2-2-2-2-2-2-2-|
E|-0-0-0-0-0-0-0-0-0-0-0-0-0-0-0-0-|
   * * * * * * * * * * * * * * * *


Solo (Poland)
e|-----------------------------------------|
B|-----------------------------------------|
G|-----------------------------------------|
D|-----------------------------------------|
A|-----------------------------------------|
E|-12h15--15b19r18-{15}-(18)r15b17r15b17~~-|

e|------------------------------------------------------------|
B|------------------------------------------------------------|
G|------------------------------------------------------------|
D|------------------------------12--------12-14p12/14-16p14---|
A|-12----------------12h14p12h14--14p12h14-----------------17-|
E|----15p12h15p12h15------------------------------------------|

e|-------------------------------------------------------|
B|------------------------15-17b20r17--17b19b20r19r18~*--|
G|------------------14h16--------------------------------|
D|-16p14---14h16h17--------------------------------------|
A|------17-----------------------------------------------|
E|-------------------------------------------------------|

e|-------15-17b19-(19)b20r19-(19)r17~--15-17-15b17r15-15b19r15-|
B|-15-17-------------------------------------------------------|
G|-------------------------------------------------------------|
D|-------------------------------------------------------------|
A|-------------------------------------------------------------|
E|-------------------------------------------------------------|

e|-12-------12-------17-15p12-15p12--12-15h16h17p16p15p12-|
B|----12-15---15b17~---------------15---------------------|
G|--------------------------------------------------------|
D|--------------------------------------------------------|
A|--------------------------------------------------------|
E|--------------------------------------------------------|

e|-16-15-12-12-16-15-12-12-16-15-12-12-16-15-12-12-...-|
B|-----------------------------------------------------|
G|-----------------------------------------------------|
D|-----------------------------------------------------|
A|-----------------------------------------------------|
E|-----------------------------------------------------|

e|----------19-21b22~-21b22~-|
B|-20-21-22------------------|
G|---------------------------|
D|---------------------------|
A|---------------------------|
E|---------------------------|

End Solo



Riff 5a (Solo Rhythm)
e|--------------------------------------|
B|--------------------------------------|
G|--------------------------------------|
D|--------------------------------------|
A|--------------5----------------5------|
E|-0000000-3-2-(2)--0000000-3-2-(2)-3-2-|
   *******          *******         * *
e|------------------------------------|
B|------------------------------------|
G|------------------------------------|
D|------------------------------------|
A|--------------5-------------0-1-2---|
E|-0000000-3-2-(2)--0000000-3-------3-|
   *******          *******

Solo (Mustaine)
e|-22b24--22b24--22b24r22--19-17\16-18p17p15----|
B|-------------------------------------------17-|
G|----------------------------------------------|
D|----------------------------------------------|
A|----------------------------------------------|
E|----------------------------------------------|

e|-17p15------15--------------|
B|------17p15----17~~~--17\12-|
G|----------------------------|
D|----------------------------|
A|----------------------------|
E|----------------------------|

e|---------------------------------------------------|
B|-15p12h15p12h15p12h15p12-12h15p12--12-12h15p12--12-|
G|---------------------------------15-----------15---|
D|---------------------------------------------------|
A|---------------------------------------------------|
E|---------------------------------------------------|

e|------------------------|
B|------------------------|
G|-14b16----14b16--14b16--|
D|------------------------|
A|------------------------|
E|------------------------|

e|-12-------------12-------------12-------------|
B|---15p12-----12---15p12-----12---15p12-----12-|
G|--------14b16----------14b16----------14b16---|
D|----------------------------------------------|
A|----------------------------------------------|
E|----------------------------------------------|

e|-----------------------------------------------------|
B|-12h15p12--12-13h16p13--13-14h17p14--14-15h18p15--15-|
G|---------14-----------15-----------16-----------17---|
D|-----------------------------------------------------|
A|-----------------------------------------------------|
E|-----------------------------------------------------|

e|-----------------------------------------------------|
B|-16h19p16--16-17h20p17--17-18h21p18--18-19h22p19--19-|
G|---------18-----------19-----------20-----------21---|
D|-----------------------------------------------------|
A|-----------------------------------------------------|
E|-----------------------------------------------------|

Note: Last bar blends into first bar of next solo:
e|-24b26-24b26-24b26-24b26-...-24b26r24~~-|
B|----------------------------------------|
G|----------------------------------------|
D|----------------------------------------|
A|----------------------------------------|
E|----------------------------------------|

End Solo


Play Riff 6    Solo Rhythm

Solo (Poland)
e|-20b22-20b22-20b22tm-20tm-19tm-17tm-17-[17]18r17p15-17-|
B|-------------------------------------------------------|
G|-------------------------------------------------------|
D|-------------------------------------------------------|
A|-------------------------------------------------------|
E|-------------------------------------------------------|

e|-16b17-{16}--{16}-{16}-[16]17----16b17~-|
B|----------------------------------------|
G|----------------------------------------|
D|----------------------------------------|
A|----------------------------------------|
E|----------------------------------------|

e|-12----------12-15-------12-12-|
B|----12-15b17-------15b17-------|
G|-------------------------------|
D|-------------------------------|
A|-------------------------------|
E|-------------------------------|

e|-----------------------------------|
B|-15b17~--15-15-13--12-------12-----|
G|----------------------14-12----9~~-|
D|-----------------------------------|
A|-----------------------------------|
E|-----------------------------------|

e|-7-----------7h8h10p8p7----------------|
B|---10b12r10-------------10-10-12-11p10-|
G|---------------------------------------|
D|---------------------------------------|
A|---------------------------------------|
E|---------------------------------------|

e|-11-10---------10-9--------9-8---------|
B|-------11-10-9------10-9-8-----10p7h10-|
G|---------------------------------------|
D|---------------------------------------|
A|---------------------------------------|
E|---------------------------------------|

e|-7h8h10p8p7----7--------7h9p7---------------|
B|------------10---7h8h10-------10p9p8-10-9-8-|
G|--------------------------------------------|
D|--------------------------------------------|
A|--------------------------------------------|
E|--------------------------------------------|

e|-------------------------------------------|
B|---------------------------------/15d14r15-|
G|-10-9-7-10-9-7-----------------------------|
D|---------------10-9-7-10-7-----------------|
A|---------------------------9-7\5-----------|
E|-------------------------------------------|

End Solo


Play Riff 5a  "I, I, I ..."


Ending chord
e|-----|
B|-----|
G|-----|
D|-----|
A|--2--|
E|--0--|


Ending guitar fills (Poland):
e|-15~--|
B|------|
G|------|
D|------|
A|------|
E|------|

e|---------------------|
B|----17b19--(19)b20~--|
G|-16------------------|
D|---------------------|
A|---------------------|
E|---------------------|

e|--------12h15--------------|
B|-15b17-------15p12-15b17~--|
G|---------------------------|
D|---------------------------|
A|---------------------------|
E|---------------------------|

e|-17b19--{17}---(19)r17-15--|
B|---------------------------|
G|---------------------------|
D|---------------------------|
A|---------------------------|
E|---------------------------|

e|-20b22~--|
B|---------|
G|---------|
D|---------|
A|---------|
E|---------|

e|-----------------------------------------------------|
B|-----------------------------------------------------|
G|-12--12*[dive]---------12~~--------14~~--------12~~--|
D|-----------------------------------------------------|
A|-----------------------------------------------------|
E|-----------------------------------------------------|

e|-15b17-15--12--12--------12-15p14p12-12h14p12-|
B|-------------15--15p12h15---------------------|
G|----------------------------------------------|
D|----------------------------------------------|
A|----------------------------------------------|
E|----------------------------------------------|

e|--------------------------------------------------|
B|-15p13p12--12h13-15p12\10-------------------------|
G|---------14---------------12p11p9-----------------|
D|---------------------------------12p10p9----------|
A|----------------------------------------12p10p9---|
E|-----------------------------------------------12-|

End guitar fills

----------------------------------------------------------

12.Trust
Band:Megadeth
Album:Cryptic Writings
Tuning:Standard

Intro

Guitar 1 (Synth arranged for guitar)
                              x2
e|-----------------------------|
B|-----------------------------|
G|-9--------9--------7----/12--|
D|-----------------------------|
A|-7--------7--------5----/10--|
E|-----------------------------|

e|-----------------------|
B|-----------------------|
G|-9--------9---10--/12--|
D|-----------------------|
A|-7--------7----8--/10--|
E|-----------------------|

e|-----------------------------|
B|-----------------------------|
G|-9--------9--------7----/12--|
D|-----------------------------|
A|-7--------7--------5----/10--|
E|-----------------------------|

e|----------------------|
B|----------------------|
G|-9--------9---10--12--|
D|----------------------|
A|-7--------7----8--10--|
E|----------------------|

e|---------------------|
B|---------------------|
G|-9--------9----10----|
D|---------------------|
A|-7--------7-----8----|
E|---------------------|


Guitar 2 (Comes in at 0:44, distortion)
e|-------------------12~----------------------------|
B|--------12~--------------------12~----------------|
G|-/9-9-9------9~--------9~--9~-------9~--9\7-7~-7~-|
D|--------------------------------------------------|
A|--------------------------------------------------|
E|--------------------------------------------------|

e|----------------12~-----------12~---------|
B|--------12~------------12~-----------12~--|
G|-/9-9-9------9~------9-----9~------9------|
D|------------------------------------------|
A|------------------------------------------|
E|------------------------------------------|

e|---12b13--{12}--{12}--{12}--{12}--(12)\--|
B|-----------------------------------------|
G|-9---------------------------------------|
D|-----------------------------------------|
A|-----------------------------------------|
E|-----------------------------------------|


Guitar 3 (Comes in at 0:44, distortion)
e|----------------------|
B|----------------------|
G|----------------------|
D|--9-------------------|
A|--7----10----7----3---|
E|--------8----5----1---|

e|-----------------------------------------|
B|-----------------------------------------|
G|-----------------------------------------|
D|--9--------------------------------------|
A|--7----10----7----3--3-3-3-3-3-3-3-3-----|
E|--------8----5----1--1-1-1-1-1-1-1-1-...-|
                       * * * * * * * *



Riff 1
e|-------------------------------|
B|-------------------------------|
G|-------------------------------|
D|-------------------------------|
A|---7---------7---------7-------|
E|-0---8-7~--0---8~--7-0----8-7~-|

e|-------------------------------|
B|-------------------------------|
G|-------------------------------|
D|-------------------------------|
A|---7---------7--------5--------|
E|-0---8-7~--0---6--5-0---0-6-8~-|

e|-------------------------------|
B|-------------------------------|
G|-------------------------------|
D|-------------------------------|
A|---7---------7---------7-------|
E|-0---8-7~--0---8~--7-0----8-7~-|

e|--------------------------------|
B|--------------------------------|
G|--------------------------------|
D|--------------------------------|
A|---7---------7--------5---------|
E|-0---8-7~--0---6--5-0---0-6-8-0-|
                                *


Riff 2 (Guitar 2 plays notes in () )
e|-------------------------------|
B|-------------------------------|
G|-------------------------------|
D|-9-----------------------------|
A|-7-------------10--------------|
E|----0-0-0-0-0---8--0-0-0-0-0-0-|
      * * * * *      * * * * * *
   "Lost in a dream..."
e|-------------------------------|
B|-------------------------------|
G|-------------------------------|
D|-------------------------------|
A|-7--------------3--------------|
E|-5--0-0-0-0-0-0-1--0-0-0-0-0-0-|
      * * * * * *    * * * * * *
   "Nothing's what..."
e|-------------------------------|
B|-------------------------------|
G|-------------------------------|
D|-9-----------------------------|
A|-7--------------10------9------|
E|----0-0-0-0-0-0--8--0-0-7--0-0-|
      * * * * * *     * *    * *
   "Searching..."
e|-------------------------------|
B|-------------------------------|
G|-------------------------------|
D|-------------------------------|
A|-7--------------3--------------|
E|-5--0-0-0-0-0-0-1--0-0-0-0-0-0-|
      * * * * * *    * * * * * *
   "...words that..."
e|---------------------------------|
B|-(12~)---------------------------|
G|-(12~)-----------(9~)------------|
D|---9-----------------------------|
A|---7-------------10--------------|
E|------0-0-0-0-0---8--0-0-0-0-0-0-|
        * * * * *      * * * * * *
   "Tears filled..."
e|--------------------------------|
B|--------------------------------|
G|-(5~)-----------(5~)------------|
D|--------------------------------|
A|--7--------------3--------------|
E|--5--0-0-0-0-0-0-1--0-0-0-0-0-0-|
       * * * * * *    * * * * * *
   "...said our..."
e|-----------------------------------|
B|-(12)-------------------------(7)--|
G|-(12)-------------(9~)----(7)------|
D|---9---------------------------7---|
A|---7--------------10-------9---5---|
E|------0-0-0-0-0-0--8---0-0-7-0---0-|
        * * * * * *      * *   *   *
   "The same scene..."
e|----------------------------------|
B|----------------------------------|
G|-(5~)----------(10~)--------------|
D|---------------(10~)--------------|
A|--7--------------3--3-3-3-3-3-3-3-|
E|--5--0-0-0-0-0-0-1--1-1-1-1-1-1-1-|
       * * * * * *
   "...walking away..."


Play Riff 1  "My body aches..."
Play Riff 2  "Time and again..."

Use this for the last bar for Riff 2:
e|----------------------------------|
B|----------------------------------|
G|-(5~)----------(10~)--------------|
D|---------------(10~)--------------|
A|--7--------------3--3-3-3-3-3-----|
E|--5--0-0-0-0-0-0-1--1-1-1-1-1-13\-|
       * * * * * *
   "...but I wish I could trust..."


Riff 1a
e|-------------------------------|
B|-------------------------------|
G|-------------------------------|
D|-------------------------------| ---|
A|---7---------7---------7-------|    |
E|-0---8-7~--0---8~--7-0----8-7~-|    |
   "My body aches..."                 |
e|-------------------------------|    |--> Play 3x
B|-------------------------------|    |
G|-------------------------------|    |
D|-------------------------------| ---|
A|---7---------7--------5--------|
E|-0---8-7~--0---6--5-0---0-6-8~-|
   "...mistakes..."

e|-------------------------------|
B|-------------------------------|
G|-------------------------------|
D|-------------------------------|
A|---7---------7---------7-------|
E|-0---8-7~--0---8~--7-0----8-7~-|
   "We lie to..."
e|-------------------------------|
B|-------------------------------|
G|-------------------------------|
D|-------------------------------|
A|---7---------7--------5--------|
E|-0---8-7~--0---6--5-0---0-6-8\-|
   "...so much..."



Interlude (Acoustic)
e|-0--------0--------0--------2-|
B|-0--------0--------0--------3-|
G|-0--------0--------0--------2-|
D|-2--------2--------2--------0-|
A|-2--------3--------4----------|
E|-0----------------------------|
  "...true.  Trust hurts..."


Riff 3 (Acoustic)
Guitar 1
e|------------------------------------------------|
B|------------------------------------------------|
G|-9-------9h10-9h10p9-------10-------8---------8-|
D|------10-------------10-------10------10---10---|
A|---12-------------------12-------12------8------|
E|------------------------------------------------|

e|--------------------6----------------|
B|----------8----8-10---6---6----------|
G|-7------7----7----------6---6----6---|
D|------8------------------------8---8-|
A|---10--------------------------------|
E|-------------------------------------|

e|---------0-------------------------------|
B|-------6---6------------8-8/11-11p8------|
G|-----5-------5--------6-------------9----|
D|---7-----------7----5-----------------11-|
A|-0----------------0----------------------|
E|-----------------------------------------|

Guitar 2
e|--------------------------------------|
B|--------------------------------------|
G|-5-----5h7-5h7p5----------5----2/5----|
D|-----7-----------7------7----------7\-|
A|---7---------------7--6-----3---------|
E|--------------------------------------|

e|------------------------------------------|
B|------------------------------------------|
G|----------3\2/3-----------6-5-6-----------|
D|-(7)\5----------5---------------8-------7-|
A|--------5---------5--8------------8-8-7---|
E|------------------------6-----------------|

e|---------------------|
B|-------5-5/8-8p5-----|
G|-----3-----------6---|
D|---2---------------7-|
A|-0-------------------|
E|---------------------|


Riff 4
Guitar 1 (Acoustic)
e|--------------------------------|
B|--------------------------------|
G|---------------------0-------0--|
D|-----0-------0-----0-------0----|
A|---0-------0-----1-----1-0------|
E|-1-----1-0-----0----------------|

e|--------------------------------|
B|--------------------------------|
G|--------------------------------|
D|-----------[silent]-------------|
A|--------------------------------|
E|--------------------------------|


Guitar 2 (Distortion)
e|-------------------------------------|
B|-------------------------------------|
G|---------------------0-------0-------|
D|-----0-------0-----0-------0-------2-|
A|---0-------0-----1-----1-0---------0-|
E|-1-----1-0-----0---------------3b4---|
   * * * * * * * * * * * * * * *
e|-----------------------------------------------|
B|-----------------------------------------------|
G|-----------------------------------------------|
D|---------------------------------------------2-|
A|-0-0-0-0-0-0-0-0-0-0-0-0-0-0-0-0-0-0-0-0-0-0-0-|
E|-----------------------------------------------|
   * * * * * * * * * * * * * * * * * * * * * *


Play Riff 1a  Solo Rhythm

Solo (Friedman)
e|---------------------------------------------|
B|-------------11b12~~-----------------12b15~~-|
G|-9--9~--9----------------9--9~--9------------|
D|----------9-----------/9----------9----------|
A|---------------------------------------------|
E|---------------------------------------------|

e|------------------------------------|
B|-------------------16-17b20--(20)~--|
G|---9~-9~~-------16------------------|
D|-9---------9/17---------------------|
A|------------------------------------|
E|------------------------------------|

e|--------------------------|
B|-[17]20r17b20--17b20r17\--|
G|--------------------------|
D|--------------------------|
A|--------------------------|
E|--------------------------|

e|-----------------------------------15-----|
B|--------------------------17-17~~----17---|
G|-2b3--2b3-2b3r2b3~~---/16--------------16-|
D|------------------------------------------|
A|------------------------------------------|
E|------------------------------------------|

e|-18b19--18b19~-{18}-(19)r18p17-15---------|
B|----------------------------------17~~-17-|
G|------------------------------------------|
D|------------------------------------------|
A|------------------------------------------|
E|------------------------------------------|

e|----------15h19p15--15-19-19b22~~~\-|
B|----17h19---------19----------------|
G|-16---------------------------------|
D|------------------------------------|
A|------------------------------------|
E|------------------------------------|

e|-19-22-22b24--22-22b24-22b24-22b24-22b24-22b24-|
B|-----------------------------------------------|
G|-----------------------------------------------|
D|-----------------------------------------------|
A|-----------------------------------------------|
E|-----------------------------------------------|

e|-22-2b24-22b24-22b24-{22}{22}{22}{22}{22}\-|
B|---------------22b23-{22}{22}{22}{22}{22}\-|
G|-------------------------------------------|
D|-------------------------------------------|
A|-------------------------------------------|
E|-------------------------------------------|

e|-----12-11--------11-12-11---------12-14p12--------|
B|-5/-------12p10-12--------12--12h15--------15-12---|
G|----------------------------14------------------14-|
D|---------------------------------------------------|
A|---------------------------------------------------|
E|---------------------------------------------------|

e|------12-14p12---------(15)----------------------|
B|-12h15--------15-12--12----15-12--12-15p12h15p12-|
G|-------------------14-----------14---------------|
D|-------------------------------------------------|
A|-------------------------------------------------|
E|-------------------------------------------------|

e|-----------------------|
B|---12------------------|
G|-14--14p12-------------|
D|----------14-12-14~~~\-|
A|-----------------------|
E|-----------------------|

End Solo


Play Riff 1a  "My body aches..."

Ending:
e|-------------------------------|
B|-------------------------------|
G|-------------------------------|
D|-------------------------------|
A|---7---------7---------7-------|
E|-0---8-7~--0---8~--7-0----8-7~-|
  "Oh..."
e|----------------------------------|
B|----------------------------------|
G|----------------------------------|
D|----------------------------------|
A|---7---------7--------5---------2-|
E|-0---8-7~--0---6--5-0---0-6-8\--0-|
       "Absolutely nothing we trust."


Ending guitar fills:
e|-----------------------------|
B|-----------------------------|
G|-11b12--------[11]12r11-9~~~-|
D|-----------------------------|
A|-----------------------------|
E|-----------------------------|

e|----------------------------------------------12--------|
B|--------------12h15-----12h15---------------15--15b17~~-|
G|-14-12---12h14-----12h14-----12h14p12--12-14------------|
D|------14-----------------------------14-----------------|
A|--------------------------------------------------------|
E|--------------------------------------------------------|

e|-----------------------------------------------------|
B|-12-12-15b17r15p12-15b17~~-15p12-15b17r15p12-15b17~~-|
G|-----------------------------------------------------|
D|-----------------------------------------------------|
A|-----------------------------------------------------|
E|-----------------------------------------------------|

e|-17b19r18--[17]19~~~\-|
B|----------------------|
G|----------------------|
D|----------------------|
A|----------------------|
E|----------------------|

e|-19b20--(20)r19--15-17-[17]18r17b18r17b18r17p15-|
B|------------------------------------------------|
G|------------------------------------------------|
D|------------------------------------------------|
A|------------------------------------------------|
E|------------------------------------------------|

e|-17b19~~-(19)r17p15-----------------15------------|
B|--------------------17~~~--17p15-17----17-15-17~~-|
G|--------------------------------------------------|
D|--------------------------------------------------|
A|--------------------------------------------------|
E|--------------------------------------------------|

e|----------------17-------------------|
B|-17~~--17p15-17----17p15-17~~\-------|
G|--------------------------------/16\-|
D|-------------------------------------|
A|-------------------------------------|
E|-------------------------------------|

e|---------------------------------------------------|
B|-11-------10-----\------------------------12-------|
G|-13b15~~--12b14~~\---9h12p9~~-----12p9----12p9-----|
D|------------------------------12p9----12p9----12p9-|
A|---------------------------------------------------|
E|---------------------------------------------------|

e|-----------------------|
B|-----------------------|
G|----9------------------|
D|-12---12p9-------------|
A|----------12p10--10----|
E|---------------12--12\-|

e|-------------------------------|
B|-------------------------------|
G|-------------------------------|
D|--[use wah pedal for this bar]-|
A|-------------------------------|
E|-3h5p3h5p3h5p3h5-5-5-5\--------|

End Solo

---------------------------------------------

13.Tornado Of Souls
Band:Megadeth
Album:Rust In Peace
Tuning:Standard

Riff 1
NOTE: Slight palm mute during harmonics)
e|--------------------------|
B|--------------------------|
G|----------------------7---|
D|----------------7---------|
A|-9------------------------|
E|-7--7-7-7-7-7-7---7-7---7-|
      h.h.h.h.h.h.h.h.h.h.h.
e|----------------------------------|
B|----------------------------------|
G|--------------------------7-------|
D|--------------------7-----------7-|
A|-9-9-9----------------------------|
E|-7-7-7--7-7-7-7-7-7---7-7---7-7---|
          h.h.h.h.h.h.h.h.h.h.h.h.h.

Riff 2
e|-----------------------------------|
B|-----------------------------------|
G|---------------------------------7-|
D|-------------------------7---9p7---|
A|-----------7h8p7---7-8h9---9-------|
E|-7--7-9-10------10-----------------|

e|-----------------------------------|
B|-----------------------------------|
G|-----------------------------------|
D|-------------------------7---9p7---|
A|-----------7h8p7---7-8h9---9-----9-|
E|-7--7-9-10------10-----------------|

e|-----------------------------------|
B|-----------------------------------|
G|---------------------------------7-|
D|-------------------------7---9p7---|
A|-----------7h8p7---7-8h9---9-------|
E|-7--7-9-10------10-----------------|

e|--------------------------------|
B|--------------------------------|
G|--------------------------------|
D|-/7----5------------------------|
A|-/5----3----7h8p7-5h7p5-4h5p4-3-|
E|--------------------------------|


Riff 3                          x6
e|-------------------------------|
B|-------------------------------|
G|-------------------------------|
D|-4-----------------------------|
A|-2---2-2-2---------------------|
E|-----------2-2-3-3-0-0-2-2-3-0-|
       * * * * * * * * * * * * *
   "This morning I made the call..."

                                x2
e|-------------------------------|
B|-------------------------------|
G|-------------------------------|
D|-2--------------------2--/5--5-|
A|-0---0-0-0-2---3------0--/3--3-|
E|-----------0-0-1--3-0----------|
       * * *   *    * *
   "Not for the money..."
                                x2
e|-------------------------------|
B|-------------------------------|
G|-------------------------------|
D|-4-----------------------------|
A|-2---2-2-2---------------------|
E|-----------2-2-3-3-0-0-2-2-3-0-|
       * * * * * * * * * * * * *
   "Not for the power..."


Riff 4                                         x3
e|----------------------------------------------|
B|----------------------------------------------|
G|----------------------------------------------|
D|-4---------------------------------------/7-7-|
A|-2----4-5--------------2----1/2--2-1~----/5-5-|
E|----0-2-3--0-2-3-3-2-1-0--0-2/3--3-2~--0------|
      * *    * * * * * *    *            *
   "But now I'm safe...."
e|---------------------------------------------------|
B|---------------------------------------------------|
G|---------------------------------------------------|
D|-4-------------------------------------------------|
A|-2----4-5--------------2----1/2--2-1~--4h5p4-4-0-1-|
E|----0-2-3--0-2-3-3-2-1-0--0-2/3--3-2~--------------|
      * *    * * * * * *    *
   "In the eye of the tornado, blow me away..."


Play Riff 3    "You've grown to loathe my name..."
Play Riff 4    "But now I'm safe..."

Riff 5                           x2
e|--------------------------------|
B|--------------------------------|
G|--------------------------------|
D|-4-x-x----------4-x-x---------7-|
A|-2-x-x-4-5-x----2-x-x-4-5-x-x-5-|
E|-------2-3-x----------2-3-x-x---|
  "Who's to say...."
e|--------------------------------|
B|--------------------------------|
G|--------------------------------|
D|-2-x-x----------2-x-x---------5-|
A|-0-x-x-2-3-x----0-x-x-2-3-x-x-3-|
E|-------0-1-x----------0-1-x-x---|
  "Who's to say, what's for me to do..."
e|----------------------------------|
B|----------------------------------|
G|----------------------------------|
D|-4-x-x----------4-x-x---------7-4-|
A|-2-x-x-4-5-x----2-x-x-4-5-x-x-5-2-|
E|-------2-3-x----------2-3-x-x-----|
  "Cause a big nothing..."


Riff 6
e|-----------------------------------|
B|-----------------------------------|
G|---------------------------------7-|
D|-------------------------7---9p7---|
A|-----------7h8p7---7-8h9---9-------|
E|-7--7-9-10------10-----------------|
  "The land of opportunity..."
e|-----------------------------------|
B|-----------------------------------|
G|-----------------------------------|
D|-------------------------7---9p7---|
A|-----------7h8p7---7-8h9---9-----9-|
E|-7--7-9-10------10-----------------|
  "...the golden chance for me..."


Riff 7
Guitar 1
e|-------------------------------|
B|-------------------------------|
G|-------------------------------|
D|-------------------------------|
A|------5---7-5--------7-----5h7-|
E|-7--7---7-----5-7--7---7-7-----|
      *   *          *   * *

Guitar 2 (Comes in 4th time on last two notes of above)
e|-------------------------------|
B|-------------------------------|
G|-------------------------------|
D|------4---5-4--------5-----4h5-|
A|-5--5---5-----4-5--5---5-5-----|
E|-------------------------------|
      *   *          *   * *

Riff 8  (Solo Rhythm)
e|---------------------------------|
B|---------------------------------|
G|---------------------------------|
D|---------------------------------|
A|-9----------------------9-9-(9)\-|
E|-7--7-7-7-7-7-7-7-7-7-7-7-7-(7)\-|
      * * * * * * * * * *
e|------------------------------|
B|------------------------------|
G|------------------------------|
D|------------------------------|
A|-5----------------------5-5---|
E|-3--3-3-3-3-3-3-3-3-3-3-3-3-3-|
      * * * * * * * * * *     *
e|------------------------------|
B|------------------------------|
G|------------------------------|
D|------------------------------|
A|-2----------------------2-2---|
E|-0--0-0-0-0-0-0-0-0-0-0-0-0-0-|
      * * * * * * * * * *     *
e|---------------------------|
B|---------------------------|
G|---------------------------|
D|---------------------------|
A|-4------------7--------8---|
E|-2--2-2-2-2-2-5--5-5-5-6-6-|
      * * * * *    * * *   *


Solo (Friedman)
e|----------------------------------------|
B|----------------------------------------|
G|-3b5^r3b4~~--------4------6--7--(7)/9~~-|
D|-----------------x------x---------------|
A|---------------x------x-----------------|
E|----------------------------------------|

e|-------------------------------|
B|-------------------------------|
G|-9/11-11-9~----9-7-8b10^r8b9~~-|
D|-------------------------------|
A|-------------------------------|
E|-------------------------------|

e|-----------------------------|
B|-----10-7--------------------|
G|-7-9------9-7-6-7----6h7-6~~-|
D|------------------9----------|
A|-----------------------------|
E|-----------------------------|

e|----------------------------|
B|----------------------------|
G|-6b7-6-6h7-6----------------|
D|-------------9-7---7-9------|
A|-----------------9-----9~~--|
E|----------------------------|

e|--------------------------------------|
B|-----------------12-14-12-14-14-12-14-|
G|--------------11----------------------|
D|------9h11h12-------------------------|
A|-9h10---------------------------------|
E|--------------------------------------|

e|--------------------------------------------------------|
B|-13b15--[14]15r14-12-[13]14r13b14-(14)r13--12-12-14-----|
G|----------------------------------------------------12~-|
D|--------------------------------------------------------|
A|--------------------------------------------------------|
E|--------------------------------------------------------|

e|-------14-14/15\14-10-14p10h14-10----10----|
B|----------------------------------14----14-|
G|-12-12-------------------------------------|
D|-------------------------------------------|
A|-------------------------------------------|
E|-------------------------------------------|

e|---------------------------------|
B|-12------------------------------|
G|----11\9-11-9\7-9b11--7-6~~-/15\-|
D|---------------------------------|
A|---------------------------------|
E|---------------------------------|

e|-/14-10h14p10------------10-/19p14------------14-|
B|-------------14-12--12-14---------15-14--14h15---|
G|------------------11-------------------16--------|
D|-------------------------------------------------|
A|-------------------------------------------------|
E|-------------------------------------------------|

e|-19-15h19p15----------15-19-19b22r19-19p18-19~~-|
B|------------17------17--------------------------|
G|--------------16--16----------------------------|
D|----------------17------------------------------|
A|------------------------------------------------|
E|------------------------------------------------|

e|-0-19-16h19p16----------------12-16p12-----------------|
B|--------------17---------------------------------------|
G|----------------16\13---13h16----------16-13--13\9-9~~-|
D|----------------------14--------------------15---------|
A|-------------------------------------------------------|
E|-------------------------------------------------------|

e|--------------------------------------------|
B|--------------------------------------------|
G|-11-11-11/12-12-12/15-15-15\7-7-7/9-9-9\6~~-|
D|--------------------------------------------|
A|--------------------------------------------|
E|--------------------------------------------|

e|-----------------------------------------------------|
B|-----------------------------------------------------|
G|-7~----------------7-9-8b10---(10)r8-7~-------7------|
D|-------9-------7h9-------------------------/9---9-9~-|
A|---------9~------------------------------------------|
E|-----------------------------------------------------|

e|------------------------------------|
B|------------------------------------|
G|-7---9-7----------------------------|
D|---9-----9-7--9b12r9--7-------------|
A|-------------------------9\7~----\5-|
E|------------------------------------|

e|------------------------------------|
B|--------------8h11/14p11------------|
G|------------9------------12---------|
D|----8h11-11----------------14-12----|
A|-/9------------------------------14-|
E|------------------------------------|

e|-------------------------------------|
B|----------10h14/19\14p10----10h14p10-|
G|-------------------------12----------|
D|----11h14----------------------------|
A|-12----------------------------------|
E|-------------------------------------|

e|-/14p10--10--14p10-14p10--10--14p10-14p10--10-|
B|-------12---------------12---------------12---|
G|----------------------------------------------|
D|----------------------------------------------|
A|----------------------------------------------|
E|----------------------------------------------|

e|-15p10--10-14p10--10-15p10--10-14p10--10-|
B|------12--------12--------12--------12---|
G|-----------------------------------------|
D|-----------------------------------------|
A|-----------------------------------------|
E|-----------------------------------------|

e|-15p10--10--15p10-15p10--10--15p10-15p10--10-|
B|------12---------------12---------------12---|
G|---------------------------------------------|
D|---------------------------------------------|
A|---------------------------------------------|
E|---------------------------------------------|

e|-17p10--10-15p10--10-17p10--10-15p10--10-|
B|------12--------12--------12--------12---|
G|-----------------------------------------|
D|-----------------------------------------|
A|-----------------------------------------|
E|-----------------------------------------|

e|-16p10--10--16p10-16p10--10--16p10-16p10--10-|
B|------12---------------12---------------12---|
G|---------------------------------------------|
D|---------------------------------------------|
A|---------------------------------------------|
E|---------------------------------------------|

e|-17p10--10-16p10--10-17p0--10-16p10----14-|
B|------12--------12-------12--------12/----|
G|------------------------------------------|
D|------------------------------------------|
A|------------------------------------------|
E|------------------------------------------|

e|-18p14--14--18p14-18p14--14--18p14-18p14--14-|
B|------14---------------14---------------14---|
G|---------------------------------------------|
D|---------------------------------------------|
A|---------------------------------------------|
E|---------------------------------------------|

e|-17p12--12-17p12-17p12--12-17p12-12-12-|
B|------14--------------14---------------|
G|---------------------------------------|
D|---------------------------------------|
A|---------------------------------------|
E|---------------------------------------|

e|-17b19~~----(19)r17\--2/13-10-|
B|------------------------------|
G|------------------------------|
D|------------------------------|
A|------------------------------|
E|------------------------------|

e|-14-10----------10h14-10-/17-14/17-21-17-|
B|-------14p12-----------------------------|
G|-------------12--------------------------|
D|-----------------------------------------|
A|-----------------------------------------|
E|-----------------------------------------|

e|----------19-24p19----19-------------22-------------|
B|-19----19----------22----22-22p19h22----22p19\18h20-|
G|----19----------------------------------------------|
D|----------------------------------------------------|
A|----------------------------------------------------|
E|----------------------------------------------------|

e|-19----------17----------15----------14------------------------|
B|----18\15h17----15\14h15----14\12h14----12\10-12p10-12p10\8h10-|
G|---------------------------------------------------------------|
D|---------------------------------------------------------------|
A|---------------------------------------------------------------|
E|---------------------------------------------------------------|

e|--------------------------------------|
B|-10p8\7-8p7-10p7h8p7------------------|
G|---------------------9p7-10p9p7-9p7~~-|
D|--------------------------------------|
A|--------------------------------------|
E|--------------------------------------|

e|--------7----------------|
B|----------10p7-10b12~~\--|
G|-9b10^-------------------|
D|-------------------------|
A|-------------------------|
E|-------------------------|

e|-------------------------------------|
B|-------4-5p4---------------8p7-------|
G|-4h5h7-------7/10-7h8h10p7-----10/12-|
D|-------------------------------------|
A|-------------------------------------|
E|-------------------------------------|

e|---------------------------------------------|
B|----------12p11----11-12p11----11-12-11-12~~-|
G|-11h12h14-------14----------14---------------|
D|---------------------------------------------|
A|---------------------------------------------|
E|---------------------------------------------|

End Solo


Riff 9
e|--------------------------------|
B|--------------------------------|
G|------4-----------4-----2---2h4-|
D|------4-----4-----4-----2---2h4-|
A|-2--2---2-2-4-2-2---2-2---2-----|
E|--------------------------------|
      *   * *   * *   * *   *
e|--------------------------------|
B|--------------------------------|
G|------4-----------4-----2---2h4-|
D|------4-----4-----4-----2---2h4-|
A|------------4-------------------|
E|-3--3---3-3---3-3---3-3---3-----|
      *   * *   * *   * *   *
e|--------------------------------|
B|--------------------------------|
G|------4-----------4-----2---2h4-|
D|------4-----4-----4-----2---2h4-|
A|------------4-------------------|
E|-0--0---0-0---0-0---0-0---0-----|
      *   * *   * *   * *   *
e|------------------------------|
B|------------------------------|
G|------4--------------4--------|
D|------4-----4--------4--------|
A|------------4---0--0---0-0-1--|
E|-2--2---2-2---2---------------|
      *   * *   *    *   * *


Riff 10
Guitar 1
e|-------------------------------|
B|-------------------------------|
G|-------------------------------|
D|-----------0-----------------0-|
A|-2-----0-2---2-0-2~------0-2---|
E|---0-2---------------0-2-------|
     * * * *           * * * *

Guitar 2
e|-------------------------------|
B|-------------------------------|
G|-------------------------------|
D|-----------7-----------------7-|
A|-2-----7-9---9-7-9~------7-9---|
E|---7-9---------------7-9-------|
     * * * *           * * * *
                                x3
e|-------------------------------|
B|-------------------------------|
G|-------------------------------|
D|-----------7-----------------7-|
A|-9-----7-9---9-7-9~------7-9---|
E|---7-9---------------7-9-------|
     * * * *           * * * *



Riff 11
e|-------------------------------|
B|-------------------------------|
G|-------------------------------|
D|-----------0-----------------0-|
A|-2-----0-2---2-0-2~------0-2---|
E|---0-2---------------0-2-------|
     * * * *           * * * *
  "I warn you of the fate..."


Riff 12
e|--------------------------------|
B|--------------------------------|
G|--------------------------------|
D|------------0-----------------0-|
A|-3------0-3---3-0-3~------0-3---|
E|----0-3---------------0-3-------|
      * * * *           * * * *
  "You feel my fingertips..."
e|--------------------------------|
B|--------------------------------|
G|--------------------------------|
D|------------0-----------------0-|
A|-2------0-2---2-0-2~------0-2---|
E|----0-2---------------0-2-------|
      * * * *           * * * *
  "You won't forget my lips..."
e|--------------------------------|
B|--------------------------------|
G|--------------------------------|
D|------------0-----------------0-|
A|-3------0-3---3-0-3~------0-3---|
E|----0-3---------------0-3-------|
      * * * *           * * * *
  "You feel my cold breath..."
e|--------------------------------|
B|--------------------------------|
G|--------------------------------|
D|------------0-----------------0-|
A|-2------0-2---2-0-2~------0-2---|
E|----0-2---------------0-2-------|
      * * * *           * * * *
  "It's the kiss of death..."


Riff 13
e|--------------------------------------|
B|--------------------------------------|
G|--------------------------------------|
D|-4--x-x----------2---------------2--x-|
A|-2--x-x-4-5--x-x-0-2--x-x-4-5--x-0--x-|
E|--------2-3--x-x---0--x-x-2-3--x------|

e|-------------------------------------------------|
B|-------------------------------------------------|
G|-------------------------------------------------|
D|-4--x-x----------2--/7--5----------------------4-|
A|-2--x-x-4-5--x-x-0--/5--3--7h8p7-5h7p5-4h5p4-3-2-|
E|--------2-3--x-x---------------------------------|

---------------------------------------------------------

14.Kick The Chair
Band:Megadeth
Album:System Has Failed
Tuning:Standard

Riff 1 (Play 4x)
NOTE: Guitar 1 only plays root notes for
2nd and 3rd bars.
e|-----------------------------|
B|-----------------------------|
G|-----------------------------|
D|-----------------------------|
A|-----------------------------|
E|-2--2-0--0-2-2-2-2-0-0-2-2-3-|
   *  * *  * * * * * * * * *
e|-----------------------------|
B|-----------------------------|
G|-----------------------------|
D|---------------------------5-|
A|---------------------------3-|
E|-2--2-0--0-2-2-2-2-0-0-2-2---|
   *  * *  * * * * * * * * *
e|-----------------------------|
B|-----------------------------|
G|-----------------------------|
D|---------------------------7-|
A|---------------------------5-|
E|-2--2-0--0-2-2-2-2-0-0-2-2---|
   *  * *  * * * * * * * * *
e|------------------|
B|------------------|
G|------------------|
D|------------------|
A|-7--6--5----6--7--|
E|-5--4--3----4--5--|


Guitar fill during Riff 1 during last bar
on 2nd and 4th times.
e|--------------------|
B|--------------------|
G|--------------------|
D|--------------------|
A|-9~--8~--7~--8~--9~-|
E|-a---a---a---a---a--|




Riff 2
e|-------------------------|
B|-------------------------|
G|-------------------------|
D|-------------------------| --|
A|-------------------------|   |
E|-2--3--3-2-0-2--3--3-2-0-|   |
      *  * * *    *  * * *     |
e|----------------------|      |--> Play 3x
B|----------------------|      |
G|----------------------|      |
D|----------------------| -----|
A|----------------------|
E|-2--3--3-2-0-2--0--/3-|
      *  * * *
e|-------------------------|
B|-------------------------|
G|-------------------------|
D|-------------------------|
A|-------------------------|
E|-2--3--3-2-0-2--3--3-2-0-|
      *  * * *    *  * *
e|---------------------------------|
B|---------------------------------|
G|---------------------------------|
D|---------------------------------|
A|-5-4-3-2-----------------0-1-2-3-|
E|---------5-4-3-2-0-1-2-3---------|



Riff 2a
e|-------------------------|
B|-------------------------|
G|-------------------------|
D|-------------------------|
A|-------------------------|
E|-2--3--3-2-0-2--3--3-2-0-|
      *  * * *    *  * * *
e|----------------------|
B|----------------------|
G|----------------------|
D|----------------------|
A|----------------------|
E|-2--3--3-2-0-2--0--/3-|
      *  * * *
e|-------------------------|
B|-------------------------|
G|-------------------------|
D|-------------------------|
A|-------------------------|
E|-2--3--3-2-0-2--3--3-2-0-|
      *  * * *    *  * * *
e|--------------------|
B|--------------------|
G|--------------------|
D|----------------5---|
A|----------------3---|
E|-2--3--3-2-0-2--3-3-|
      *  * * *


Riff 3
e|---------------|
B|---------------|
G|---------------|
D|---------------|
A|--------4------|
E|-0-/3-0-2-0-/3-|



Riff 4
e|-------------------------------------------------|
B|-------------------------------------------------|
G|-------------------------------------------------|
D|-------------------------------------------------|
A|-2p0-----------3-2h3p2p0-2p0---------------------|
E|-----3-2-00-2----------------3-2-00-2--000-333-2-|
       * * **                  * * **    *** *** *
  "Dawn breaks evenly..."
e|------------------------------------------------------|
B|------------------------------------------------------|
G|------------------------------------------------------|
D|------------------------------------------------------|
A|-2p0-----------3-2h3p2p0-2p0----------5-4-3-2---------|
E|-----3-2-00-2----------------3-2-00-2---------5-4-3-2-|
       * * **                  * * **           * * * *
  "On the truth..."
e|-------------------------------------------------|
B|-------------------------------------------------|
G|-------------------------------------------------|
D|-------------------------------------------------|
A|-2p0-----------3-2h3p2p0-2p0---------------------|
E|-----3-2-00-2----------------3-2-00-2--000-333-2-|
       * * **                  * * **    *** *** *
  "All rise courts..."

1st ending:
e|-------------------------------------------------|
B|-------------------------------------------------|
G|-------------------------------------------------|
D|-------------------------------------------------|
A|-2p0-----------3-2h3p2p0-2p0---------------------|
E|-----3-2-00-2----------------3-2-00-2--000-333-2-|
       * * **                  * * **    *** *** *
  "We're hanging someone..."

2nd ending:
e|-------------------------------------------------------|
B|-------------------------------------------------------|
G|-------------------------------------------------------|
D|-------------------------------------------------------|
A|-2p0-----------3-2h3p2p0-2p0------------------4--------|
E|-----3-2-00-2----------------3-2-00-2--0-/3-0-2-0-/3-2-|
       * * **                  * * **
  "And pay up the down payment..."


Play Riff 2a   "Kick the chair..."
Play Riff 3    "...kick it!"


Riff 4a
e|-------------------------------------------------|
B|-------------------------------------------------|
G|-------------------------------------------------|
D|-------------------------------------------------|
A|-2p0-----------3-2h3p2p0-2p0---------------------|
E|-----3-2-00-2----------------3-2-00-2--000-333-2-|
       * * **                  * * **    *** *** *
   "The courts wrong..."
e|------------------------------------------------------|
B|------------------------------------------------------|
G|------------------------------------------------------|
D|------------------------------------------------------|
A|-2p0-----------3-2h3p2p0-2p0----------5-4-3-2---------|
E|-----3-2-00-2----------------3-2-00-2---------5-4-3-2-|
       * * **                  * * **           * * * *
   "Of the victories..."
e|-------------------------------------------------|
B|-------------------------------------------------|
G|-------------------------------------------------|
D|-------------------------------------------------|
A|-2p0-----------3-2h3p2p0-2p0---------------------|
E|-----3-2-00-2----------------3-2-00-2--000-333-2-|
       * * **                  * * **    *** *** *
   "The press that never..."

1st ending:
e|--------------------------------------------------------|
B|--------------------------------------------------------|
G|--------------------------------------------------------|
D|--------------------------------------------------------|
A|-2p0-----------3-2h3p2p0-2p0--------------------0-1-2-3-|
E|-----3-2-00-2----------------3-2-00-2-0-0-1-2-3---------|
       * * **                  * * ** * * * * * * * * *
   "...soul they can eat..."
e|-------------------------------------------------------|
B|-------------------------------------------------------|
G|-------------------------------------------------------|
D|-------------------------------------------------------|
A|-2p0-----------3-2h3p2p0-2p0------------------4--------|
E|-----3-2-00-2----------------3-2-00-2--0-/3-0-2-0-/3-2-|
       * * **                  * * **
   "...you're going to jail..."


Play Riff 2a   "Kick the chair..."


Final bar going into solo:
e|---------------------------|
B|---------------------------|
G|---------------------------|
D|---------------------------|
A|--------------7--6--5----6-|
E|-2--3--3-2-0-/5--4--3----4-|
      *  * * *



Riff 5 (Solo Rhythm)
e|-----------------------------------|
B|-----------------------------------|
G|-----------------------------------|
D|-----------------------------------| ----|
A|-7----------------8----------------|     |
E|-5-55555555555555-6-66666666666666-|     |
     **************   **************       |
e|------------------------------------|    |--> Play 4x
B|------------------------------------|    |
G|------------------------------------|    |
D|------------------------------------| ---|
A|-3----------------2--------5------6-|
E|-1-11111111111111-0-000000-3-3333-4-|
     **************   ******   ****

e|------------------------------------|
B|------------------------------------|
G|------------------------------------|
D|------------------------------------|
A|-3----------------2--------5------6-|
E|-1-11111111111111-0-000000-3-3333-4-|
     **************   ******   ****


Solo (Mustaine)
e|-7p5-0-0-7p5-8p5-0-0-10-0-8p5-7p5-|
B|----------------------------------|
G|----------------------------------|
D|----------------------------------|
A|----------------------------------|
E|----------------------------------|

e|-8p5---5-8p5-10p5---5-10p5-8p5-7p5-|
B|-----6------------6----------------|
G|-----------------------------------|
D|-----------------------------------|
A|-----------------------------------|
E|-----------------------------------|

e|---------------------------------|
B|-6p3---3-6p3-5p3-6-5-3---5-3-----|
G|-----4-----------------5-----5-4-|
D|---------------------------------|
A|---------------------------------|
E|---------------------------------|

e|------------------7-5-4---5-4-----|
B|------------------------6-----6-5-|
G|-5p4---4--5p4-7p4-----------------|
D|-----7----------------------------|
A|----------------------------------|
E|----------------------------------|

e|-7p5---5-7p5-8p5---5-10p5-8p5-7p5-|
B|-----5-----------5----------------|
G|----------------------------------|
D|----------------------------------|
A|----------------------------------|
E|----------------------------------|

e|-8p5---5-8p5-10p5---5-10p5-8p5-7p5-|
B|-----6------------6----------------|
G|-----------------------------------|
D|-----------------------------------|
A|-----------------------------------|
E|-----------------------------------|

e|---------------------------------|
B|-6p3---3-6p3-5p3-6-5-3---5-3-----|
G|-----4-----------------5-----5-4-|
D|---------------------------------|
A|---------------------------------|
E|---------------------------------|

e|-7-5-4---5-4-----4---------------|
B|-------6-----6-5---6-5---6-5-----|
G|-----------------------7-----7-5-|
D|---------------------------------|
A|---------------------------------|
E|---------------------------------|

Repeat everything above, then the final bar is:
e|-----------------------------|
B|-------5--6--5---------------|
G|----------------7--5--4------|
D|-7~----------------------7~--|
A|-----------------------------|
E|-----------------------------|


Harmony guitar (Enters on eigth bar of solo)
e|-10-8-7----8-7------7-------------------|
B|--------10-----10-9---10-9----10-9------|
G|---------------------------10------10-9-|
D|----------------------------------------|
A|----------------------------------------|
E|----------------------------------------|

e|-10p8----8-10p8-12p8----8-13p8-12p8-10p8-|
B|------10-------------10------------------|
G|-----------------------------------------|
D|-----------------------------------------|
A|-----------------------------------------|
E|-----------------------------------------|

e|-13p10----10-13p10-15p10----10-15p10-13p10-12p10-|
B|-------10----------------10----------------------|
G|-------------------------------------------------|
D|-------------------------------------------------|
A|-------------------------------------------------|
E|-------------------------------------------------|

e|------------------------------------|
B|-10p6---6-10p6-8p6-10-8-6---8-6-----|
G|------7-------------------9-----9-7-|
D|------------------------------------|
A|------------------------------------|
E|------------------------------------|

e|--------------------10-8-7----8-7------|
B|---------------------------10-----10-9-|
G|--9p7----7-9p7-10p7--------------------|
D|------10-------------------------------|
A|---------------------------------------|
E|---------------------------------------|

e|-10p8----8-10p8-12p8----8-13p8-12p8-10p8-|
B|------10-------------10------------------|
G|-----------------------------------------|
D|-----------------------------------------|
A|-----------------------------------------|
E|-----------------------------------------|

e|-13p10----10-13p10-15p10----10-15p10-13p10-12p10-|
B|-------10----------------10----------------------|
G|-------------------------------------------------|
D|-------------------------------------------------|
A|-------------------------------------------------|
E|-------------------------------------------------|

e|------------------------------------|
B|-10p6---6-10p6-8p6-10-8-6---8-6-----|
G|------7-------------------9-----9-7-|
D|------------------------------------|
A|------------------------------------|
E|------------------------------------|

e|-10-8-7----8-7------7-------------------|
B|--------10-----10-9---10-9----10-9------|
G|---------------------------10------10-9-|
D|----------------------------------------|
A|----------------------------------------|
E|----------------------------------------|

e|--------8--10--8------------------------------|
B|------------------12--10--9--10~--[long hold]-|
G|-10~------------------------------------------|
D|----------------------------------------------|
A|----------------------------------------------|
E|----------------------------------------------|

End Solo



Riff 5a (Solo Rhythm)
e|-------------------------------|
B|-------------------------------|
G|-------------------------------|
D|-------------------------------|
A|-7-8\-----2-5-6-7-8\-----2-5-6-|
E|-5-6\--00-0-3-4-5-6\--00-0-3-4-|
         **             **


Solo (Mustaine)
e|-------------------------------------|
B|-------------------------------------|
G|-------------------------------------|
D|-7tm----10tm----12tm-13tm-14tm-------|
A|-------------------------------------|
E|---------------------------------X\\-|

e|------------10-12-13-15-13-12tm--|
B|-10tm----13----------------------|
G|---------------------------------|
D|---------------------------------|
A|---------------------------------|
E|---------------------------------|

e|-17-19-20-22-22b24-22-22b24~~-|
B|------------------------------|
G|------------------------------|
D|------------------------------|
A|------------------------------|
E|------------------------------|

End Solo



Riff 5b (Solo Rhythm)
e|-----------------------------------|
B|-----------------------------------|
G|-----------------------------------|
D|-----------------------------------| ----|
A|-7----------------8----------------|     |
E|-5-55555555555555-6-66666666666666-|     |
     **************   **************       |
e|------------------------------------|    |--> Play 2x
B|------------------------------------|    |
G|------------------------------------|    |
D|------------------------------------| ---|
A|-3----------------2--------5------6-|
E|-1-11111111111111-0-000000-3-3333-4-|
     **************   ******   ****

e|--------------------------------|
B|--------------------------------|
G|--------------------------------|
D|--------------------------------|
A|-3----------------2------4------|
E|-1-11111111111111-0-/3-0-2-0-/3-|
     **************      *   *



Solo (Mustaine)
Main guitar
e|-----------------------------------------------|
B|-----------------------------------------------|
G|-----------------------------------------------|
D|------------14-12------------------14-12-------|
A|-12~--11-12-------11/12-10~--10-12-------10/12-|
E|-----------------------------------------------|

e|------------------------------------------------|
B|------------------------------------------------|
G|------------------------------------------------|
D|------------14-12-------------------14-12-------|
A|------------------------------------------------|
E|-13~--12-13-------12/13--12~--11-12-------11/12-|

e|-----------------------------------------------|
B|-----------------------------------------------|
G|-----------------------------------------------|
D|------------14-12------------------14-12-------|
A|-12~--11-12-------11/12-10~--10-12-------10/12-|
E|-----------------------------------------------|

e|------------------------------------------------|
B|------------------------------------------------|
G|------------------------------------------------|
D|------------14-12-------------------14-12-------|
A|------------------------------------------------|
E|-13~--12-13-------12/13--12~--11-12-------11/12-|

e|------------------------|
B|------------------------|
G|------------------------|
D|------------14-12-------|
A|------------------------|
E|-13~--12-13-------12/13-|


Harmony guitar (Enters during third bar):
e|----------------------------------------------|
B|----------------------------------------------|
G|------------12-10------------------12-10------|
D|-10~--9-10---------9/10-10~--9-10--------9/10-|
A|----------------------------------------------|
E|----------------------------------------------|

e|-------------------------------------------|
B|-------------------------------------------|
G|------------12-10----------------12-10-----|
D|-10~--9-10---------9/10-9~--8-9--------8/9-|
A|-------------------------------------------|
E|-------------------------------------------|

e|------------------------|
B|------------------------|
G|------------12-10-------|
D|-10~--9-10---------9/10-|
A|------------------------|
E|------------------------|


End Solo


Play Riff 1   Solo Rhythm

Ending:
e|------------------|
B|------------------|
G|------------------|
D|---------------5--|
A|-7--6--5----6--3--|
E|-5--4--3----4-----|

e|------------------|
B|------------------|
G|------------------|
D|---------------7--|
A|-7--6--5----6--5--|
E|-5--4--3----4-----|

e|---------------------|
B|---------------------|
G|---------------------|
D|---------------8-----|
A|-7--6--5----6--6--4--|
E|-5--4--3----4-----2--|


Ending Solo (Poland)
e|---------------------------------------|
B|---------------------------------------|
G|-------2-----3---3-2-------------------|
D|-/4~~----4p2---4-----4-3-2-------------|
A|---------------------------4-3-2-0---3-|
E|-----------------------------------2---|

e|-------------------------------------|
B|------------9b10r-9------------------|
G|--------10-10b11r10------------------|
D|-9b10r9------------------------------|
A|----------------------9b10-8~-7~-8-9-|
E|----------------------a----a--a--a-a-|

e|---------------------------------|
B|---------12b14--11b12r11---------|
G|-/11~--------------------9h11~~--|
D|---------------------------------|
A|---------------------------------|
E|---------------------------------|

e|----------------------------------------------|
B|------------19--------------------------------|
G|-17b18r17~------------------------------------|
D|----------------------------------------------|
A|------------------12b13r12-11~--10~--11~--12~-|
E|-------------------a--------------------------|

e|---------------------------------------------------|
B|-----------------19-17-14-17-14----14--------------|
G|-16b18r17b18r17~----------------17----[17]18r17b18-|
D|---------------------------------------------------|
A|---------------------------------------------------|
E|---------------------------------------------------|

e|----------------------------------------------------|
B|----------------------------------------------------|
G|-14----16p14-15p14----------------------------------|
D|----16-------------16p14----------------------------|
A|-------------------------16-14------------14~~--12~-|
E|-------------------------------17-14-17~------------|

e|--------------------|
B|--------------------|
G|--------------------|
D|--------------------|
A|-9~--8~--7~--8~--9~-|
E|--------------------|

e|-------17b19r17~~--------18b20--19b21r19--------|
B|----19----------------14-----------------17h19~-|
G|-16----------------16---------------------------|
D|------------------------------------------------|
A|------------------------------------------------|
E|------------------------------------------------|

e|------------------|
B|------------------|
G|------------------|
D|------------------|
A|-9~--8~--7~--(7)\-|
E|------------------|

e|--------------------|
B|--------------------|
G|--------------------|
D|-11~--10~--9~--(9)\-|
A|--------------------|
E|--------------------|

e|--------------------|
B|--------------------|
G|-11~--10~--9~--(9)\-|
D|--------------------|
A|--------------------|
E|--------------------|

e|------------------------------------|
B|-14~--13~--12~--13--14--17b19r17~~\-|
G|------------------------------------|
D|------------------------------------|
A|------------------------------------|
E|------------------------------------|

End Solo

---------------------------------------------

15.Hanger 18
Band:Megadeth
Album:Rust In Peace
Tuning:Standard

Riff 1
e|-1--1--1--1--1--1--1--1--1--1--1--1--1--1--1--1-|
B|-3--3--3--3--3--3--3--3--3--3--3--3--3--3--3--3-|
G|-2--2--2--2--2--2--2--2--2--2--2--2--2--2--2--2-|
D|-0--0--0--0--0--0--0--0--0--0--0--0--0--0--0--0-|
A|------------------------------------------------|
E|------------------------------------------------|

e|-1--1--1--1--1--1--1--1--1--1--1--1--1--1--1--1-|
B|-3--3--3--3--3--3--3--3--3--3--3--3--3--3--3--3-|
G|-3--3--3--3--3--3--3--3--3--3--3--3--3--3--3--3-|
D|-0--0--0--0--0--0--0--0--0--0--0--0--0--0--0--0-|
A|------------------------------------------------|
E|------------------------------------------------|

e|-1--1--1--1--1--1--1--1--1--1--1--1--1--1--1--1-|
B|-3--3--3--3--3--3--3--3--3--3--3--3--3--3--3--3-|
G|-4--4--4--4--4--4--4--4--4--4--4--4--4--4--4--4-|
D|-0--0--0--0--0--0--0--0--0--0--0--0--0--0--0--0-|
A|------------------------------------------------|
E|------------------------------------------------|

e|-5--5--5--5--5--5--5--5--5--5--5--5--5--5--5--5-|
B|-3--3--3--3--3--3--3--3--3--3--3--3--3--3--3--3-|
G|-5--5--5--5--5--5--5--5--5--5--5--5--5--5--5--5-|
D|-0--0--0--0--0--0--0--0--0--0--0--0--0--0--0--0-|
A|------------------------------------------------|
E|------------------------------------------------|

e|-5--5--5--5--5--5--5--5--5--5--5--5--5--5--5--5-|
B|-6--6--6--6--6--6--6--6--6--6--6--6--6--6--6--6-|
G|-7--7--7--7--7--7--7--7--7--7--7--7--7--7--7--7-|
D|------------------------------------------------|
A|------------------------------------------------|
E|------------------------------------------------|

e|-6--6--6--6--6--6--6--6--6--6--6--6--6--6--6--6-|
B|-6--6--6--6--6--6--6--6--6--6--6--6--6--6--6--6-|
G|-7--7--7--7--7--7--7--7--7--7--7--7--7--7--7--7-|
D|------------------------------------------------|
A|------------------------------------------------|
E|------------------------------------------------|

e|-7--7--7--7--7--7--7--7--7--7--7--7--7--7--7--7-|
B|-6--6--6--6--6--6--6--6--6--6--6--6--6--6--6--6-|
G|-7--7--7--7--7--7--7--7--7--7--7--7--7--7--7--7-|
D|------------------------------------------------|
A|------------------------------------------------|
E|------------------------------------------------|

e|-8--8--8--8--8--8--8--8--8--8--8--8--8--8--8--8-|
B|-8--8--8--8--8--8--8--8--8--8--8--8--8--8--8--8-|
G|-9--9--9--9--9--9--9--9--9--9--9--9--9--9--9--9-|
D|------------------------------------------------|
A|------------------------------------------------|
E|------------------------------------------------|


Riff 2
e|-----1-----5------------------1-----6-------|
B|---3---------6--------------3---------6-----|
G|-2-----2/------7----------3-----3/------7---| ----|
D|-----------------0------------------------0-|     |
A|--------------------------------------------|     |
E|--------------------------------------------|     |
                                                    |--> Play 2x
e|-----1-----7------------------5-----8-------|     |
B|---3---------6--------------3---------8-----|     |
G|-4-----4/------7----------5-----5/------9---|     |
D|-----------------0------------------------0-| ----|
A|--------------------------------------------|
E|--------------------------------------------|

Guitar 2
e|-------------------------------|
B|-------------------------------|
G|-------------------------------|
D|-2--------3--------4--------5--|
A|-0--------1--------2--------3--|
E|-------------------------------|

e|-----------------------------------|
B|-----------------------------------|
G|-----------------------------------|
D|-7----7----8----8----9----9----10--|
A|-5----5----5----5----5----5-----5--|
E|-----------------------------------|



Lead into next section:
Guitar 1
e|-----------------|
B|-6-5-3-----------|
G|-------5-3-2-----|
D|-------------5-3-|
A|-----------------|
E|-----------------|

Guitar 2
e|--------------------|
B|-10-8---------------|
G|------10-9-7--------|
D|-------------10-9-7-|
A|--------------------|
E|--------------------|


Riff 3
Guitar 1
e|-----------------------------------|
B|-----------------------------------|
G|-2-----/7~--------3-----/7~--------|
D|---0-0--------0-0---0-0--------0-0-|
A|-----------------------------------|
E|-----------------------------------|
     * *        * *   * *        * *
e|-----------------------------------|
B|-----------------------------------|
G|-4-----/7~--------5-----/7~--------|
D|---0-0--------0-0---0-0--------0-0-|
A|-----------------------------------|
E|-----------------------------------|
     * *        * *   * *        * *

Guitar 2
e|-----------------------------------|
B|-----------------------------------|
G|-7-----/10~-------7-----/10~-------|
D|---0-0--------0-0---0-0--------0-0-|
A|-----------------------------------|
E|-----------------------------------|
     * *        * *   * *        * *
e|-----------------------------------|
B|-----------------------------------|
G|-7-----/10~-------9-----/12~-------|
D|---0-0--------0-0---0-0--------0-0-|
A|-----------------------------------|
E|-----------------------------------|
     * *        * *   * *        * *


Riff 4
Guitar 1
e|---------------------------|
B|---------------------------|
G|-7\-2~--------7\-3~--------|
D|----------0-0----------0-0-|
A|---------------------------|
E|---------------------------|
            * *          * *
  "Possibly I've seen..."
e|-----------------------------|
B|-----------------------------|
G|-7\-4~--------7-5---5~--(5)\-|
D|----------0-0-----0----------|
A|-----------------------------|
E|-----------------------------|
            * *     *
  "Hangar 18..."

Guitar 2
e|---------------------------|
B|---------------------------|
G|-10\-7~--------10\-7~------|
D|----------0-0----------0-0-|
A|---------------------------|
E|---------------------------|
            * *          * *
e|-------------------------------|
B|-------------------------------|
G|-10\-7~--------10-9---9~--(9)\-|
D|----------0-0-------0----------|
A|-------------------------------|
E|-------------------------------|
            * *       *


Riff 5 (Solo Rhythm)
e|----------------------------------|
B|----------------------------------|
G|-----2-----2---2------3-----3---3-|
D|---0-----0----------0-----0-------|
A|-0-----0-----0----1-----1-----1---|
E|----------------------------------|
   * *   * *   *    * *   * *   *
e|----------------------------------|
B|----------------------------------|
G|-----4-----4---4------3-----3---3-|
D|---0-----0----------0-----0-------|
A|-2-----2-----2----1-----1-----1---|
E|----------------------------------|
   * *   * *   *    * *   * *   *
e|----------------------------------|
B|----------------------------------|
G|-----2-----2---2------3-----3---3-|
D|---0-----0----------0-----0-------|
A|-0-----0-----0----1-----1-----1---|
E|----------------------------------|
   * *   * *   *    * *   * *   *
e|----------------------------------|
B|----------------------------------|
G|-----4-----4---4------5-----5---5-|
D|---0-----0----------0-----0-------|
A|-2-----2-----2----3-----3-----3---|
E|----------------------------------|
   * *   * *   *    * *   * *   *
e|----------------------------------|
B|----------------------------------|
G|-----2-----2---2------3-----3---3-|
D|---0-----0----------0-----0-------|
A|-0-----0-----0----1-----1-----1---|
E|----------------------------------|
   * *   * *   *    * *   * *   *
e|----------------------------------|
B|----------------------------------|
G|-----4-----4---4------3-----3---3-|
D|---0-----0----------0-----0-------|
A|-2-----2-----2----1-----1-----1---|
E|----------------------------------|
   * *   * *   *    * *   * *   *
e|----------------------------------|
B|----------------------------------|
G|-----2-----2---2------3-----3---3-|
D|---0-----0----------0-----0-------|
A|-0-----0-----0----1-----1-----1---|
E|----------------------------------|
   * *   * *   *    * *   * *   *
e|-----------------|
B|-----------------|
G|-----4-----4---4-|
D|---0-----0-------|
A|-2-----2-----2---|
E|-----------------|
   * *   * *   *


Solo (Friedman)
e|-------------------------------------------|
B|-15b17~~----15b17--{16}----(17)r15---------|
G|-----------------------------------14-17~~-|
D|-------------------------------------------|
A|-------------------------------------------|
E|-------------------------------------------|

e|-------15-17-17/20-17h20p17---------------|
B|----13----------------------20--x-[20]22~-|
G|-14----------------------------x----------|
D|------------------------------------------|
A|------------------------------------------|
E|------------------------------------------|

e|-------------------------------|
B|-20b22r20p18-18b20r18----------|
G|-------------------------19~~--|
D|-------------------------------|
A|-------------------------------|
E|-------------------------------|

e|---------------------------------------------|
B|---------------------------------------------|
G|-----10-----10---10--------12-------12----12-|
D|---------------------------------------------|
A|-8-8----8-8----8-----10-10----10-10----10----|
E|---------------------------------------------|
   * *    * *    *      *  *     *  *     *
e|-------------------------------------|
B|-------------------------------------|
G|-----10-----10---10------9-----9---9-|
D|-------------------------------------|
A|-8-8----8-8----8-----7-7---7-7---7---|
E|-------------------------------------|
   * *    * *    *     * *   * *   *
e|-17p13----------13-17p13-17p13-17p13--13-|
B|------15------15--------------------15---|
G|--------14--14---------------------------|
D|----------15-----------------------------|
A|-----------------------------------------|
E|-----------------------------------------|

e|-18p13----------13-18p13-15p12-13-12-------17p13---16p13---16-16~~-|
B|------15------15---------------------15-13------15------15---------|
G|--------15--15-----------------------------------------------------|
D|----------15-------------------------------------------------------|
A|-------------------------------------------------------------------|
E|-------------------------------------------------------------------|

e|-x-20b22----20p17-22b25~~~-(25)r22\-|
B|-x----------------------------------|
G|------------------------------------|
D|------------------------------------|
A|------------------------------------|
E|------------------------------------|

e|---------------------------------------------|
B|---------------------------------------------|
G|-----10-----10---10--------12-------12----12-|
D|---------------------------------------------|
A|-8-8----8-8----8-----10-10----10-10----10----|
E|---------------------------------------------|
   * *    * *    *      *  *     *  *     *
e|---------------------|
B|---------------------|
G|-----10-----10---10--|
D|---------------------|
A|-8-8----8-8----8-----|
E|---------------------|
   * *    * *    *

End Solo

Lead into next riff:
Guitar 1
e|-5-3-1-0--3-1-0----1-0-----------------|
B|----------------3------3-1--5-3-1---3~-|
G|----------------------------------3----|
D|---------------------------------------|
A|---------------------------------------|
E|---------------------------------------|

Guitar 2
e|-------------------------------------------|
B|-------------------------------------------|
G|-10-9-7----9-7------7------------------7~~-|
D|--------10-----10-8---10-8-7-10-8-7--------|
A|------------------------------------10-----|
E|-------------------------------------------|


Play Riff 3
Play Riff 4  "Possibly..."
Play Riff 5  Solo Rhythm

Riff 5a (Solo Rhythm)
e|----------------------------------|
B|----------------------------------|
G|-----2-----2---2------3-----3---3-|
D|---0-----0----------0-----0-------|
A|-0-----0-----0----1-----1-----1---|
E|----------------------------------|
   * *   * *   *    * *   * *   *
e|----------------------------------|
B|----------------------------------|
G|-----4-----4---4------3-----3---3-|
D|---0-----0----------0-----0-------|
A|-2-----2-----2----1-----1-----1---|
E|----------------------------------|
   * *   * *   *    * *   * *   *
e|----------------------------------|
B|----------------------------------|
G|-----2-----2---2------3-----3---3-|
D|---0-----0----------0-----0-------|
A|-0-----0-----0----1-----1-----1---|
E|----------------------------------|
   * *   * *   *    * *   * *   *
e|----------------------------------|
B|----------------------------------|
G|-----4-----4---4------5-----5---5-|
D|---0-----0----------0-----0-------|
A|-2-----2-----2----3-----3-----3---|
E|----------------------------------|
   * *   * *   *    * *   * *   *
e|----------------------------------|
B|----------------------------------|
G|-----2-----2---2------3-----3---3-|
D|---0-----0----------0-----0-------|
A|-0-----0-----0----1-----1-----1---|
E|----------------------------------|
   * *   * *   *    * *   * *   *
e|----------------------------------|
B|----------------------------------|
G|-----4-----4---4------3-----3---3-|
D|---0-----0----------0-----0-------|
A|-2-----2-----2----1-----1-----1---|
E|----------------------------------|
   * *   * *   *    * *   * *   *
e|----------------------------------|
B|----------------------------------|
G|-----2-----2---2------3-----3---3-|
D|---0-----0----------0-----0-------|
A|-0-----0-----0----1-----1-----1---|
E|----------------------------------|
   * *   * *   *    * *   * *   *
e|----------------------------------|
B|----------------------------------|
G|-----4-----4---4------5-----5---5-|
D|---0-----0----------0-----0-------|
A|-2-----2-----2----3-----3-----3---|
E|----------------------------------|
   * *   * *   *    * *   * *   *
e|-----------------|
B|-----------------|
G|-----6-----6---6-|
D|---0-----0-------|
A|-4-----4-----4---|
E|-----------------|
   * *   * *  *


Solo (Friedman)
e|-------------------------------------------------------|
B|-----------x-15-17-[17]18r17b18--{17}-(18)r17-15-18b20-|
G|---17b19~--x-------------------------------------------|
D|-x-----------------------------------------------------|
A|-x-----------------------------------------------------|
E|-------------------------------------------------------|

e|--------------------------------|
B|-18p15-15h18p15-----------------|
G|----------------17b19--(17)~~~\-|
D|--------------------------------|
A|--------------------------------|
E|--------------------------------|

e|---------------------------------------------|
B|---------------------------------------------|
G|-----10-----10---10--------12-------12----12-|
D|---------------------------------------------|
A|-8-8----8-8----8-----10-10----10-10----10----|
E|---------------------------------------------|
   * *    * *    *      *  *     *  *     *
e|-------------------------------------|
B|-------------------------------------|
G|-----10-----10---10------9-----9---9-|
D|-------------------------------------|
A|-8-8----8-8----8-----7-7---7-7---7---|
E|-------------------------------------|
   * *    * *    *     * *   * *   *
e|-------------------17---18~~-----------------17-19-16---------|
B|-20b22~~--18-17--------x------------17-18-20---------18-15----|
G|---------------19-----x-------17-19------------------------16-|
D|-----------------19-------------------------------------------|
A|--------------------------------------------------------------|
E|--------------------------------------------------------------|

e|-----------16-20b22r20-20b22--20-22b22~~\-|
B|-----15--18-------------------------------|
G|---16--19---------------------------------|
D|-18---------------------------------------|
A|------------------------------------------|
E|------------------------------------------|

e|---------------------------------------------|
B|---------------------------------------------|
G|-----10-----10---10--------12-------12----12-|
D|---------------------------------------------|
A|-8-8----8-8----8-----10-10----10-10----10----|
E|---------------------------------------------|
   * *    * *    *      *  *     *  *     *
e|-------------------------------------|
B|-------------------------------------|
G|-----10-----10---10------9-----9---9-|
D|-------------------------------------|
A|-8-8----8-8----8-----7-7---7-7---7---|
E|-------------------------------------|
   * *    * *    *     * *   * *   *
e|----------------------9-13p9----|
B|-----------------9h12--------12-|
G|--------------10----------------|
D|---------9h11-------------------|
A|------11------------------------|
E|-9h13---------------------------|

End Solo


Riff 6 (Solo Rhythm)       x3
e|--------------------------|
B|--------------------------|
G|-7------------------------|
D|-------------------7-8----|
A|---5-5-5--5-8-5--5-5-6--5-|
E|--------------------------|

e|---------------------------|
B|---------------------------|
G|-7-------------------------|
D|-------------------6p5-----|
A|---5-5-5--5-8-5--5-----8p5-|
E|---------------------------|
                           x3
e|--------------------------|
B|--------------------------|
G|-7------------------------|
D|-------------------7-8----|
A|---5-5-5--5-8-5--5-5-6--5-|
E|--------------------------|

e|----------------------------|
B|----------------------------|
G|-7--------------------------|
D|------------6p5-----6p5-----|
A|---5-5-5--5-----8p5-----8p5-|
E|----------------------------|

Solo (Friedman)
e|-------------------------------------------|
B|-15-----------13--------12/15\12-----------|
G|--------------------------------10---------|
D|----12~----10----10~--9-----------12\10/12-|
A|-------------------------------------------|
E|-------------------------------------------|

e|--------------------14/17-14-------------------------------|
B|-10p7h8-7--------10----------16-13~~\-----15/20-16---------|
G|----------8-7~~------------------------11----------17------|
D|------------------------------------------------------19~~-|
A|-----------------------------------------------------------|
E|-----------------------------------------------------------|

e|--------------11-15-14----11-------------------|
B|-----------13----------13----15----13----------|
G|--------12----------------------14----17b19~~\-|
D|-/12-13----------------------------------------|
A|-----------------------------------------------|
E|-----------------------------------------------|

e|-/17-14-14-14-15-11-11-14-10-10-10-11-8-8-10-6-6-6-|
B|---------------------------------------------------|
G|---------------------------------------------------|
D|---------------------------------------------------|
A|---------------------------------------------------|
E|---------------------------------------------------|

e|-8-5-5-6-5h6p5---5-------------------------|
B|---------------8---8-[8]10r8-8b10~~-(10)r8-|
G|-------------------------------------------|
D|-------------------------------------------|
A|-------------------------------------------|
E|-------------------------------------------|

e|------------------------------------------------------|
B|-7h8h10p8p7---7h8p7~~----10h11h13p11p10----10h11p10~~-|
G|------------8---------------------------12------------|
D|------------------------------------------------------|
A|------------------------------------------------------|
E|------------------------------------------------------|

e|----------------------------------------14-15-17-18b20~~-|
B|-13h15h16p15p13----15p13----13-13-15-16------------------|
G|----------------15-------15------------------------------|
D|---------------------------------------------------------|
A|---------------------------------------------------------|
E|---------------------------------------------------------|

End Solo


Riff 7
e|---------------------------|
B|---------------------------|
G|---------------------------|
D|-------4-----------------5-|
A|-----------------------5---|
E|-0h1/2---2--2-5-2--2-3-----|
                       * *
e|-----------------------------|
B|-----------------------------|
G|-----------------------------|
D|-------4---------------------|
A|---------------------3p2-----|
E|-0h1/2---2--2-5-2--2-----5p2-|

e|---------------------------|
B|---------------------------|
G|---------------------------|
D|-------4-----------------5-|
A|-----------------------5---|
E|-0h1/2---2--2-5-2--2-3-----|
                       * *
e|------------------------------|
B|------------------------------|
G|--------------5p4-----6p5-----|
D|-------4----------7p4-----8p5-|
A|------------------------------|
E|-0h1/2---2--2-----------------|



Play Riff 6   Solo Rhythm


Solo (Friedman)
e|----------------------------------------14-15p14--10-------|
B|----------10-13-10-13/15-13-15-10-13-15--------------13p10-|
G|----11-12--------------------------------------------------|
D|-12--------------------------------------------------------|
A|-----------------------------------------------------------|
E|-----------------------------------------------------------|

e|------------------------------------------|
B|-/22--------------------------------------|
G|-----17p14-17p14\11-12-11h12p11\-7b8r7----|
D|---------------------------------------10-|
A|------------------------------------------|
E|------------------------------------------|

e|--------------------------/15-11-------------|
B|-----7-10-9-10-7-8-7-4-----------13----------|
G|-7/8-------------------7------------14-11/13-|
D|---------------------------------------------|
A|---------------------------------------------|
E|---------------------------------------------|

e|-----------------------------17------------------|
B|----13-16--------13-16-15/16----16\15-13---------|
G|-14-------13--14-------------------------16b17~~-|
D|-------------------------------------------------|
A|-------------------------------------------------|
E|-------------------------------------------------|

e|----------------------------------------------------|
B|-10-10/13-13-13-13\12-12-12-12/20-20-20-20\19-19-19-|
G|----------------------------------------------------|
D|----------------------------------------------------|
A|----------------------------------------------------|
E|----------------------------------------------------|

e|-------------------------------------------------------------|
B|-19\13-13-13-13h15p13-10h13-15-12h13p12-10-12-13-12-10h12p10-|
G|-------------------------------------------------------------|
D|-------------------------------------------------------------|
A|-------------------------------------------------------------|
E|-------------------------------------------------------------|

e|----------------------7-8-10-12p10-8-10p8-7-10p8-7--7-8-7-----|
B|-8-12-10-8h10p8-7-8-10----------------------------10-----10-8-|
G|--------------------------------------------------------------|
D|--------------------------------------------------------------|
A|--------------------------------------------------------------|
E|--------------------------------------------------------------|

e|------10-------------------------------|
B|-7h10----10p7---7---7------------------|
G|--------------9---9---9b11--(11)r9-7~~-|
D|---------------------------------------|
A|---------------------------------------|
E|---------------------------------------|

End Solo


Play Riff 7

Riff 8                        x4
e|-----------------------------|
B|-----------------------------|
G|-----------------------------|
D|-----------------------------|
A|-----------------4/5-4/5-4/5-|
E|-3-2-0-2-3-5-3-2-2/3-2/3-2/3-|
   * * * * * * * *


Play Riff 7   Solo Rhythm


Solo (Mustaine)
e|-17-17-17-17-17-16-14--17-17-17-17-17-16-14-|
B|--------------------------------------------|
G|--------------------------------------------|
D|--------------------------------------------|
A|--------------------------------------------|
E|--------------------------------------------|

e|-17-17-17-17-17-16-14--17-17-17-17-17-16-14-|
B|--------------------------------------------|
G|--------------------------------------------|
D|--------------------------------------------|
A|--------------------------------------------|
E|--------------------------------------------|

e|-17-17-17-17-17-16-14-----------------------|
B|-----------------------17-17-17-17-17-16-14-|
G|--------------------------------------------|
D|--------------------------------------------|
A|--------------------------------------------|
E|--------------------------------------------|

e|--------------------------------------------|
B|--------------------------------------------|
G|-16-16-15-15-14-14-----14-------------------|
D|-------------------16-----16-16-16-16-14----|
A|-----------------------------------------16-|
E|--------------------------------------------|

e|--------------------------------------------------------|
B|-----------------------------------------------16-------|
G|---14--14-14-----16-----14-----16--14-14h16/17----17h18-|
D|-14--14-----16-16--16-16--16-16--16---------------------|
A|--------------------------------------------------------|
E|--------------------------------------------------------|

e|----------------------------------x-|
B|-17-16-14-17-19p17p14-14-14-14-17-x-|
G|------------------------------------|
D|------------------------------------|
A|------------------------------------|
E|------------------------------------|

e|-14-17p14-14-17-14-19p17p14-14-14-19b21-19p17----19b21~~-|
B|----------------------------------------------19---------|
G|---------------------------------------------------------|
D|---------------------------------------------------------|
A|---------------------------------------------------------|
E|---------------------------------------------------------|

End Solo


Play Riff 8
Play Riff 7   Solo Rhythm

Solo (Friedman)
e|-------------------------------22b24r22--21p20----21~~\-|
B|-21b23r21--------------------------------------20-------|
G|-----------18-21b23~~----21-18--------------------------|
D|--------------------------------------------------------|
A|--------------------------------------------------------|
E|--------------------------------------------------------|

e|-------------14-15----------------------------------|
B|-------------------15-------------------------------|
G|-18p14----------------17-14----14-17-14h17p14h17p14-|
D|-------18-14----------------18----------------------|
A|----------------------------------------------------|
E|----------------------------------------------------|

e|---------------------------------------------------------------|
B|----14-17p14----17p14-----------14-17p14----17p14-------17b19\-|
G|-17----------17-------17-14--17----------17-------17-14--a-----|
D|---------------------------------------------------------------|
A|---------------------------------------------------------------|
E|---------------------------------------------------------------|

End Solo

Play Riff 8
Play Riff 7   Solo Rhythm


Solo (Mustaine)
e|-21-17-14-17-14-14-------------------|
B|-------------------21-17-14-17-14-14-|
G|-------------------------------------|
D|-------------------------------------|
A|-------------------------------------|
E|-------------------------------------|

e|-------------------------------------|
B|-21-17-14-17-14-14-------------------|
G|-------------------21-17-14-17-14-14-|
D|-------------------------------------|
A|-------------------------------------|
E|-------------------------------------|

e|-------------------------------------|
B|-21-17-14-17-14-14-------------------|
G|-------------------21-17-14-17-14-14-|
D|-------------------------------------|
A|-------------------------------------|
E|-------------------------------------|

e|-------------------------------------|
B|-------------------------------------|
G|-21-17-14-17-14-14-------------------|
D|-------------------21-17-14-17-14-14-|
A|-------------------------------------|
E|-------------------------------------|

e|-------------------------------------|
B|-------------------------------------|
G|-------------------------------------|
D|-21-17-14-17-14-14-------------------|
A|-------------------21-17-14-17-14-14-|
E|-------------------------------------|

e|---------------------------------------------|
B|---------------------------------------------|
G|---------------------------------------------|
D|------------------------------14h21-14h17h21-|
A|----------------14h21-14h17h21---------------|
E|-14h21-14h17h21------------------------------|

e|-------------------------------14h21p14\--------|
B|----------------14h21-14h17h21------------------|
G|-14h21-14h17h21---------------------------------|
D|------------------------------------------------|
A|-------------------------------------------/17~-|
E|------------------------------------------------|

End Solo

Play Riff 8
Play Riff 7   Solo Rhythm


Solo (Friedman)
e|------------------------10-9---------14p10-12----10-|
B|-9-12-10-9----10-9-----------12-10-9----------14----|
G|-----------11------11-9-----------------------------|
D|----------------------------------------------------|
A|----------------------------------------------------|
E|----------------------------------------------------|

e|---------------------12h14h18p14h18p14h18p14h18p14h18p14-------|
B|-13h14p10-14/15\14/15-----------------------------------17b19~-|
G|---------------------------------------------------------------|
D|---------------------------------------------------------------|
A|---------------------------------------------------------------|
E|---------------------------------------------------------------|

e|-14-------------14----------------------------------------|
B|---17p14------14--14-17p14-19-14-----------14-17-14-------|
G|--------16b18--------------------16b18r16-----------16b18-|
D|----------------------------------------------------------|
A|----------------------------------------------------------|
E|----------------------------------------------------------|

e|-14----------14----------------------14-------------|
B|----14h17--14---14-------------14-17----------------|
G|------------------16b18r16--14----------16-17b19~~\-|
D|----------------------------------------------------|
A|----------------------------------------------------|
E|----------------------------------------------------|

End Solo


Play Riff 8
Play Riff 7  Solo Rhythm

Solo (Mustaine)
e|-5-4-2-4-2---------------8-7-5-7-5---------------|
B|-----------5-5-4-2-2-4-5-----------8-8-7-5-5-7-8-|
G|-------------------------------------------------|
D|-------------------------------------------------|
A|-------------------------------------------------|
E|-------------------------------------------------|

e|-11-10-8-10-8--------------------|
B|--------------11-11-10-8-8-10-11-|
G|---------------------------------|
D|---------------------------------|
A|---------------------------------|
E|---------------------------------|

e|-14-13-11-13-11----------------------|
B|----------------14-14-13-11-11-13-14-|
G|-------------------------------------|
D|-------------------------------------|
A|-------------------------------------|
E|-------------------------------------|

e|-17-16-14-16-14----------------------|
B|----------------17-17-16-14-14-16-17-|
G|-------------------------------------|
D|-------------------------------------|
A|-------------------------------------|
E|-------------------------------------|

e|-20-19-17-19-17----------------------|
B|----------------20-20-19-17-17-19-20-|
G|-------------------------------------|
D|-------------------------------------|
A|-------------------------------------|
E|-------------------------------------|

e|-23-22-20-22-20--------------|
B|----------------23-23-22-20\-|
G|-----------------------------|
D|-----------------------------|
A|-----------------------------|
E|-----------------------------|

e|-/6/7/9/11/13/14/16/18/20/22/23/24b26-24b26-|
B|--------------------------------------------|
G|--------------------------------------------|
D|-[steady gliss, notes shown are random]-----|
A|--------------------------------------------|
E|--------------------------------------------|

e|-24b26----24b26----24b26----24b26-|
B|----------------------------------|
G|----------------------------------|
D|----------------------------------|
A|----------------------------------|
E|----------------------------------|

e|-24b26-24b26-24b26-24b26-24b26-24b26-24b26-24b26-|
B|-------------------------------------------------|
G|-------------------------------------------------|
D|-------------------------------------------------|
A|-------------------------------------------------|
E|-------------------------------------------------|

e|-24b26tm--------(24b26tm)--------(24b26tm)\-|
B|--------------------------------------------|
G|--------------------------------------------|
D|--------------------------------------------|
A|--------------------------------------------|
E|--------------------------------------------|

End Solo


Ending
e|--------------------------------------------------|
B|--------------------------------------------------|
G|--------------------------------------------------|
D|--------------------------------------------------|
A|--5-------(5)----------------------4/5-4/5-4/5-4\-|
E|--3-------(3)------3-2-0-2-3-5-3-2-2/3-2/3-2/3-2\-|
                     * * * * * * * *

---------------------------------------------------------

16.Sweating Bullets
Band:Megadeth
Album:Countdown To Extinction
Tuning:Standard

Remix/Remastered edition intro:
e|-------------------------------------|
B|-------------------------------------|
G|-------------------------------------|
D|---------------9--8------------------|
A|-7----9--10------------10--9----9-10-|
E|-------------------------------------|

e|----------------------------------|
B|----------------------------------|
G|-----------------------7----------|
D|---------------9--8-------9-------|
A|-7----9--10--------------------10-|
E|----------------------------------|

e|---------------------------------------|
B|---------------------------------------|
G|---------------------------------------|
D|---------------9--8--------------------|
A|-7----9--10------------10--9----9-10-7-|
E|-------------------------------------0-|


Original studio version intro:

Intro
Guitar 1
e|-------------------------------|
B|-------------------------------|
G|-------------------------------|
D|-------------1-0---------------|
A|-2----1-2----2-1----2-1----1-2-|
E|-0----2-3-----------3-2----2-3-|

e|------------------------------|
B|------------------------------|
G|------------------------------|
D|-------------1-0---/4-1-------|
A|-2----1-2----2-1---/5-2-------|
E|-0----2-3------------------3^-|

e|---------------------------------|
B|---------------------------------|
G|---------------------------------|
D|-------------1-0-----------------|
A|-2----1-2----2-1----2-1----1-2-2-|
E|-0----2-3-----------3-2----2-3-0-|


Guitar 2
e|-----------------------------------|
B|-----------------------------------|
G|---------------7--6----------------|
D|-------7--9------------9--8----8-9-|
A|-10--------------------------------|
E|-----------------------------------|

e|----------------------------------|
B|----------------------------------|
G|---------------7--6----11--8------|
D|-------7--9---------------------9-|
A|-10-------------------------------|
E|----------------------------------|

e|--------------------------------------|
B|--------------------------------------|
G|---------------7--6-------------------|
D|-------7--9------------9--8----8-9----|
A|-10--------------------------------10-|
E|--------------------------------------|




Riff 1                      x4
e|---------------------------|-------|
B|---------------------------|-------|
G|---------------------------|-------|
D|------9-----------------9--|-------|
A|---7--7--------------7--7--|-------|
E|-6-5---------------6-5-----|--X\\--|
         "Hello me..."



Riff 2
Guitar 1
e|----------------------------|
B|----------------------------|
G|----------------------------|
D|----------------------------|
A|-2--5--7----5--8--7-----8-7-|
E|-0--3--5--0-3--6--5--0--6-5-|
   *  *  *  * *        *
   "Feeling paranoid..."
e|----------------------------|
B|----------------------------|
G|----------------------------|
D|----------------------------|
A|-2--5--7----5--8--7--5----3-|
E|-0--3--5--0-3--6--5--3--0-1-|
   *  *  *  * *        *  *
   "...or false friend..."
e|----------------------------|
B|----------------------------|
G|----------------------------|
D|----------------------------|
A|-2--5--7----5--8--7-----8-7-|
E|-0--3--5--0-3--6--5--0--6-5-|
   *  *  *  * *        *
   "Anxiety's attacking me..."
e|-----------------|
B|-----------------|
G|-----------------|
D|-----------------|
A|-2--5--7----3--2-|
E|-0--3--5--0-1--0-|
   *  *  *  *
   "...air is getting thin."
e|----------------------------|
B|----------------------------|
G|----------------------------|
D|----------------------------|
A|-2--5--7----5--8--7-----8-7-|
E|-0--3--5--0-3--6--5--0--6-5-|
   *  *  *  * *        *
   "I'm in trouble..."
e|----------------------------|
B|----------------------------|
G|----------------------------|
D|----------------------------|
A|-2--5--7----5--8--7--5----3-|
E|-0--3--5--0-3--6--5--3--0-1-|
   *  *  *  * *        *  *
   "...haven't got to yet..."
e|----------------------------|
B|----------------------------|
G|----------------------------|
D|----------------------------|
A|-2--5--7----5--8--7-----8-7-|
E|-0--3--5--0-3--6--5--0--6-5-|
   *  *  *  * *        *
   "I'm chomping at the bit..."
e|-------------------------|
B|-------------------------|
G|-------------------------|
D|-----------------9--7-9--|
A|-8--7--5--3-2----7--5-7--|
E|-6--5--3--1-0------------|
   "...palms are getting wet..."

Guitar 2
e|-12-------11-------10--------9-------|
B|-15b17~---14b16~---13b15~---12b14~---|
G|-------------------------------------|
D|-------------------------------------|
A|-------------------------------------|
E|-------------------------------------|

e|--8--------7-------6---------------|
B|-11b13~---10b12~---9b11~-----------|
G|---------------------------3b4-0---|
D|-----------------------------------|
A|-----------------------------------|
E|-----------------------------------|

e|-12-------11-------10--------9-------|
B|-15b17~---14b16~---13b15~---12b14~---|
G|-------------------------------------|
D|-------------------------------------|
A|-------------------------------------|
E|-------------------------------------|

e|--8--------7-------|
B|-11b13~---10b12~---|
G|-------------------|
D|-------------------|
A|-------------------|
E|-------------------|

e|------------------------|
B|------------------------|
G|----------------------7-|
D|-----------------9--7-5-|
A|-8--7--5--3-2----7--5---|
E|-6--5--3--1-0-----------|


Play Riff 1  "Hello me, it's me again..."
Play Riff 2  "Feeling claustrophobic..."


Riff 3 (Solo Rhythm, Play 4x)
e|--------------------------------------|
B|--------------------------------------|
G|--------------------------------------|
D|--------------------------------------|
A|-------------2--------2--------2--8-7-|
E|-0-0-0-0-0-0-0--0-0-0-0--0-0-0-0--6-5-|
   * * * * * *    * * *    * * * *  *
e|--------------------------------------|
B|--------------------------------------|
G|--------------------------------------|
D|--------------------------------------|
A|-------------2--------2--------2--8-7-|
E|-0-0-0-0-0-0-0--0-0-0-0--0-0-0-0--6-5-|
   * * * * * *    * * *    * * * *  *
e|-----------------------------------------|
B|-----------------------------------------|
G|-----------------------------------------|
D|-----------------------------------------|
A|-------------5--------------------8--7-3-|
E|-3-3-3-3-3-3-3--3-3-3-5-5-5-5-5-5-6--5-1-|
   * * * * * *    * * * * * * * * *
e|--------------------------------------|
B|--------------------------------------|
G|--------------------------------------|
D|--------------------------------------|
A|-------------2--------2--------2--8-7-|
E|-0-0-0-0-0-0-0--0-0-0-0--0-0-0-0--6-5-|
   * * * * * *    * * *    * * * *  *


Solo (Mustaine)
e|----------------------------12-------------------|
B|----------------------------h.-12----------------|
G|-------------------------------h.-12-------------|
D|----------------------------------h.-12----------|
A|-------------------------7-----------h.-12-------|
E|-3------5----6-5-1----0-----------------h.-12-12-|
                                             h. h.
e|-15-14-13-12-----------------------|
B|------------16-15-14-13------------|
G|-----------------------16-15-14-13-|
D|-----------------------------------|
A|-----------------------------------|
E|-----------------------------------|

e|-----------------------------------|
B|-16-15-14-13-----------------------|
G|------------16-15-14-13------------|
D|-----------------------17-16-15-14-|
A|-----------------------------------|
E|-----------------------------------|

e|-----------------------------------|
B|-----------------------------------|
G|-16-15-14-13-----------------------|
D|------------17-16-15-14------------|
A|-----------------------18-17-16-15-|
E|-----------------------------------|

e|-----------------------------------|
B|-----------------------------------|
G|-----------------------------------|
D|-17-16-15-14-----------------------|
A|------------18-17-16-15------------|
E|-----------------------19-18-17-16-|

e|-----------------------------------|
B|-----------------------------------|
G|-----------------------------------|
D|----------------------------9----9-|
A|----------10----10-12-10-12---12---|
E|-12-10-12----12--------------------|

e|----------------------------|
B|----------------------------|
G|---------9----9-12p10p9-10~-|
D|-12-9-12---12---------------|
A|----------------------------|
E|----------------------------|

e|--------------------------------|
B|--------------------------------|
G|-9h10p9----9-10-12p10p9-10p9----|
D|--------12-------------------12-|
A|--------------------------------|
E|--------------------------------|

e|--------------------------------|
B|--------------------------------|
G|-9h10p9----9--------------------|
D|--------12---12-12p10p9-10p9----|
A|-----------------------------12-|
E|--------------------------------|

e|--------------------------------|
B|--------------------------------|
G|--------------------------------|
D|-9h10p9----9-10-12p10p9-10p9----|
A|--------12-------------------12-|
E|--------------------------------|

e|--------------------------------|
B|--------------------------------|
G|--------------------------------|
D|-9------------------------------|
A|---12p10-12p10----10------------|
E|---------------12----12p10-12~--|

e|----------------------------------------|
B|----------------------------------------|
G|----------------------------------------|
D|----------------------------------------|
A|-------------------------------12-12-12-|
E|-12-12-12--15-15-15--14-14-14-----------|
    *  *  *   *  *  *   *  *  *   *  *  *
e|----------------------------------------|
B|----------------------------------------|
G|----------------------------------------|
D|----------------------------------------|
A|-15-15-15--14-14-14--12-12-12-----------|
E|-------------------------------15-15-15-|
    *  *  *   *  *  *   *  *  *   *  *  *
e|----------------------------------------|
B|----------------------------------------|
G|----------------------------------------|
D|----------------------------------------|
A|----------------------------------------|
E|-14-14-14--12-12-12--14-14-14--15-15-15-|
    *  *  *   *  *  *   *  *  *   *  *  *
e|-----------------------------------|
B|-----------------------------------|
G|-----------------------------------|
D|------------------------------12~--|
A|-12-12-12--14-14-14--15-15-15------|
E|-----------------------------------|
    *  *  *   *  *  *   *  *  *
e|-15---16---17---18---19---20---21---22---22b24~~-|
B|----14---15---16---17---18---19---20---21--------|
G|-------------------------------------------------|
D|-------------------------------------------------|
A|-------------------------------------------------|
E|-------------------------------------------------|

End Solo


Riff 4            x3
e|-----------------|
B|-----------------|
G|-----------------|
D|-10--------------|
A|--8--10--9--5--2-|
E|------8--7--3--0-|

e|-----------------------------------|
B|-----------------------------------|
G|-----------------------------------|
D|-10--------------------------------|
A|--8--10--9--5--2--------3--------4-|
E|------8--7--3--0--------1--------2-|


Riff 5
e|-----------------------------------|
B|-----------------------------------|
G|-----------------------------------|
D|-----------------------------------| ---|
A|-5-------4-------3-------2-------1-|    |
E|---0-2-3---0-2-3---0-2-3---0-2-3---|    |
     * * *   * * *   * * *   * * *        |
e|-------------------------------|        |--> Play 4x
B|-------------------------------|        |
G|-------------------------------|        |
D|-------------------------------|  ------|
A|-------0-----------------------|
E|-0-2-3---0-2-3-4-3-2-1-0-1-2-3-|
   * * *   * * * * * * * * * * *

e|-----------------------|
B|-----------------------|
G|-----------------------|
D|-----------------------|
A|-11-10-9-8----------2--|
E|------------4-3-2-1-0--|


Play Riff 1  "Well me it's nice..."

Riff 2a
Guitar 1
e|----------------------------|
B|----------------------------|
G|----------------------------|
D|----------------------------|
A|-2--5--7----5--8--7-----8-7-|
E|-0--3--5--0-3--6--5--0--6-5-|
   *  *  *  * *        *
   "Feeling paranoid..."
e|----------------------------|
B|----------------------------|
G|----------------------------|
D|----------------------------|
A|-2--5--7----5--8--7--5----3-|
E|-0--3--5--0-3--6--5--3--0-1-|
   *  *  *  * *        *  *
   "...or false friend..."
e|----------------------------|
B|----------------------------|
G|----------------------------|
D|----------------------------|
A|-2--5--7----5--8--7-----8-7-|
E|-0--3--5--0-3--6--5--0--6-5-|
   *  *  *  * *        *
   "Anxiety's attacking me..."
e|-----------------|
B|-----------------|
G|-----------------|
D|-----------------|
A|-2--5--7----3--2-|
E|-0--3--5--0-1--0-|
   *  *  *  *
   "...air is getting thin."
e|----------------------------|
B|----------------------------|
G|----------------------------|
D|----------------------------|
A|-2--5--7----5--8--7-----8-7-|
E|-0--3--5--0-3--6--5--0--6-5-|
   *  *  *  * *        *
   "Feeling claustrophobic..."
e|----------------------------|
B|----------------------------|
G|----------------------------|
D|----------------------------|
A|-2--5--7----5--8--7--5----3-|
E|-0--3--5--0-3--6--5--3--0-1-|
   *  *  *  * *        *  *
   "...walls are caving in..."
e|----------------------------|
B|----------------------------|
G|----------------------------|
D|----------------------------|
A|-2--5--7----5--8--7-----8-7-|
E|-0--3--5--0-3--6--5--0--6-5-|
   *  *  *  * *        *
   "Bloodstains on my hands..."
e|-------------------|
B|-------------------|
G|-------------------|
D|-----------------9-|
A|-8--7--5--3-2----7-|
E|-6--5--3--1-0------|
   "...don't know where I've been."

Guitar 2
e|-12-------11-------10--------9-------|
B|-15b17~---14b16~---13b15~---12b14~---|
G|-------------------------------------|
D|-------------------------------------|
A|-------------------------------------|
E|-------------------------------------|

e|--8--------7-------6--------------|
B|-11b13~---10b12~---9b11~----------|
G|---------------------------3b4-0--|
D|----------------------------------|
A|----------------------------------|
E|----------------------------------|

e|-12-------11-------10--------9-------|
B|-15b17~---14b16~---13b15~---12b14~---|
G|-------------------------------------|
D|-------------------------------------|
A|-------------------------------------|
E|-------------------------------------|

e|--8--------7-------|
B|-11b13~---10b12~---|
G|-------------------|
D|-------------------|
A|-------------------|
E|-------------------|

e|--------------------|
B|--------------------|
G|--------------------|
D|-----------------9--|
A|-8--7--5--3-2----7--|
E|-6--5--3--1-0-------|


Riff 2b
Guitar 1
e|---------------------------------|
B|---------------------------------|
G|---------------------------------| ---|
D|---------------------------------|    |
A|---------------------------------|    |
E|-000-333-555-333-666-555-333-555-|    |
   *** *** *** *** *** *** *** ***      |
   "Once you committed me..."           |--> Play 3x
e|---------------------------------|    |
B|---------------------------------|    |
G|---------------------------------|    |
D|---------------------------------| ---|
A|---------------------------------|
E|-000-333-555-333-666-555-333-111-|
   *** *** *** *** *** *** *** ***
   "...now you've acquitted me..."

e|---------------------------------|
B|---------------------------------|
G|---------------------------------|
D|---------------------------------|
A|---------------------------------|
E|-000-333-555-333-666-555-333-555-|
   *** *** *** *** *** *** *** ***
   "Well here I go again..."

Guitar 2
e|-12-------11-------10--------9-------|
B|-15b17~---14b16~---13b15~---12b14~---|
G|-------------------------------------|
D|-------------------------------------| --> Play 3x
A|-------------------------------------|
E|-------------------------------------|

e|--8--------7-------|
B|-11b13~---10b12~---|
G|-------------------|
D|-------------------|
A|-------------------|
E|-------------------|


Ending
Guitar 1
e|--------------------------------------|
B|--------------------------------------|
G|--------------------------------------|
D|-----------------9--7-9-------------9-|
A|-8--7--5--3-2----7--5-7----------7--7-|
E|-6--5--3--1-0------------------6-5----|
                  "Sweating bullets!"

Guitar 2
e|--------------------------------------|
B|--------------------------------------|
G|----------------------7---------------|
D|-----------------9--7-5-------------9-|
A|-8--7--5--3-2----7--5------------7--7-|
E|-6--5--3--1-0------------------6-5----|

------------------------------------------------

17.Symphony Of Destruction
Band:Megadeth
Album:Countdown To Extinction
Tuning:Standard

Rude Awakening DVD intro (Clean)
e|------------------------------------|
B|------------------------------------|
G|-10-9--9----10-9--9--10/12--10-9--9-|
D|------------------------------------|
A|--8-7--7-----8-7--7---8/10---8-7--7-|
E|------------------------------------|


Studio version intro (Distortion)
e|---------|
B|---------|
G|---------|
D|---------|
A|---------|
E|--1-3-1--|
    * * *



Riff 1
e|-----------------------------------|
B|-----------------------------------|
G|-----------------------------------|
D|-----------------------------------|
A|-3-2--2----3-2--2----------3-2--2--|
E|-1-0--0----1-0--0----1-3-1-1-0--0--|
                       * * *
  "You take a mortal man..."

Final time:
e|-----------------------------------------|
B|-----------------------------------------|
G|-----------------------------------------|
D|-----------------------------------------|
A|-3-2--2----3-2--2----------3-2--2--------|
E|-1-0--0----1-0--0----1-3-1-1-0--0----0-0-|
                       * * *           * *


Riff 2
Guitar 1
e|-------------------|
B|-------------------|
G|-------------------|
D|-7---6---5---5h7-5-|
A|-7---6---5---------|
E|---0---0---0-------|
     *   *   *
  "...a roll..."

Guitar 2 (comes in the 2nd time)
                    x2
e|-------------------|
B|-------------------|
G|-------------4h5-5-|
D|-7---6---5---------|
A|-7---6---5---------|
E|---0---0---0-------|
     *   *   *
                    x3
e|-------------------|
B|-------------5h6-5-|
G|-------------------|
D|-7---6---5---------|
A|-7---6---5---------|
E|---0---0---0-------|
     *   *   *

Last time
e|---------------------------------|
B|---------------------------------|
G|---------------------------------|
D|-7---6---5\----------------------|
A|-7---6---5\------5~--------------|
E|---0---0-----0-0-----6-5-4-3-2-1-|
     *   *     * *     * * * * * *


Riff 3
e|--------------------------------|
B|--------------------------------|
G|--------------------------------|
D|----9-----8-----7-----6~--------|
A|------7-----7-----5-------7-----|
E|-0------0-----0-----0-------7~\-|
   "Just like the..."
e|--------------------------------|
B|--------------------------------|
G|--------------------------------|
D|---5-----4-----7------5-4-------|
A|-----3-----3-----5--------5-----|
E|-0-----0-----0-----0--------7~~-|
  "...led rats..."
e|--------------------------------|
B|--------------------------------|
G|--------------------------------|
D|----9-----8-----7-----6~--------|
A|------7-----7-----5-------7-----|
E|-0------0-----0-----0-------7~\-|
  "We dance like..."
e|----------------------------|
B|----------------------------|
G|------------------------7---|
D|---5-----4------7-7-7-7-7---|
A|-----3-----3----5-5-5-5-5---|
E|-0-----0-----0--------------|
                  * * * *
  "...swaying to the..."


Play Riff 1   "Acting like a robot..."
Play Riff 2   "explodes....explodes..."
Play Riff 3   "Just like the..."

Riff 3a

Guitar 1
e|--------------------------------|
B|--------------------------------|
G|--------------------------------|
D|----9-----8-----7-----6~--------| ----|
A|------7-----7-----5-------7-----|     |
E|-0------0-----0-----0-------7~\-|     |
   "Just like the..."                   |--> Play 2x
e|--------------------------------|     |
B|--------------------------------|     |
G|--------------------------------| ----|
D|---5-----4-----7------5-4-------|
A|-----3-----3-----5--------5-----|
E|-0-----0-----0-----0--------7~~-|
  "...led rats...."

Last time:
e|---------------------------|
B|---------------------------|
G|---------------------------|
D|---5-----4------7-7-7-7-7--|
A|-----3-----3----5-5-5-5-5--|
E|-0-----0-----0-------------|
                  * * * *
  "...swaying to the..."


Guitar 2
e|---------------------------------|
B|---------------------------------|
G|---------------------------------| ----|
D|---12-----11-----10-----9~-------|     |
A|-----10-----10-----10-------11---|     |
E|-0-----12-----12-----12-------12-|     |
   "Just like the..."                    |--> Play 2x
e|--------------------------------|      |
B|--------------------------------|      |
G|--------------------------------|      |
D|---9-----7-----12-----9-7-------| -----|
A|-----7-----7------9-------9-----|
E|-0-----0-----0------0-------10~-|
  "...led rats..."

Last time:
e|---------------------------|
B|---------------------------|
G|---------------------------|
D|---9-----7------7-7-7-7-7--|
A|-----7-----7----5-5-5-5-5--|
E|-0-----0-----0-------------|
                  * * * *
  "...swaying to the..."



Riff 4 (Solo Rhythm)
e|----------------|
B|----------------|
G|----------------|
D|-----7---6---5--|
A|-----7---6---5--|
E|-0-0---0---0----|
   * *   *   *

Lead into next section:
e|---------|
B|---------|
G|---------|
D|---------|
A|---------|
E|--1-3-1--|
    * * *


Solo (Friedman)
e|----------------------------------------------|
B|-----------------------------------5----------|
G|-/9--9~-9~-9~--/9-9~--9\7---6b7~~--7b9\-3b4~~-|
D|--------------------------9-------------------|
A|----------------------------------------------|
E|----------------------------------------------|

e|--------------------------------|
B|--------------------------------|
G|-0-2-0-2b3r2~-2b3r2-0-----------|
D|----------------------2-0-0-2~~-|
A|--------------------------------|
E|--------------------------------|
   * * *
e|---------------------8-12----8-12/14p12--12-|
B|------------------10------10-----------13---|
G|-----9-11----9-11---------------------------|
D|-/10------10--------------------------------|
A|--------------------------------------------|
E|--------------------------------------------|

e|-14-17p14p12----/20-17h20p17------------|
B|-------------13--------------19-17------|
G|-----------------------------------17~~-|
D|----------------------------------------|
A|----------------------------------------|
E|----------------------------------------|

e|--------------------------------------------------|
B|-/12p10----10-12p10----10-15p10----15p10----14p10-|
G|--------12----------12----------12-------12-------|
D|--------------------------------------------------|
A|--------------------------------------------------|
E|--------------------------------------------------|

e|-12p10----10-12p10----10-15p10----15p10----14p10-|
B|-------12----------12----------12-------12-------|
G|-------------------------------------------------|
D|-------------------------------------------------|
A|-------------------------------------------------|
E|-------------------------------------------------|

e|-15p10----10-19p15----15-22p19----19-|
B|-------12----------15----------20----|
G|-------------------------------------|
D|-------------------------------------|
A|-------------------------------------|
E|-------------------------------------|

e|-----------------------------------------|
B|-20p15-----------------------------------|
G|------16---19p16-----------------14b16~~-|
D|--------17------17---14p12\11h12---------|
A|------------------17---------------------|
E|-----------------------------------------|

e|-----------------------------------------------12-|
B|-----------------12-13p12----------------12h13----|
G|-/15p12----12-15----------15p12----12-15----------|
D|--------14----------------------14----------------|
A|--------------------------------------------------|
E|--------------------------------------------------|

e|--------------------------12---------------------------|
B|-13p12-----------------12----15p12---------------------|
G|------15p12---12-14h15-------------15p14p12----13b14~~-|
D|------------14------------------------------14---------|
A|-------------------------------------------------------|
E|-------------------------------------------------------|

e|----12-------------12-------------12-------------|
B|-12----15p12-15b17----15p12----------15p12-------|
G|----------------------------14b16----------14b16-|
D|-------------------------------------------------|
A|-------------------------------------------------|
E|-------------------------------------------------|

e|-12-------------12-------------12---------|
B|----15p12-12-------15p12-12--------15---\-|
G|----------14b16----------14b16-----14b16\-|
D|------------------------------------------|
A|------------------------------------------|
E|------------------------------------------|

End solo

Play Riff 1   "The Earth starts..."
Play Riff 2   "tall...stands tall..."
Play Riff 3   "Just like the..."
Play Riff 3a  "Just like the..."

Ending:
e|----------|
B|----------|
G|----------|
D|----------|
A|--3-2--2--|
E|--1-0--0--|
  "...destruction."

----------------------------------

18.Back In The Day
Band:Megadeth
Album:System Has Failed
Tuning:Standard

Riff 1
e|----------------------------------|
B|----------------------------------|
G|----------------------------------|
D|-10p0-0-8p0-0-7p0-0-8p0-0-7p0-7p0-|
A|----------------------------------|
E|----------------------------------|


Play Riff 1   "Where were you..."


Riff 2
Guitar 1
e|-------------------|
B|-------------------|
G|-------------------|
D|-7-----------------|
A|-5--7--7/8---------|
E|----5--5/6--666666-|
              ******
             "Well that was..."
e|-------------------|
B|-------------------|
G|-------------------|
D|-7-----------------|
A|-5--7--7/8------10-|
E|----5--5/6--666--8-|
              ***

Guitar 2
e|-------------------|
B|-------------------|
G|-------------------|
D|-3-----------------|
A|-5--3--3/5---------|
E|----5--5/6--666666-|
              ******
e|------------------|
B|------------------|
G|------------------|
D|-3--------------5-|
A|-5--3--3/5------3-|
E|----5--5/6--666---|
              ***



Play Riff 1
Play Riff 2    "Well that was..."



Riff 3 (Solo Rhythm)
e|------------------------|
B|------------------------|
G|------------------------|
D|----2-------------------|
A|-------2--2-2p0-2p0-----|
E|-0------------------3-2-|

e|------------------------|
B|------------------------|
G|------------------------|
D|----3-------------------|
A|-------3--3-3p2-3p2-----|
E|-0------------------3-2-|


Solo (POland)
e|------------------------------------|
B|------------------------------------|
G|-14b16r14p12~-----------------------|
D|---------------14-12----------------|
A|---------------------14-12b14r12----|
E|---------------------------------15-|

e|------------------------------12----15b17-17b19d15-|
B|---------------------------12----12----------------|
G|-------------12-14b16-{14}-------------------------|
D|-------12-14---------------------------------------|
A|-12-14---------------------------------------------|
E|---------------------------------------------------|

e|-------------------------------------------------|
B|-17p12-15p12-------------------------15----------|
G|-------------16-14-12----12-14-14b16----14-12----|
D|----------------------14----------------------14-|
A|-------------------------------------------------|
E|-------------------------------------------------|

e|---------------------------------|
B|---------------------------------|
G|-14-12------12-14-12/14-14b16r14-|
D|-------14~---------------a-------|
A|---------------------------------|
E|---------------------------------|

End Solo


Play Riff 3   "In denim, and leather..."



Riff 4 (Solo Rhythm)
e|--------------------------------|
B|--------------------------------|
G|--------------------------------|
D|-------7h8---7~-------9h10---9~-|
A|-0-0-0-----0----0-0-0------0----|
E|--------------------------------|

e|---------------------------------|
B|---------------------------------|
G|---------------------------------|
D|-------7h8---7-------------5-6-7-|
A|-0-0-0-----0---------5-6-7-------|
E|---------------5-7-8-------------|



Solo (Poland)
e|----------------------------------------|
B|----------------------------------------|
G|-------------------5---7p5--------------|
D|-------5---5-7b8r7---7-----7p5-7~--(7)\-|
A|-4~-4~---4------------------------------|
E|----------------------------------------|

End Solo

Solo (Mustaine)
e|-----------------------------------|
B|----5b6-----7b8--------------------|
G|----5b6-----7b8--5h6---------------|
D|-7------7~-----------7p5-7~--(7)\--|
A|-----------------------------------|
E|-----------------------------------|

End Solo

Solo (Poland)
e|-------------------------------------------------------|
B|------5-7-5-5-8-7-5---5---------------8b10~----(10)r8\-|
G|-7b9----------------7---7b8-7-5---7-5------------------|
D|--------------------------------7----------------------|
A|-------------------------------------------------------|
E|-------------------------------------------------------|

End Solo

Solo (Mustaine)
e|-----------------------------------------|
B|-19--17--19~-19-17--19^------------------|
G|-19--17--19--19-17--19^-17-19-21p19p17---|
D|--------------------------------------19-|
A|-----------------------------------------|
E|-----------------------------------------|

e|-------------------------------------------------|
B|-------------------------------------------------|
G|-21p19p17---21p19p17---21p19p17---21p19p17---17~-|
D|---------19---------19---------19---------19-----|
A|-------------------------------------------------|
E|-------------------------------------------------|

End Solo




Riff 5 (Solo Rhythm)
e|-------------------------------|
B|-------------------------------|
G|-------------------------------|
D|-5--------------5--------8--7--|
A|-3--6--5--3--5--3--6--5--6--5--|
E|----4--3--1--3--3--4--3--------|
               "Back in the day..."


Solo (Mustaine)
e|-------------------------------------11-13p11-16p11-15~-|
B|-------------------13h15p13p12-13h15--------------------|
G|-16p12----12-15h16--------------------------------------|
D|-------15-----------------------------------------------|
A|--------------------------------------------------------|
E|--------------------------------------------------------|

e|-20p16----16--------------------------------|
B|-------20----18-20-16-18-16-----------------|
G|----------------------------19-20-17-19-----|
D|----------------------------------------21~-|
A|--------------------------------------------|
E|--------------------------------------------|

e|------------------------------------------------------|
B|-16~--15-13-15~--13----13-----------------------------|
G|--------------------16----16-13h16p13-12h13p12----12~-|
D|-----------------------------------------------16-----|
A|------------------------------------------------------|
E|------------------------------------------------------|

End solo



Riff 6
Both guitars
e|-------------------------|
B|-------------------------|
G|-------------------------|
D|-------------------------| ----|
A|-3-333-3-333-3-333-3-5-6-|     |
E|-------------------------|     |
                                 |
e|-------------------------|     |--> Play 2x
B|-------------------------|     |
G|-------------------------|     |
D|-------------------------| ----|
A|-3-333-3-333-3-333-3-6-5-|
E|-------------------------|

Guitar 1
e|-------------------------|
B|-------------------------|
G|-------------------------|
D|-------------------------|
A|-6-666-6-666-6-666-6-666-|
E|-------------------------|
   "Ohh..."
e|-------------------------|
B|-------------------------|
G|-------------------------|
D|-------------------------|
A|-5-555-5-555-4-444-4-444-|
E|-------------------------|
   "Ohh, ohh..."
e|-------------------------|
B|-------------------------|
G|-------------------------|
D|-------------------------|
A|-3-333-3-333-3-333-3-5-6-|
E|-------------------------|

e|-------------------------|
B|-------------------------|
G|-------------------------|
D|-------------------------|
A|-3-333-3-333-3-333-3-6-5-|
E|-------------------------|

Guitar 2
e|-------------------------|
B|-------------------------|
G|-------------------------|
D|-5-555-5-555-5-555-5-555-|
A|-------------------------|
E|-------------------------|
   "Ohh..."
e|-------------------------|
B|-------------------------|
G|-------------------------|
D|-3-333-3-333-------3-333-|
A|-------------4-444-------|
E|-------------------------|
   "Ohh, ohh..."
e|-------------------------|
B|-------------------------|
G|-------------------------|
D|-------------------------|
A|-6-333-3-333-3-333-3-5-6-|
E|-------------------------|

e|-------------------------|
B|-------------------------|
G|-------------------------|
D|-------------------------|
A|-3-333-3-333-3-333-3-6-5-|
E|-------------------------|




Riff 7
e|---------------------------|
B|---------------------------|
G|---------------------------|
D|---------------------------|
A|-333333333333333333333-5-6-|
E|---------------------------|

e|---------------------------|
B|---------------------------|
G|---------------------------|
D|---------------------------|
A|-333333333333333333333-6-5-|
E|---------------------------|



Riff 8
e|----------------------|
B|----------------------|
G|----------------------|
D|-5--5--5--5-5-5-------|
A|-3--3--3--3-3-3-3-5-6-|
E|----------------------|

e|----------------------|
B|----------------------|
G|----------------------|
D|-5--5--5--5-5-5-------|
A|-3--3--3--3-3-3-3-6-5-|
E|----------------------|

e|--------------------------|
B|--------------------------|
G|--------------------------|
D|-5--5--5-5-5-5-5-------5\-|
A|-3--3--3-3-3-3-3-3-5-6-3\-|
E|--------------------------|

-----------------------------------------

19.Peace Sells
Band:Megadeth
Album:Peace Sells...But Who's Buying?
Tuning:1/4 Step Down

Bass intro arranged for guitar:
e|----------------------------------------|
B|----------------------------------------|
G|----------------------------------------|
D|--------5--------7-8---------5----------|
A|-7--5-7------7-5------7--5-7------7-----|
E|-----------0--------------------0---5-6-|


Intro
e|------------|
B|------------|
G|------------|
D|-----9\-----|
A|-5-6-7\--2--|
E|---------0--|

e|-----------------------------------------|
B|-----------------------------------------|
G|-----------------------------------------|
D|-7---------------------------------------|
A|-5------5-5-5-5-5-5-5-5-5-5-5-5-5-5-8-7--|
E|------------------------------------6-5--|
          * * * * * * * * * * * * * *

Intro solo (Mustaine)
e|-[17]18r17--[17]18r17--[17]18r17--|
B|----------------------------------|
G|----------------------------------|
D|----------------------------------|
A|----------------------------------|
E|----------------------------------|

e|-12h16p12--12-11h15p11--11-10h14p10--10-9h13p9--9-|
B|---------15-----------14-----------13---------12--|
G|--------------------------------------------------|
D|--------------------------------------------------|
A|--------------------------------------------------|
E|--------------------------------------------------|

e|-8h12p8--8-7h11p7--7-6h10p6---6-5h9p5---5------|
B|-------11--------10---------9---------8---5~~--|
G|-----------------------------------------------|
D|-----------------------------------------------|
A|-----------------------------------------------|
E|-----------------------------------------------|


Riff 1
e|-------------------------------------|
B|-------------------------------------|
G|-------------------------------------|
D|-------------------------------------|
A|----------------6-----------------5--|
E|-0-0-0-0-0-0-0--4--0-0-0-0-0-0-0--3--|
   * * * * * * *     * * * * * * *
  "What do ya mean I don't believe in God?..."
e|-------------------------------------|
B|-------------------------------------|
G|-------------------------------------|
D|-------------------------------------|
A|----------------6---------------8--7-|
E|-0-0-0-0-0-0-0--4--0-0-0-0-0-0--6--5-|
   * * * * * * *     * * * * * *
  "Talk to him everyday..."


Riff 2
e|----------------------------------------|
B|----------------------------------------|
G|----------7--------------------7--------|
D|-9-9-7-9--5--7-9-9----9-9-7-9--5--------|
A|-7-7-5-7-----5-7-7----7-7-5-7-----4-5-5-|
E|----------------------------------2-3-3-|
             "If there's a new way..."
e|-----------------------------|
B|-----------------------------|
G|-----------------------------|
D|----------7--------------5---|
A|-5-5-4-5--5--4-5---5-4-3-3---|
E|-3-3-2-3-----2-3---3-2-1-----|
                     * * *
              "But it better work this time..."


Play Riff 1   Solo Rhythm

Solo (Poland)
e|----------------------------------------------------|
B|--------------------------------12h13-12p10\9-------|
G|-12b14~~-13p12-13p12p9-12h13/14---------------12p10-|
D|----------------------------------------------------|
A|----------------------------------------------------|
E|----------------------------------------------------|

e|---------------------------------------------------------|
B|-------12-10-------10------------------------------------|
G|-12-13-------13-12----12-10------------------------------|
D|----------------------------14-12-10---------------------|
A|-------------------------------------14-12-10------------|
E|----------------------------------------------14-12-10~~-|

e|-------12--------------------------|
B|-15-------15-12--------------------|
G|----------------14-12b13----(13)\--|
D|-----------------------------------|
A|-----------------------------------|
E|-----------------------------------|

End solo

Play Riff 1   "What do ya mean I hurt your feelings?"

Here are the solos over Riff 1 (All are Poland's)

#1
e|--------------------|
B|--------------------|
G|--------------------|
D|--------------------|
A|-7p5-7p5------------|
E|-a--------5--(5)d2*-|
  "...didn't know ya had any feelings..."

#2
e|-------19--------19~~--|
B|-17b19-----17b19-------|
G|-----------------------|
D|-----------------------|
A|-----------------------|
E|-----------------------|
  "...just not your kind..."

#3
e|----------------------------|
B|-14h15-------12-14b15~~~~~\-|
G|--a-------13----------------|
D|-------14-------------------|
A|----------------------------|
E|----------------------------|
  "...of the United States of America?"

#4
e|-----------------------------------------------|
B|-15--------------------------------------------|
G|-14b15--14p12---15-14p12-----------------------|
D|-------------14---------14-12------------------|
A|------------------------------14-12-10-12-10~~-|
E|-----------------------------------------------|
  "...we, the people, right?"

End solos


Play Riff 2   "If there's a new way..."


Riff 3
e|-------------------------------------------|
B|-------------------------------------------|
G|-------------------------------------------|
D|-------------------------------------------|
A|-----10p9-10-----9p7-9-----7p5-7-----5p4-5-|
E|-0-0---------0-0-------0-0-------0-0-------|
   * *         * *       * *       * *
e|-------------------------------------------|
B|-------------------------------------------|
G|-------------------------------------------|
D|-------------------------------------------|
A|-----4p2-4-----2p0-2-----------------------|
E|-0-0-------0-0-------0-0--5p4-5-0-0--3p2-3-|
   * *       * *       * *        * *


Riff 3a
Guitar 1
e|-------------------------------------------|
B|-------------------------------------------|
G|-------------------------------------------|
D|-------------------------------------------|
A|-----10p9-10-----9p7-9-----7p5-7-----5p4-5-|
E|-0-0---------0-0-------0-0-------0-0-------|
   * *         * *       * *       * *
e|-----------------------------------------|
B|-----------------------------------------|
G|-----------------------------------------|
D|-----------------------------------------|
A|-----4p2-4-----2p0-2----------------/6-5-|
E|-0-0-------0-0-------0-0--5p4-5-0-0-/4-3-|
   * *       * *       * *        * *

Guitar 2
e|-----------------------------------------|
B|-----------------------------------------|
G|-----------------------------------------|
D|-----9p8-9-----7p5-7-----5p4-5-----4h5-4-|
A|-----------------------------------------|
E|-0-0-------0-0-------0-0-------0-0-------|
   * *       * *       * *       * *
e|-----------------------------------------|
B|-----------------------------------------|
G|-----------------------------------------|
D|-----2p0-2-------------------------------|
A|---------------5p4-5-----4p2-4------/6-5-|
E|-0-0-------0-0-------0-0--------0-0-/4-3-|
   * *       * *       * *        * *


Riff 4  (Solo Rhythm)
e|---------------------------------|
B|---------------------------------|
G|---------------------------------|
D|---------------------------------|         --------|
A|-4-------------5-------4-----5-4-|                 |
E|-2-2-2-2-2-2-2-3-3-3-3-2-2-2-3-2-|                 |
     * * * * * *   * * *   * *                       |
Guitar 1                                             |
e|------------------------------------------|        |
B|------------------------------------------|        |
G|------------------------------------------|        |
D|------------------------------------------|        |--- Play 3x
A|-----10p9-10-----9p7-9-----7p5-7-----/6-5-|        |
E|-0-0---------0-0-------0-0-------0-0-/4-3-|        |
   * *         * *       * *       * *               |
Guitar 2                                             |
e|----------------------------------------|          |
B|----------------------------------------|          |
G|----------------------------------------|          |
D|-----9p8-9-----7p5-7-----5p4-5----------|   -------|
A|-----------------------------------/6-5-|
E|-0-0-------0-0-------0-0-------0-0-/4-3-|
   * *       * *       * *       * *

Final time
e|----------------------------------------------|
B|----------------------------------------------|
G|----------------------------------------------|
D|-----------------------------7-8-9------------|
A|-4-------------5-------4-----5-6-7-[let ring]-|
E|-2-2-2-2-2-2-2-3-3-3-3-2-2-2------------------|
     * * * * * *   * * *   * *


Solos:

#1 (Poland)
e|-------------------------------------------------|
B|-11/12-15-11/12------------------------12--------|
G|----------------14b15--14-12--14--12h14--12------|
D|----------------------------14--14---------14~~~-|
A|-------------------------------------------------|
E|-------------------------------------------------|

e|-----------------|
B|-----------------|
G|-----------------|
D|-12--------------|
A|----14-12-10b11--|
E|-----------------|


#2 (Mustaine)
e|-----------------------------------------|
B|-----------------------------------------|
G|---------------------------2-------------|
D|-------------------------2---4p2---------|
A|---------0h2p0-0h2p0-3/4---------4\3-3/4-|
E|-0h2-2-2---------------------------------|

e|-----------------------------------|
B|-----------------------------------|
G|---2-5p4-2-4-4p2-------------------|
D|-2---------------4-2-4p2~~----(2)--|
A|-----------------------------------|
E|-----------------------------------|

e|---------------------------------------|
B|---------------------------------------|
G|---------------------------------------|
D|-(2)--[note is held through next solo]-|
A|---------------------------------------|
E|---------------------------------------|


#3 (Poland)
e|-------19-------19----------------------|
B|-19-20----20-20-----20--20--[20]21-{20}-|
G|----------------------------------------|
D|----------------------------------------|
A|----------------------------------------|
E|----------------------------------------|

e|--------------------------------|
B|-20b22-[20]23-{20}-{20}-(23)b24-|
G|--------------------------------|
D|--------------------------------|
A|--------------------------------|
E|--------------------------------|

e|-------------------------------------|
B|-17-20----17-------------------------|
G|-------18----19b21----19-16----------|
D|----------------------------19-17b18-|
A|-------------------------------------|
E|-------------------------------------|


#4 (Mustaine)
e|-14h17p14--14-19p14-14-14h17p14--14-19p14---|
B|---------17--------------------17--------17-|
G|--------------------------------------------|
D|--------------------------------------------|
A|--------------------------------------------|
E|--------------------------------------------|

e|-14h17p14--14-19p14-14-14h17p14--14-19p14--14h17p14-|
B|---------17--------------------17--------17---------|
G|----------------------------------------------------|
D|----------------------------------------------------|
A|----------------------------------------------------|
E|----------------------------------------------------|

e|-----------------------------|
B|----14h17p14-19p17p14--------|
G|-17-------------------16~~~--|
D|-----------------------------|
A|-----------------------------|
E|-----------------------------|

End solos


"Can you put a price on peace ? "


Riff 5
Guitar 1             x1
e|--------------------|
B|--------------------|
G|--------------------|
D|--------5-------7-8-|
A|-7--5-7-----7-5-----|
E|----------0---------|
            *
                    x11
e|--------------------|
B|--------------------|
G|--------------------|
D|--------5-----------|
A|-7--5-7-----7-5-----|
E|----------0-----5-6-|
            *


Guitar 2 (Comes in with the drums)
e|------------------------------|
B|------------------------------|
G|------------------------------|
D|----2-------5-------4-------9-|
A|----2-------5-------4-------9-|
E|-00------33------22------77---|
   **      **      **      **
e|------------------------------|
B|------------------------------|
G|----9-------------------------|
D|----9-------5-------4-------9-|
A|-77---------5-------4-------9-|
E|---------33------22------77---|
   **      **      **      **



Riff 6
e|---------------------|
B|---------------------|
G|---------------------|
D|---------5-------7h8-|
A|-7~--5-7-----7-5-----|
E|-----------0---------|
             *
    "Peace, peace sells..."



Riff 7
Guitar 1
e|---------------------|
B|---------------------|
G|---------------------|
D|---------5-------7h8-|
A|-7~--5-7-----7-5-----|
E|-----------0---------|
             *
  "Peace sells, but who's buying ?"

Guitar 2
e|-----------------------|
B|-----------------------|
G|---------7-------9h10--|
D|-9~--7-9-----9-7-------|
A|-----------------------|
E|-----------0-----------|
             *


Play Riff 6   Solo Rhythm


Solo (Poland)
e|------------------------------------------|
B|----------[10]12*~--[13]15*~--(15)b17*~~--|
G|-[12]14*~---------------------------------|
D|------------------------------------------|
A|------------------------------------------|
E|------------------------------------------|

e|-12--------------12-------------------------|
B|---15p12------12----15p12---12--------------|
G|--------14b16------------14----[14]16r14p12-|
D|--------------------------------------------|
A|--------------------------------------------|
E|--------------------------------------------|

e|-15b17--15b17--15b17-15b16~~-|
B|-----------------------------|
G|-----------------------------|
D|-----------------------------|
A|-----------------------------|
E|-----------------------------|

e|-------12-13-12----------12-13-12----------|
B|-12h15----------15-12h15----------15-12h15-|
G|-------------------------------------------|
D|-------------------------------------------|
A|-------------------------------------------|
E|-------------------------------------------|

e|-12-13-12---------------------------12-|
B|---------15-13-12----------12-13-15----|
G|------------------14-12h14-------------|
D|---------------------------------------|
A|---------------------------------------|
E|---------------------------------------|

e|-15b17----17b19~~--20b22~~--22b24~~--|
B|-------------------------------------|
G|-------------------------------------|
D|-------------------------------------|
A|-------------------------------------|
E|-------------------------------------|

E|-22p19-22p19------------------------------|
B|-------------22-21-22--20b22-20b22--20~~\-|
G|------------------------------------------|
D|------------------------------------------|
A|------------------------------------------|
E|------------------------------------------|

End Solo


Play Riff 7   "Peace sells, but who's buying?"
Play Riff 6   "Peace sells, but who's buying?"


Riff 8
e|------------------------------------|
B|------------------------------------|
G|------------------------------------|
D|---------5-------7h8----------5-----|
A|-7~--5-7-----7-5------7~--5-7-----7-|
E|-----------0--------------------0---|
             *                    *
e|-------------------------------------|
B|-------------------------------------|
G|-------------------------------------|
D|-------------------------------------|
A|-6-5-4-3---3-4-3---3-5-5-5-5-4-4-5-4-|
E|-4-3-2-1-0-1-2-1-0-1-3-3-3-3-2-2-3-2-|
   * * * * * * * * * *
     "No....no no no no..."

Final time
e|---------------------------------------|
B|---------------------------------------|
G|---------------------------------------|
D|---------------------------------7-8-9-|
A|-6-5-4-3---3-4-3---3-5-5-5-5-4-4-5-6-7-|
E|-4-3-2-1-0-1-2-1-0-1-3-3-3-3-2-2-------|
   * * * * * * * * * *
      "Peace sells.....                  ....ahhh"


Ending solo (Poland)
e|--------------------------------------------|
B|--------------------------------------------|
G|--------------------------------------------|
D|------------------------------11h12p11------|
A|---------11h12p11-----11h12h14--------14p12-|
E|-12-12h14--------14p12----------------------|

e|---------------------------------------|
B|-----------------12-14p12-15--(15)d12*-|
G|---------11-13-14----------a-----------|
D|-11h12h14------------------------------|
A|---------------------------------------|
E|---------------------------------------|

e|-----------------------------------------|
B|--------------------------------12-------|
G|-14p12-14~~--14-12----14--12-14----12b13-|
D|-------------------14--------------------|
A|-----------------------------------------|
E|-----------------------------------------|

e|--------------------------------------------|
B|---12-13-12--------12-13-12--------12-13-12-|
G|-14--------14-13-14--------14-13-14---------|
D|--------------------------------------------|
A|--------------------------------------------|
E|--------------------------------------------|

e|-------------------------------------------------12-|
B|---------12-15-12--------12-16-12--------12-13-15---|
G|-14-13-14--------14-13-14--------14-13-14-----------|
D|----------------------------------------------------|
A|----------------------------------------------------|
E|----------------------------------------------------|

e|--------------------------------------------------12----|
B|-15b17----(17)r15b17r15p12-15b19----(19)r17r15-15----15-|
G|--------------------------------------------------------|
D|--------------------------------------------------------|
A|--------------------------------------------------------|
E|--------------------------------------------------------|

e|-12--------12-14-12--------12-14-12--------12-14-12-|
B|---15-12-15--------15-12-15--------15-12-15---------|
G|----------------------------------------------------|
D|----------------------------------------------------|
A|----------------------------------------------------|
E|----------------------------------------------------|

e|---------15-16-15--------15-16-15-----17b18--17p15-17-|
B|-15p12-----------17-15-17--------17p15----------------|
G|------14----------------------------------------------|
D|------------------------------------------------------|
A|------------------------------------------------------|
E|------------------------------------------------------|

e|-15b17--------(17)r15--19~~----22~~----24~~-|
B|--------------------------------------------|
G|--------------------------------------------|
D|--------------------------------------------|
A|--------------------------------------------|
E|--------------------------------------------|

End solo

--------------------------------------------------------

20.Mechanix
Band:Megadeth
Album:Killing Is My Business...And Business Is Good!
Tuning:1/4 Step Down

Riff 1
e|-----------------------|
B|-----------------------|
G|-----------------------|
D|-4~---5~---------------| ---|
A|-2~---3~-----4/5----5--|    |
E|-----------0-2/3--0-3--|    |
             *      *         |
e|--------------------|       |--> Play 2x
B|--------------------|       |
G|--------------------|       |
D|-4~---5~------------| ------|
A|-2~---3~-----4-5-2--|
E|-----------0-2-3-0--|
             * * *

e|-----------------------------------|
B|-----------------------------------|
G|-----------------------------------|
D|-4~---5~---------------------------|
A|-2~---3~-----4/5----5--x-x-x-x-x-x-|
E|-----------0-2/3--0-3--x-x-x-x-x-x-|
             *      *
e|--------------------------|
B|--------------------------|
G|--------------------------|
D|-4~---5~------------------|
A|-2~---3~-----4-5-2--------|
E|-----------0-2-3-0----X\\-|
             * * *


Note: For the next riff, whenever Guitar 2 plays emphasis
points it's just the E chord, so listen for when to
play them.

Riff 2
e|------------------------------------|
B|------------------------------------|
G|------------------------------------|
D|------------------------------------|
A|--7-5-7-5-7-5-7-5-7-5-7-5-7-5-----5-|
E|--0-0-0-0-0-0-0-0-0-0-0-0-0-0-6h7---|

e|-------------------------------------|
B|-------------------------------------|
G|-------------------------------------|
D|----------------------------7-5------|
A|--7-5-7-5-7-5-7-5-----5-7p5-----7-5--|
E|--0-0-0-0-0-0-0-0-6h7----------------|

e|--------------------------------------|
B|--------------------------------------|
G|--------------------------------------|
D|--------------------------------------|
A|--7-5-7-5-7-5-----5-7-5-7-5-7-5-----5-|
E|--0-0-0-0-0-0-6h7---0-0-0-0-0-0-6h7---|

e|------------|
B|------------|
G|------------|
D|-5-----7--5-|
A|-3--5--5--3-|
E|----3-------|



Riff 3
e|--------------------------|
B|--------------------------|
G|--------------------------|
D|-----9------9------9--7-7-|
A|-----7------7------7--5-5-|
E|-000----000----000--------|
   ***    ***    ***
e|--------------------------|
B|--------------------------|
G|--------------------------|
D|-----9------9------9--5-7-|
A|-----7------7------7--3-5-|
E|-000----000----000--------|
   ***    ***    ***
e|------------------------------------|
B|------------------------------------|
G|------------------------------------|
D|-----9------9------9--12-9--5---7-5-|
A|-----7------7------7--10-7--3-5-5-3-|
E|-000----000----000------------3-----|
   ***    ***    ***


Riff 4
e|---------------------------------------------|
B|---------------------------------------------|
G|---------------------------------------------|
D|-9--------99-7--------77-5--------55-4-------|
A|-7--------77-5--------55-3--------33-2-------|
E|-----------------------------------------X\\-|
    "Who'd ever thought..."
e|------------------------------------------|
B|------------------------------------------|
G|------------------------------------------|
D|-9--------99-7--------77-5--------4-5-4---|
A|-7--------77-5--------55-3--------2-3-2-5-|
E|----------------------------------------3-|
    "Made my driveshaft crank..."


Play Riff 2  "...heat!"
Play Riff 3  "We were shifting..."
Play Riff 4  "Who'd ever thought..."
Play Riff 2  use the following ending the 2nd time:

e|---------------|
B|---------------|
G|---------------|
D|-5-----7--5----|
A|-3--5--5--3--2-|
E|----3--------0-|
              "Ooohhh..."


Riff 5
e|---------------------------------------------------|
B|---------------------------------------------------|
G|---------------------------------------------------|
D|---------------------------------------------------|
A|---------------------------------------------------|
E|-0-00000-00000-00000-00000-00000-00000-00000-00000-|
   * ***** ***** ***** ***** ***** ***** ***** *****
e|-------------------------------------------------|
B|-------------------------------------------------|
G|-------------------------------------------------|
D|------------------------------------------10\9-9-|
A|-------------------------------------------8\7-7-|
E|-00000-00000-00000-00000-00000-00000-0000--------|
   ***** ***** ***** ***** ***** ***** ****


Riff 5a
e|---------------------------|
B|---------------------------|
G|---------------------------|
D|--------------------10\9-9-|
A|---------------------8\7-7-|
E|-0-00000-00000-0000--------|
   * ***** ***** ****
e|-----------------------|
B|-----------------------|
G|-----------------------|
D|--------------------10-|
A|---------------------8-|
E|-0-00000-00000-0000----|
   * ***** ***** ****


Riff 6
e|-------------------------|
B|-------------------------|
G|-------------------------|
D|-------------------------|
A|-7p5---5-----------------|
E|-----7---7-6-5-3-5-0-3-5-|
   * * * * * * * * * * * *
e|---------------------------|
B|---------------------------|
G|---------------------------|
D|---------------------------|
A|-7p5---5-----------------2-|
E|-----7---7-6-5-3-5-0-3-5-0-|
   * * * * * * * * * * * *


Play Riff 2
Play Riff 3  "I'm giving you..."
Play Riff 4  "Who'd ever thought..."
Play Riff 2  use the following ending the 2nd time:

e|---------------|
B|---------------|
G|---------------|
D|-5-----7--5----|
A|-3--5--5--3--2-|
E|----3--------0-|


Play Riff 5a   Becomes solo rhythm


Solo (Mustaine)
e|----------------------------------14-|
B|-------------------------14----13----|
G|----------------14----13----12-------|
D|-------14----13----12----------------|
A|----13----12-------------------------|
E|-12----------------------------------|

e|-------------------------------------|
B|-------------------------------------|
G|-------------------------------------|
D|-------------------------------------|
A|-------------------------------------|
E|-------------------------------------|

e|-------------------------------------|
B|-------------------------------------|
G|-------------------------------------|
D|-------------------------------------|
A|-------------------------------------|
E|-------------------------------------|

e|-------------------------------------|
B|-------------------------------------|
G|-------------------------------------|
D|-------------------------------------|
A|-------------------------------------|
E|-------------------------------------|

e|-------------------------------------|
B|-------------------------------------|
G|-------------------------------------|
D|-------------------------------------|
A|-------------------------------------|
E|-------------------------------------|

e|-------------------------------------|
B|-------------------------------------|
G|-------------------------------------|
D|-------------------------------------|
A|-------------------------------------|
E|-------------------------------------|

e|-------------------------------------|
B|-------------------------------------|
G|-------------------------------------|
D|-------------------------------------|
A|-------------------------------------|
E|-------------------------------------|

End Solo


Ending:
e|------------------------------------|
B|------------------------------------|
G|------------------------------------|
D|------------------------------------|
A|--7-5-7-5-7-5-7-5-7-5-7-5-7-5-----5-|
E|--0-0-0-0-0-0-0-0-0-0-0-0-0-0-6h7---|

e|-------------------------------------|
B|-------------------------------------|
G|-------------------------------------|
D|----------------------------7-5------|
A|--7-5-7-5-7-5-7-5-----5-7p5-----7-5--|
E|--0-0-0-0-0-0-0-0-6h7----------------|

e|--------------------------------------|
B|--------------------------------------|
G|--------------------------------------|
D|--------------------------------------|
A|--7-5-7-5-7-5-----5-7-5-7-5-7-5-----5-|
E|--0-0-0-0-0-0-6h7---0-0-0-0-0-0-6h7---|

e|---------------|
B|---------------|
G|---------------|
D|-5-----7--5----|
A|-3--5--5--3--2-|
E|----3--------0-|

-------------------------------------------

21.Holy Wars
Band:Megadeth
Album:Rust In Peace
Tuning:Standard

Riff 1 (slightly palm muted)
e|-----------------------------------|
B|-----------------------------------|
G|-----------------------------------|
D|-----------------------------------|
A|-5-6-7---------------------------2-|
E|--------5-6-7--7-6-5--5-4-3--5-5-0-|

e|-----------------------------------|
B|-----------------------------------|
G|-----------------------------------|
D|-----------------------------------|
A|-5-6-7---------------------------4-|
E|--------5-6-7--7-6-5--5-4-3--3-2-2-|

e|----------------------------|
B|----------------------------|
G|----------------------------|
D|----------------------------|
A|-5-6-7----------------------|
E|--------5-6-7--7-6-5--5-4-3-|

e|----------------------------|
B|----------------------------|
G|----------------------------|
D|-2-3-4----------------------|
A|--------3-4-5--5-4-3--4-3-2-|
E|----------------------------|

e|--------------------------------|
B|--------------------------------|
G|--------------------------------|
D|--------------------------------|
A|-5-6-7-----------------------05-|
E|--------5-6-7--7-6-5--5-4-3-----|
                               **

Riff 2
e|--------------------------------------------|
B|--------------------------------------------|
G|--------------------------------------------|
D|--------------------------------------------|
A|-5h7-----10p7----------5h7-----5h7------7-8-|
E|-----000------00000000-----000-----0000-5-6-|
       ***      ********     ***     ****
e|---------------------------------------------|
B|---------------------------------------------|
G|---------------------------------------------|
D|----------------------------------------10---|
A|-5h7-----10p7----------5h7-----5h7-------8-9-|
E|-----000------00000000-----000-----0000----7-|
       ***      ********     ***     ****
e|--------------------------------------------|
B|--------------------------------------------|
G|--------------------------------------------|
D|----------------------------------------4---|
A|-5h7-----10p7----------5h7-----5h7------2-5-|
E|-----000------00000000-----000-----0000---3-|
       ***      ********     ***     ****
e|------------------------------------------------|
B|------------------------------------------------|
G|------------------------------------------------|
D|---------------------------------------4------4-|
A|-5h7-----10p7--------9-------8-----7---2------2-|
E|-----000------000000-7--0000-6--00-5-0------0---|
       ***      ******    ****    **   *      *

e|----------|
B|----------|
G|----------|
D|-4--------|
A|-2--5--4--|
E|----3--2--|


Riff 3
e|--------------------------------------------|
B|--------------------------------------------|
G|--------------------------------------------|
D|--------------------------------------------|
A|-5h7-----10p7----------5h7-----5h7------7-8-|
E|-----000------00000000-----000-----0000-5-6-|
       ***      ********     ***     ****
e|---------------------------------------------|
B|---------------------------------------------|
G|---------------------------------------------|
D|----------------------------------------10---|
A|-5h7-----10p7----------5h7-----5h7-------8-9-|
E|-----000------00000000-----000-----0000----7-|
       ***      ********     ***     ****
e|--------------------------------------------|
B|--------------------------------------------|
G|--------------------------------------------|
D|----------------------------------------4---|
A|-5h7-----10p7----------5h7-----5h7------2-5-|
E|-----000------00000000-----000-----0000---3-|
       ***      ********     ***     ****

Riff 3a
Guitar 1                                  x4
e|-----------------------------------------|
B|-----------------------------------------|
G|-----------------------------------------|
D|-----------------------------------------|
A|-5h7-----10p7--------9~-------8~-----7---|
E|-----000------000000-----0000-----00---8-|
       ***      ******     ****     **

Guitar 2
e|-----------------------------------------|
B|-----------------------------------------|
G|-----------------------------------------|
D|-----------------------------------------|
A|-5h7-----10p7----------------------------|
E|-----000------000000-7~--0000-6~--00-5-0-|
       ***      ******     ****     **   *
e|-----------------------------------------|
B|-----------------------------------------|
G|-----------------------------------------|
D|-----------------------------------------|
A|-5h7-----10p7--------6~-------5~-----4---|
E|-----000------000000-----0000-----00---5-|
       ***      ******     ****     **
e|-----------------------------------------|
B|-----------------------------------------|
G|-----------------------------------------|
D|-----------------------------------------|
A|-5h7-----10p7--------9~-------8~-----7---|
E|-----000------000000-----0000-----00---8-|
       ***      ******     ****     **
e|--------------------------------------------|
B|--------------------------------------------|
G|--------------------------------------------|
D|--------------------------------------------|
A|-5h7-----10p7--------14~------13~----12-----|
E|-----000------000000-----0000-----00----13\-|
       ***      ******     ****     **


Riff 4
Guitar 1                                   x7
e|------------------------------------------|
B|------------------------------------------|
G|------------------------------------------|
D|------------------------------------------|
A|-5h7-----10p7----------5h7-----5h7------9-|
E|-----000------00000000-----000-----0000-7-|
       ***      ********     ***     ****
e|----------------------------------------|
B|----------------------------------------|
G|----------------------------------------|
D|----------------------------------------|
A|-5h7-----10p7----------5h7-----5h7------|
E|-----000------00000000-----000-----0000-|
       ***      ********     ***     ****

Guitar 2 (Mustaine)
e|----------------------------------------|
B|----------------------------------------|
G|----------------------------------------|
D|----12----------12----14------9---------|
A|-10----10----10----12-----7-6---9-5/7~--|
E|----------12----------------------------|

e|----------------------------------------|
B|----------------------------------------|
G|------------------------8------7--------|
D|----12----------12----------------------|
A|-10----10----10-----6-9----5-8----5/7~~-|
E|----------12----------------------------|


Riff 5
e|-------------------------------------|
B|-------------------------------------|
G|-------------------------------------|
D|-------------------------------------|
A|-5---4-5---4-----4-5-----5-4-----4-5-|
E|-3-0-2-3-0-2-0-0-2-3-0-0-3-2-0-0-2-3-|
     *     *   * *     * *     * *
e|----------------------------------------|
B|----------------------------------------|
G|----------------------------------------|
D|----------------------------------------|
A|-5h7-----10p7----------5h7-----5h7------|
E|-----000------00000000-----000-----0000-|
       ***      ********     ***     ****
e|-------------------------------------|
B|-------------------------------------|
G|-------------------------------------|
D|-------------------------------------|
A|-2---1-2---1-----1-2-----2-1-----1-2-|
E|-3-0-2-3-0-2-0-0-2-3-0-0-3-2-0-0-2-3-|
     *     *   * *     * *     * *
e|----------------------------------------|
B|----------------------------------------|
G|----------------------------------------|
D|----------------------------------------|
A|-5h7-----10p7----------5h7-----5h7------|
E|-----000------00000000-----000-----0000-|
       ***      ********     ***     ****
e|-------------------------------------|
B|-------------------------------------|
G|-------------------------------------|
D|-------------------------------------|
A|-5---4-5---4-----4-5-----5-4-----4-5-|
E|-3-0-2-3-0-2-0-0-2-3-0-0-3-2-0-0-2-3-|
     *     *   * *     * *     * *
e|----------------------------------------|
B|----------------------------------------|
G|----------------------------------------|
D|----------------------------------------|
A|-5h7-----10p7----------5h7-----5h7------|
E|-----000------00000000-----000-----0000-|
       ***      ********     ***     ****
e|-----------------------------------|
B|-----------------------------------|
G|-----------------------------------|
D|-----------------------------------|
A|-2---1-2---1-----1-2-----2-1-----1-|
E|-3-0-2-3-0-2-0-0-2-3-0-0-3-2-0-0-2-|
     *     *   * *     * *     * *

Riff 6
e|---------------------------------------|
B|---------------------------------------|
G|------------4---3----------------------|
D|------------5---4----------------------|
A|-5-6-7--------0---0--5-6-7------5--6-5-|
E|-------000-----------------0000-6--7-6-|
         ***    *   *        ****
  "Brother will kill brother..."
e|------------------------------------------|
B|------------------------------------------|
G|------------------------------------------|
D|-----------5---4--------------------------|
A|-5-6-7-----7---6----5-6-7-------------1-2-|
E|-------000---0---0---------0000-2~--0-2-3-|
         ***   *   *         ****     *
  "Spilling blood across the land..."
e|-------------------------------|
B|-------------------------------|
G|-------------------------------|
D|-------------------------------|
A|-4-----4----2-4-5-----5--4-2---|
E|-5-0-0-5--0-3-5-6-0-0-6--5-3-5-|
     * *      * *   * *      *
  "Killing for religion..."
e|------------------------------------|
B|------------------------------------|
G|------------------------------------|
D|------------------------------------|
A|----------5--4-2-------------8--7-5-|
E|-3p0-0000-6--5-3-5--3p0-0000-6--5-3-|
       ****               ****
  "Something I don't understand..."


Lead into next section:
e|-----------------------------------|
B|-----------------------------------|
G|-----------------------------------|
D|-----------------------------------|
A|-5-6-7---------------------------2-|
E|--------5-6-7--7-6-5--5-4-3--5-5-0-|
   "Holy Wars..."


Solo (Acoustic, Friedman)
e|---------------------11h12p11----11-|
B|------12----10-12-13----------13----|
G|-9h10-------------------------------|
D|------------------------------------|
A|------------------------------------|
E|------------------------------------|

e|-12----12-10----10-8----8-7---7-5---|
B|----13-------12------10-----9-----6-|
G|------------------------------------|
D|------------------------------------|
A|------------------------------------|
E|------------------------------------|

e|-5-4---4-5---5--7-7/10--7--5h6p5-----|
B|-----5-----6---------------------6---|
G|-----------------------------------7-|
D|-------------------------------------|
A|-------------------------------------|
E|-------------------------------------|

e|------------------------------------------0-|
B|-4-5---4-5-4------------------------------0-|
G|-----6-------7-6-5-4---5-4----------------x-|
D|---------------------7-----7-6-5-4-3-2----2-|
A|------------------------------------------2-|
E|------------------------------------------0-|

End solo


Riff 6a
e|--------------------------------|
B|--------------------------------|
G|--------------------------------|
D|--------------------------------|
A|-3-2---2-----3-2---2-----2-3-5~-|
E|-0-0-0-0-0-0-0-0-0-0-0-0-0-0-0--|
       *   * *     *   * * * *
  "Up on my podium..."



Riff 7
e|-----------------------------|
B|-----------------------------|
G|-----------------------------|
D|-----0h2---4-----5------(5)\-|
A|---------2-----3-3------(3)\-|
E|-0-0---------0---------------|
   * *
e|-----------------0--------0-------|
B|-------------------0--------0-----|
G|----------------------------------|
D|---0h2---4------------------------|
A|-------2-----2-1------1-0-----0-2-|
E|-0---------0-3-2------2-1-----1-0-|

e|-----------------------------|
B|-----------------------------|
G|-----------------------------|
D|-----0h2---4-----5------(5)\-|
A|-(2)-----2-----3-3------(3)\-|
E|-(0)---------0---------------|

e|-----------------0--------0-------|
B|-------------------0--------0-----|
G|----------------------------------|
D|---0h2---4------------------------|
A|-------2-----2-1------1-0-----0-2-|
E|-0---------0-3-2------2-1-----1-0-|



Riff 7a
e|----------------------------------|
B|----------------------------------|
G|----------------------------------|
D|-----0h2---4-----5--5-5-5-5-5-5-5-|
A|---------2-----3-3--3-3-3-3-3-3-3-|
E|-0-0---------0--------------------|
   * *                * * * * * * *
  "Wage the war..."
e|-------------------0--------0--------|
B|---------------------0--------0------|
G|-------------------------------------|
D|-----0h2---4-------------------------|
A|---------2-----2-1------1-0----------|
E|-0-0---------0-3-2------2-1-----0-/3-|
   * *
  "...on organized crime..."


Riff 8 (Solo Rhythm)
e|---------------------------------|
B|-----3-0-------------1-----------|
G|---------0---------3---3---------|
D|---0-------3-0---3-------3-------|
A|-2-------------1-------------3-4-|
E|---------------------------0-1-2-|
   * *     * * * * * *       * * *
                                  x2
e|---------------------------------|
B|-----3-0-------------1-----------|
G|---------0---------3---3---------|
D|-----------3-0---3-------3-------|
A|---2-----------1-------------3-4-|
E|-3-------------------------0-1-2-|
   * *     * * * * * *       * * *
e|------------------0--------0--------|
B|-----3-0------------0--------0------|
G|---------0--------------------------|
D|-----------3------------------------|
A|---2----------2-1------1-0------0-2-|
E|-3------------3-2------2-1------1-0-|
   * *     * *


Solo (Friedman)
e|----------------7-10p7-----------6-10p6-|
B|--------------8--------8-------8--------|
G|------------7------------7---7----------|
D|-------5-/9----------------9------------|
A|-----5----------------------------------|
E|-3h7------------------------------------|

e|---------------10-13p10----10-----13-18p13----13-|
B|-6----------11----------11----/15----------15----|
G|---7-----10--------------------------------------|
D|-----/12-----------------------------------------|
A|-------------------------------------------------|
E|-------------------------------------------------|

e|--19-19b20~~---15-----------------------20b22~~--20b22~~-|
B|------------------15-17b18r17b18r17-15-------------------|
G|---------------------------------------------------------|
D|---------------------------------------------------------|
A|---------------------------------------------------------|
E|---------------------------------------------------------|

e|---[24]25b27-[24]25b27-[24]25b27-[24]25~~-|
B|-x----------------------------------------|
G|-x----------------------------------------|
D|------------------------------------------|
A|------------------------------------------|
E|------------------------------------------|

e|-[24]25-\22-18--------------------------|
B|---------------20-----------------------|
G|------------------19--------------------|
D|---------------------20\19-15-----------|
A|------------------------------17\15-13~-|
E|----------------------------------------|

e|---------------------------------------------|
B|---------------------------------------------|
G|--12-12-12-12/14-14-14-14/15-15-15-15/17-17\-|
D|---------------------------------------------|
A|--12-10-10-10/12-12-12-12/13-13-13-13/15-15\-|
E|---------------------------------------------|

e|-------------18------------------------------|
B|-/18--15h18-----18p15----15h18p15-15---------|
G|----------------------18------------18p17p15-|
D|---------------------------------------------|
A|---------------------------------------------|
E|---------------------------------------------|

e|----------------------------------18b22-|
B|-18p15-15-15----------------------------|
G|-------------18p15----17-15-15b16-------|
D|-------------------17-------------------|
A|----------------------------------------|
E|----------------------------------------|

End solo


Riff 7b
e|--------------------------------------|
B|------------------------------5-------|
G|------------------------------h-5-----|
D|-----0h2---4-----5--5-5-5-5-5---h-5---|
A|-2-------2-----3-3--3-3-3-3-3-----h-5-|
E|-0-----------0----------------------h-|
               *      * * * * *
e|-------------------0--------0-------|
B|---------------------0--------0-----|
G|------------------------------------|
D|-----0h2---4------------------------|
A|-2-------2-----2-1------1-0-----0-2-|
E|-0-----------0-3-2------2-1-----1-0-|


Play Riff 7a  "They killed my wife..."
Play Riff 8   Solo Rhythm

Solo (Friedman)
e|--------------------------------|
B|-x------------------------------|
G|-x-5b7--(7)r5-3-----------------|
D|----------------5/8\5p3---------|
A|------------------------5-3-----|
E|----------------------------6~~-|

e|-------------------------------------------------|
B|----------------------------6-8--6h8p6---8-------|
G|------------------------5-7------------7---10b12-|
D|-8/10-10-10-10/12\10~~---------------------------|
A|-------------------------------------------------|
E|-------------------------------------------------|

e|---------------------------------------------------|
B|--------------------------------14-18b20~~--15--18-|
G|-7--10--10~~-----------------15--------------------|
D|-----------------------15-17-----------------------|
A|----------------/14-17-----------------------------|
E|--------------0------------------------------------|

e|-----22-18-------------18p15--------------|
B|-18/-------22-18\15-18-------18p15--------|
G|-----------------------------------18-18~-|
D|------------------------------------------|
A|------------------------------------------|
E|------------------------------------------|

e|---18h20b22--(22)r20---------------------------------------|
B|-x-------------------20-18-18b20~--------------------------|
G|-x--------------------------------15/17-17/18-18\17-(17)~\-|
D|-----------------------------------------------------------|
A|-----------------------------------------------------------|
E|-----------------------------------------------------------|

End solo


Riff 9 (Play 2x)
e|-------------------------|
B|-------------------------|
G|-------------------------|
D|-------------------------|
A|-------------------------|
E|-3-3-3-3-333-3-3-333-333-|
   h h h h hhh h h hhh hhh
e|---------------------------------------|
B|---------------------------------------|
G|---------------------------------------|
D|---------------------------------------|
A|-5---4-5---4-----4-5-----5-4-----4-5-2-|
E|-3-0-2-3-0-2-0-0-2-3-0-0-3-2-0-0-2-3-0-|
     *     *   * *     * *     * *
e|-------------------------|
B|-------------------------|
G|-------------------------|
D|-------------------------|
A|-------------------------|
E|-3-3-3-3-333-3-3-333-333-|
   h h h h hhh h h hhh hhh
e|---------------------------------------|
B|---------------------------------------|
G|---------------------------------------|
D|---------------------------------------|
A|-2---1-2---1-----1-2-----2-1-----1-2-2-|
E|-3-0-2-3-0-2-0-0-2-3-0-0-3-2-0-0-2-3-0-|
     *     *   * *     * *     * *


Riff 10 (Solo Rhythm)
e|-------------------------|
B|-------------------------|
G|-------------------------|
D|-------------------------|
A|-------------------------|
E|-0-0-0-0-000-0-0-000-000-|
   * * * * *** * * *** ***
e|---------------------------------------|
B|---------------------------------------|
G|---------------------------------------|
D|---------------------------------------|
A|-5---4-5---4-----4-5-----5-4-----4-5-2-|
E|-3-0-2-3-0-2-0-0-2-3-0-0-3-2-0-0-2-3-0-|
     *     *   * *     * *     * *
e|-------------------------|
B|-------------------------|
G|-------------------------|
D|-------------------------|
A|-------------------------|
E|-0-0-0-0-000-0-0-000-000-|
   * * * * *** * * *** ***
e|---------------------------------------|
B|---------------------------------------|
G|---------------------------------------|
D|---------------------------------------|
A|-2---1-2---1-----1-2-----2-1-----1-2-2-|
E|-3-0-2-3-0-2-0-0-2-3-0-0-3-2-0-0-2-3-0-|
     *     *   * *     * *     * *

Final time:
e|-------------------------------------|
B|-------------------------------------|
G|-------------------------------------|
D|-------------------------------------|
A|-2---1-2---1-----1-2-----2-1-----1-2-|
E|-3-0-2-3-0-2-0-0-2-3-0-0-3-2-0-0-2-3-|
     *     *   * *     * *     * *

Solo (Mustaine)
e|-17^b18-----17^b18-----17^b18--17^b18--17^b18--17^b18-|
B|------------------------------------------------------|
G|------------------------------------------------------|
D|------------------------------------------------------|
A|------------------------------------------------------|
E|------------------------------------------------------|

e|-17-15-12-12----12--------------------|
B|-------------17----17-15-12--17-15-12-|
G|--------------------------------------|
D|--------------------------------------|
A|--------------------------------------|
E|--------------------------------------|

e|----------------------------------|
B|-17-15-12----12-------------------|
G|----------15----15-14-12-15-14-12-|
D|----------------------------------|
A|----------------------------------|
E|----------------------------------|

e|--------------------------|
B|--------------------------|
G|-15-14-12-----12----------|
D|----------14-----14-13-12-|
A|--------------------------|
E|--------------------------|

e|-------------------------------------|
B|-------------------------------------|
G|-------------------------------------|
D|-14p13p12----13p12-------12----------|
A|----------14-------14p13----14p13p12-|
E|-------------------------------------|

e|------------------------------------------|
B|------------------------------------------|
G|------------------------------------------|
D|------------------------------------------|
A|-14p13p12----13p12----12----12----12-12---|
E|----------14-------14----15----15-------0-|

e|--------------------------|
B|--------------------------|
G|--------------------------|
D|--------------------------|
A|--------------------------|
E|-/5-8-5-8-5-8-5-8-4\3-5/--|

e|-------------------------------------------------|
B|-------------------------------------------------|
G|-------------------------------------------------|
D|----------------------12h13p12----12h13h14-12-12-|
A|-12h13p12----12h13h14----------14----------------|
E|----------14-------------------------------------|

e|----------------------------------------------------------------|
B|----------------------------------------12h15p12-15-15-17p15p12-|
G|-------12h14-12-14-15h16-15p12-14-12-14-------------------------|
D|-12h14----------------------------------------------------------|
A|----------------------------------------------------------------|
E|----------------------------------------------------------------|

e|-------------12h15h17----------12h15h17----------|
B|-17-12h15h17----------12h15h17----------12h15h17-|
G|-------------------------------------------------|
D|-------------------------------------------------|
A|-------------------------------------------------|
E|-------------------------------------------------|

e|-12h15h17----------12h15h17----------12h15h17--12h15h17-|
B|----------12h15h17----------12h15h17--------------------|
G|--------------------------------------------------------|
D|--------------------------------------------------------|
A|--------------------------------------------------------|
E|--------------------------------------------------------|

e|-17b18r17--12-17p15p12-------------------------|
B|-----------------------17-17p15p12-12-17p14p12-|
G|-----------------------------------------------|
D|-----------------------------------------------|
A|-----------------------------------------------|
E|-----------------------------------------------|

e|-------------------------------------------|
B|-------------------------------------15-12-|
G|-15-15-12----------------------12-12-------|
D|----------15-15-12-14-14-14-14-------------|
A|-------------------------------------------|
E|-------------------------------------------|

e|-------------------------------------------|
B|-15p12--12-15p12-17p12--12-15p12-17p12--12-|
G|------15--------------15--------------15---|
D|-------------------------------------------|
A|-------------------------------------------|
E|-------------------------------------------|

e|-------------------------------------------|
B|-17p12--12-15p12-17p12--12-15p12-17p12--12-|
G|------15--------------15--------------15---|
D|-------------------------------------------|
A|-------------------------------------------|
E|-------------------------------------------|

e|-------------------------------------------|
B|-17p12--12-15p12-17p12--12-15p12-17p12--12-|
G|------15--------------15--------------15---|
D|-------------------------------------------|
A|-------------------------------------------|
E|-------------------------------------------|

e|-------------------------------------------|
B|-17p12--12-15p12-17p12--12-15p12-17p12--12-|
G|------15--------------15--------------15---|
D|-------------------------------------------|
A|-------------------------------------------|
E|-------------------------------------------|

e|-------------------------------------------------|
B|-15p12----12-17p12----12-15p12----12-17p12----12-|
G|-------15----------15----------15----------15----|
D|-------------------------------------------------|
A|-------------------------------------------------|
E|-------------------------------------------------|

e|-------------------------------------------------|
B|-15p12----12-17p12----12-15p12----12-17p12----12-|
G|-------15----------15----------15----------15----|
D|-------------------------------------------------|
A|-------------------------------------------------|
E|-------------------------------------------------|

e|----------------------------------------|
B|-17p15p12--12-17p15p12--12-17p15p12--12-|
G|---------15-----------15-----------15---|
D|----------------------------------------|
A|----------------------------------------|
E|----------------------------------------|

e|--------------------------------------|
B|-17p15p12--12-17p15p12-----x-12-12-17-|
G|---------15-----------15-x------------|
D|--------------------------------------|
A|--------------------------------------|
E|--------------------------------------|

e|---------------------------------------------|
B|-17p15p12---17p15p12---17p15p12---17p15p12---|
G|---------12---------12---------12---------12-|
D|---------------------------------------------|
A|---------------------------------------------|
E|---------------------------------------------|

e|---------------------------------------------|
B|-18p16p13---18p16p13---18p16p13---18p16p13---|
G|---------13---------13---------13---------13-|
D|---------------------------------------------|
A|---------------------------------------------|
E|---------------------------------------------|

e|---------------------------------------------|
B|-19p17p14---19p17p14---19p17p14---19p17p14---|
G|---------14---------14---------14---------14-|
D|---------------------------------------------|
A|---------------------------------------------|
E|---------------------------------------------|

e|---------------------------------------------|
B|-20p18p15---20p18p15---20p18p15---20p18p15---|
G|---------15---------15---------15---------15-|
D|---------------------------------------------|
A|---------------------------------------------|
E|---------------------------------------------|

e|---------------------------------------------|
B|-21p19p16---21p19p16---22p20p17---22p20p17---|
G|---------16---------16---------17---------17-|
D|---------------------------------------------|
A|---------------------------------------------|
E|---------------------------------------------|

e|-------------------------------------------|
B|-23p21p18---23p21p18---24p22p19---24p22p19-|
G|---------18---------18---------19----------|
D|-------------------------------------------|
A|-------------------------------------------|
E|-------------------------------------------|

e|-22b24----22b24--|
B|-----------------|
G|-----------------|
D|-----------------|
A|-----------------|
E|-----------------|

e|-22b24--22b25--22b24--22b24----|
B|-------------------------------|
G|-------------------------------|
D|-------------------------------|
A|-------------------------------|
E|-----------------------------0-|

e|--------------------------------------------------|
B|--------------------------------------------------|
G|--------------------------------------------------|
D|--[Let note ring and depress with whammy bar]-----|
A|--[        then raise back up to E          ]-----|
E|--(0)----------------(0)*d----------------(raise)-|

End Solo


Riff 11 (Play 4x)
e|----------------------------------------|
B|----------------------------------------|
G|----------------------------------------|
D|----------------------------------------|
A|-5h7-----10p7---------5h7-----5h7-----9-|
E|-----000------0-0-0-0-----000-----0-0-7-|
       ***      * * * *     ***     * *
  "Fill the cracks in ..."


Riff 11a
Guitar 1                                x10
e|----------------------------------------|
B|----------------------------------------|
G|----------------------------------------|
D|----------------------------------------|
A|-5h7-----10p7---------5h7-----5h7-----9-|
E|-----000------0-0-0-0-----000-----0-0-7-|
       ***      * * * *     ***     * *
  "Next thing you know..."

e|------------------------------------|
B|------------------------------------|
G|--------------------------8------7--|
D|------------------------------------|
A|-5h7-----10p7---------6-9----5-8----|
E|-----000------0-0-0-0---------------|
       ***      * * * *
                    "...mercy..."

Guitar 2 (Mustaine)
e|----------------------------------------|
B|----------------------------------------|
G|----------------------------------------|
D|----12----------12----14------9---------|
A|-10----10----10----12-----7-6---9-5/7~--|
E|----------12----------------------------|

e|----------------------------------------|
B|----------------------------------------|
G|------------------------8------7--------|
D|----12----------12----------------------|
A|-10----10----10-----6-9----5-8----5/7~~-|
E|----------12----------------------------|



Riff 12
e|----------------------------------------|
B|----------------------------------------|
G|----------------------------------------|
D|----------------------------------------|
A|-5h7-----10p7---------5h7-----5h7-----9-|
E|-----000------0-0-0-0-----000-----0-0-7-|
       ***      * * * *     ***     * *
   "Killings...                    ...mercy..."
e|----------------------------------------|
B|----------------------------------------|
G|----------------------------------------|
D|----------------------------------------|
A|-5h7-----10p7---------5h7-----5h7-----9-|
E|-----000------0-0-0-0-----000-----0-0-7-|
       ***      * * * *     ***     * *
   "...killings...                  ...mercy..."


Riff 13
e|--------------------------------------------|
B|--------------------------------------------|
G|--------------------------------------------|
D|--------------------------------------------|
A|-5h7-----10p7----------5h7-----10p7---------|
E|-----000------0000000------000------0000000-|
       ***      *******      ***      *******
  "...killings...     ...killings..."
e|-----------------------------------------|
B|-----------------------------------------|
G|-----------------------------------------|
D|-----------------------------------------|
A|-5h7-----10p7----------5h7-----10p7------|
E|-----000------00000000-----000------0000-|
       ***      ********     ***      ****
  "...killings...     ...killings..."


Riff 14
e|---------------------------------|
B|---------------------------------|
G|---------------------------------|
D|---------------------------------|
A|-5---4-5---4-----4-5-----5-4-----|
E|-3-0-2-3-0-2-0-0-2-3-0-0-3-2-0-0-|
     *     *   * *     * *     * *
e|---------------------------------|
B|---------------------------------|
G|---------------------------------|
D|---------------------------------|
A|-2---1-2---1-----1-2-----2-1-----|
E|-3-0-2-3-0-2-0-0-2-3-0-0-3-2-0-0-|
     *     *   * *     * *     * *
e|-----------------------------------|
B|-----------------------------------|
G|-----------------------------------|
D|-----------------------------------|
A|-5---4-5---4-----4-5-----5-4-----4-|
E|-3-0-2-3-0-2-0-0-2-3-0-0-3-2-0-0-2-|
     *     *   * *     * *     * *
   "Next thing you know, they'll take..."

e|--------------|
B|--------------|
G|--------------|
D|--------------|
A|-5-6-7-----2--|
E|-------0-0-0--|
         * *
  "...away!"


Notation:

10^        = bend a quarter step.
10b11      = bend a half step.
10b12      = bend a full step.
10b12r10   = bend and release.
[10]12     = pre-bend.
[10]12r10  = pre-bend and release.
{14}       = pick the 14th fret while holding the most
             previous bend.
<17>       = touch the string above the 17th fret while
             previous note(s) is(are) still ringing.

10b13*     = tremolo bar bend, from the 10th fret to the 13th fret.
7d4*       = tremolo bar dive, from the 7th fret to the 4th fret.
12~*       = tremolo bar vibrato.

x   =  mute with fret-hand
*   =  palm mute
X\\ =  pick slide
h   =  hammer-on
p   =  pull-off
~   =  vibrato
t   =  finger tap
/   =  slide up
\   =  slide down
h.  =  natural harmonics
a   =  artificial harmonics
(9) =  ghost note
tm  =  trem picking
tr  =  trill

-----------------------------------------------------------------------

Any comments are welcome!ENJOY!!
comments
We did not receive enough feedback on this tab! Please rate:
print report bad tab
1 2 3 4 5
5 comments total. Showing first comments.
0 reply
Space #6 wrote on February 4 2005, 12:00 am

These tabs are not yours! So don;t try to pass it off as if it is!

0 reply
met_al_lica69 wrote on August 4 2005, 12:00 am

nice......puttin' all of it together not urs but good thanks for all tabs all acuurate even the solos nice well thanks for taking a little of ur time to put it together. 5 stars

0 reply
Andrew Zara wrote on August 17 2005, 12:00 am

Screw you Space #6.What kinda stupid username is that anyway.

I want to post or [tab]
guest
You may want to rate the tab now too:
select rating
Please do not post tabs as comments. Select "correction" instead!