Oops, an error
Loading. Please wait.

Greatest Hits Back To The Start Tab

13,486 views 3 this week
9 commentsread comments
1 2 3 4 5
excellent!
x 9
add to favorites launch autoscroll
font size
0
reset
Autoscroll
+/-
esc
set tempo
stop
Contributor
Difficulty
advanced
WARNING: You are trying to view
                                    content from Ultimate-Guitar.com
                                    in an unauthorized application,
                                    which is prohibited.

                                    Please use an official Ultimate
                                    Guitar Tabs application for iPhone,
                                    iPad or Android to access legitimate
                                    chords, guitar, bass, and drum tabs
                                    from Ultimate-Guitar.com database.

                                    Type "ultimate guitar tabs" in Apple
                                    App Store's or Android Market's
                                    search to find the application.
Here is their Greatest Hits album, I'm shocked that no one has put this tab on this web site.

1.Holy Wars...The Punishment Due
2.In My Darkest Hour
3.Peace Sells 
4.Sweating Bullets 
5.Angry Again
6.A Tout Le Monde 
7.Trust
8.Kill the King
9.Symphony of Destruction
10.Mechanix
11.Train of Consequences
12.Wake Up Dead
13.Hangar 18
14.Dread and the Fugitive Mind
15.Skin O'My Teeth 
16.She-Wolf 
17.Prince of Darkness

1.Holy Wars 

Gtr I (E A D G B E) - 'Untitled'
Gtr II (E A D G B E) - 'Untitled'
Gtr III (E A D G B E) - 'Untitled'
Gtr IV (E A D G B E) - 'Lead Guitar'

 Intro
  Q=172
            N.C.                             E5
 4/4
  Gtr I
                        PM---------------|
  H..       S S   E S S E S S E  S S E S S   H    Q.   S S
|---------------|--------------------------|---------------|
|---------------|--------------------------|---------------|
|---------------|--------------------------|---------------|
|---------------|--------------------------|---------------|
|-----------5-6-|-7------------------------|-2----2----5-6-|
|---------------|---5-6-7-7-6-5\-5-5-3-3-3-|-0----0--------|


                    C5/G    F#5
                                      Gtrs I, II
        PM--------------|             PM|
  E S S E S S E S S E S S   H.      E S S
|-------------------------|-----------------|
|-------------------------|-----------------|
|-------------------------|-----------------|
|-------------------------|-----------------|
|-7-----------------3-----|-4---------5-6---|
|---5-6-7-7-6-5-5-5-3-3-3-|-2---------------|


  N.C.
  PM------------------------------------------------------------------------|
  E S S E S S E S S e S S   E S S E S S E S S e S S   E S S E S S E S S e S S
|-------------------------|-------------------------|--------------------------|
|-------------------------|-------------------------|--------------------------|
|-------------------------|-------------------------|--------------------------|
|---------------------2-3-|-4-----------------------|--------------------------|
|-7-----------------------|---3-4-5-5-4-3-3-3-2-5-6-|-7-------------------5-6--|
|---5-6-7-7-6-5-5-5-3-----|-------------------------|---5-6-7-7-6-5-5-5-3------|


    N.C.(Em7)                                            A5Bb5
             PM----------------------------------------|
    e S S e  S S S S S S S S S S   S S S S e S S S S S S E E
||-------------------------------|---------------------------|
||o------------------------------|---------------------------|
||-------------------------------|---------------------------|
||-------------------------------|---------------------------|
||o-7-------10p7-----------------|-5h7-------5h7---------7-8-|
||----0-0-0------0-0-0-0-0-0-0-0-|-----0-0-0-----0-0-0-0-5-6-|


  (Em7)                                                  F5 B5
             PM----------------------------------------|
  S S S S e  S S S S S S S S S S   S S S S e S S S S S S  E E
|--------------------------------|----------------------------|
|--------------------------------|----------------------------|
|--------------------------------|----------------------------|
|--------------------------------|-----------------------10---|
|-5h7-------10p7-----------------|-5h7-------5h7----------8-9-|
|-----0-0-0------0-0-0-0-0-0-0-0-|-----0-0-0-----0-0-0-0----7-|


  N.C.(Em7)                                              B5G5
             PM----------------------------------------|
  S S S S e  S S S S S S S S S S   S S S S e S S S S S S E E
|--------------------------------|---------------------------|
|--------------------------------|---------------------------|
|--------------------------------|---------------------------|
|--------------------------------|-----------------------4---|
|-5h7-------10p7-----------------|-5h7-------5h7---------2-5-|
|-----0-0-0------0-0-0-0-0-0-0-0-|-----0-0-0-----0-0-0-0---3-|


  1.
  (Em7)                        B5              Bb5       A5G5
             PM--------------|
  S S S S e  S S S S S S S S S S   +E  S S S S E +E  S S E E
|--------------------------------|---------------------------|
|--------------------------------|---------------------------|
|--------------------------------|---------------------------|
|--------------------------------|---------------------------|
|-5h7-------10p7---------------9-|-(9)---------8-(8)-----7-5-|
|-----0-0-0------0-0-0-0-0-0-0-7-|-(7)-0-0-0-0-6-(6)-0-0-5-3-|


                                  2.
  B5                      G5F#5   N.C.(Em)                     B5
                                             PM--------------|
                        |-3-|
  H    +Q.   E   E E Q  Q Q Q     S S S S e  S S S S S S S S S S
|--------------|---------------||---------------------------------|
|--------------|--------------o||---------------------------------|
|--------------|---------------||---------------------------------|
|-4----(4)-----|-4------4------||---------------------------------|
|-2----(2)-----|-2------2-5-4-o||-5h7-------10p7------------------|
|------------2-|----------3-2--||-----0-0-0------0-0-0-0-0-0-0-7--|


              Bb5       A5G5  N.C.(Em7)                    B
      PM----|       PM|               PM-------------------|
  +E  S S S S E +E  S S E E   S S S S e  S S S S S S S S S S
|---------------------------|--------------------------------|
|---------------------------|--------------------------------|
|---------------------------|--------------------------------|
|---------------------------|--------------------------------|
|---------------------------|-5h7-------10p7---------------6-|
|-(7)-0-0-0-0-6-(6)-0-0-5-3-|-----0-0-0------0-0-0-0-0-0-0---|


              Bb        A GsusN.C.(Em7)                    B
   PM-----------------|               PM-----------------|
  +E  S S S S E +E  S S E E   S S S S e  S S S S S S S S S S
|---------------------------|--------------------------------|
|---------------------------|--------------------------------|
|---------------------------|--------------------------------|
|---------------------------|--------------------------------|
|-(6)---------5-(5)-----4---|-5h7-------10p7---------------9-|
|-----0-0-0-0-------0-0---5-|-----0-0-0------0-0-0-0-0-0-0---|


  B5          Bb5         Gsus(Em)
          PM------------|
  +E  S S S S E +E  S S E E
|---------------------------|
|---------------------------|
|---------------------------|
|---------------------------|
|-(9)---------8-(8)-----7---|
|-----0-0-0-0-------0-0---8-|


                               B5              Bb5    A5G7
          PM-----------------|         PM--|
  S S S S e  S S S S S S S S S S   +E  S S S S E +Q   E E
|--------------------------------|-------------------------||
|--------------------------------|-------------------------||
|--------------------------------|-------------------------||
|------------------------------9-|-(9)---------8-(8)--7----||
|-5h7-------10p7-----------------|-----------7----------8--||
|-----0-0-0------0-0-0-0-0-0-0---|-----0-0-0---------------||


   Pre-Verse
    N.C.(Em7)                                                          B5
    |-----3-----|      |------3------|       |-----3-----|
    Q     Q     Q      Q     Q       Q       Q     Q     Q     Q       Q
||-----------------------------------------|-------------------------------|
||o----------------------------------------|-------------------------------|
||--------7--------------------------7-----|-------9-----------------------|
||--5-----------5------------5-------------|-7-------------------------9---|
||o--------------------7-------------------|-------------7-----6-----------|
||-----------------------------------------|-------------------------------|
|
|   Gtr II
|             PM-----------------------------------------------------|
|   S S S   S e    S S S S S   S S S   S S   S S S   S e   S S S S S S Q
||-----------------------------------------|-------------------------------|
||o----------------------------------------|-------------------------------|
||-----------------------------------------|-------------------------------|
||-----------------------------------------|-------------------------------|
||o-5h7-----------10p7---------------------|-5h7-----------5h7---------9---|
||------0---0-0--------0-0-0---0-0-0---0-0-|-----0---0-0-------0-0-0-0-7---|


  N.C.(Em7)                                               B5
  ~~~~~~~~~~~~~~~~~~~~~~~~~~~~~~~~~~~~~
  W                                +H.                    Q
|--------------------------------|---------------------------|
|--------------------------------|---------------------------|
|--------------------------------|---------------------------|
|--------------------------------|---------------------------|
|-7------------------------------|-(7)--------------------9--|
|--------------------------------|---------------------------|
|
|         PM--------------------------------------------|
| S S S S e  S S S S S S S S S S    S S S S e S S S S S S Q
|--------------------------------|---------------------------|
|--------------------------------|---------------------------|
|--------------------------------|---------------------------|
|--------------------------------|---------------------------|
|-5h7-------10p7-----------------|--5h7-------5h7---------9--|
|-----0-0-0------0-0-0-0-0-0-0-0-|------0-0-0-----0-0-0-0-7--|


  N.C.(Em7)                                                              B5
  |-----3-----|      |------3------|       |-----3-----|     |-----3-----|
  Q     Q     Q      Q     Q       Q       Q     Q     Q     Q     Q     Q
|----------------------------------------|---------------------------------|
|----------------------------------------|---------------------------------|
|-------7--------------------------7-----|-------------8-----------------7-|
|-5-----------5------------5-------------|-------4-----------------3-------|
|--------------------7-------------------|-6-----------------5-------------|
|----------------------------------------|---------------------------------|
|
|           PM-------------------------------------------------------|
| S S S   S e    S S S S S   S S S   S S   S S S   S e   S S S S S   S Q
|----------------------------------------|---------------------------------|
|----------------------------------------|---------------------------------|
|----------------------------------------|---------------------------------|
|----------------------------------------|---------------------------------|
|-5h7-----------10p7---------------------|-5h7-----------5h7-----------9---|
|-----0---0-0--------0-0-0---0-0-0---0-0-|-----0---0-0-------0-0-0---0-7---|


  1.
  N.C.(Em7)                                               B5
  ~~~~~~~~~~~~~~~~~~~~~~~~~~~~~~~~~~~~~
  W                                +H.                    Q
|--------------------------------|----------------------------||
|--------------------------------|---------------------------o||
|--------------------------------|----------------------------||
|--------------------------------|----------------------------||
|-7------------------------------|-(7)--------------------9--o||
|--------------------------------|----------------------------||
|
|         PM--------------------------------------------|
| S S S S e  S S S S S S S S S S    S S S S e S S S S S S Q
|--------------------------------|----------------------------||
|--------------------------------|---------------------------o||
|--------------------------------|----------------------------||
|--------------------------------|----------------------------||
|-5h7-------10p7-----------------|--5h7-------5h7---------9--o||
|-----0-0-0------0-0-0-0-0-0-0-0-|------0-0-0-----0-0-0-0-7---||


  2.
  N.C.(Em7)
            ~~~~~~~~~~~~~~~~~~~~~~~~~~~
  S E.     +Q       +H
|-------------------------------------|
|-------------------------------------|
|-------------------------------------|
|-------------------------------------|
|-5-7------(7)------(7)---------------|
|-------------------------------------|
|
|           PM-------------------------
| S S  S S  e   S S  S  S S S S S S S
|-------------------------------------|
|-------------------------------------|
|-------------------------------------|
|-------------------------------------|
|-5h7----------10p7-------------------|
|------0-0--0--------0--0-0-0-0-0-0-0-|


                            G5A5  F#G5  F#5     G5        F#5     G5
 ~~~~~~~~~~~~~~~                      PM  PM|       PM|     PM|
  +Q.        E   +Q         E E   E E E E E E E E   E E E E E E E E
|-------------------------------|-----------------|-----------------|
|-------------------------------|-----------------|-----------------|
|-------------------------------|-----------------|-----------------|
|-------------------------------|-----------------|-----------------|
|-(7)--------7---(7)\-------5-7-|-4-5---4-----4-5-|-----5-4-----4-5-|
|---------------------------3-5-|-2-3-0-2-0-0-2-3-|-0-0-3-2-0-0-2-3-|
|
|-------------------------|           PM  PM|       PM|     PM|
|  S S S S e S S  S   S S S E E   E E E E E E E E   E E E E E E E E
|-------------------------------|-----------------|-----------------|
|-------------------------------|-----------------|-----------------|
|-------------------------------|-----------------|-----------------|
|-------------------------------|-----------------|-----------------|
|--5h7-------5h7------------5-7-|-4-5---4-----4-5-|-----5-4-----4-5-|
|------0-0-0------0---0-0-0-3-5-|-2-3-0-2-0-0-2-3-|-0-0-3-2-0-0-2-3-|


  N.C.(Em7)
  Gtrs I, II
          PM----------------------
  S S S S e  S S S S S S S S S S
|--------------------------------|
|--------------------------------|
|--------------------------------|
|--------------------------------|
|-5h7-------10p7-----------------|
|-----0-0-0------0-0-0-0-0-0-0-0-|


                        G5A5/EF#G   F#      G
 ---------------------|           PM  PM|
  S S S S e S S S S S S E E   E E E E E E E E
|---------------------------|------------------|
|---------------------------|------------------|
|---------------------------|------------------|
|---------------------------|------------------|
|-5h7-------5h7---------5-0-|-1-2---1-----1-2--|
|-----0-0-0-----0-0-0-0-3-0-|-2-3-0-2-0-0-2-3--|


        F#      G   N.C.(Em7)
  PM|     PM|               PM-------------------|
  E E E E E E E E   S S S S e  S S S S S S S S S S
|-----------------|--------------------------------|
|-----------------|--------------------------------|
|-----------------|--------------------------------|
|-----------------|--------------------------------|
|-----2-1-----1-2-|-5h7-------10p7-----------------|
|-0-0-3-2-0-0-2-3-|-----0-0-0------0-0-0-0-0-0-0-0-|


                        G5A5  F#G5  F#5     G5        F#5     G5
  PM------------------|           PM  PM|       PM|     PM|
  S S S S e S S S S S S E E   E E E E E E E E   E E E E E E E E
|---------------------------|-----------------|-----------------|
|---------------------------|-----------------|-----------------|
|---------------------------|-----------------|-----------------|
|---------------------------|-----------------|-----------------|
|-5h7-------5h7---------5-7-|-4-5---4-----4-5-|-----5-4-----4-5-|
|-----0-0-0-----0-0-0-0-3-5-|-2-3-0-2-0-0-2-3-|-0-0-3-2-0-0-2-3-|


  N.C.(Em7)                                              G5A5/E
          PM-------------------------------------------|
  S S S S e  S S S S S S S S S S   S S S S e S S S S S S E E
|--------------------------------|---------------------------|
|--------------------------------|---------------------------|
|--------------------------------|---------------------------|
|--------------------------------|---------------------------|
|-5h7-------10p7-----------------|-5h7-------5h7---------5-0-|
|-----0-0-0------0-0-0-0-0-0-0-0-|-----0-0-0-----0-0-0-0-3-0-|


  F#G   F#    F#G5        F#5
      PM  PM|       PM|     PM--------|
  E E E E E E E E   E E E E E E S S S S
|-----------------|---------------------||
|-----------------|---------------------||
|-----------------|---------------------||
|-----------------|---------------------||
|-1-2---1-----4-5-|-----5-4-----------5-||
|-2-3-0-2-0-0-2-3-|-0-0-3-2-0-0-5-7-8---||


   1st, 2nd Verses
    N.C.(E5)Em  F#/E      N.C.(EA#m   BmA#m
    Gtr I
      PM--|                 PM|
    e S S E E E E E S S   e E E E +E  E E S S
||----------------------|---------------------|
||o---------------------|---------------------|
||----------4---3-------|---------------------|
||----------5---4-------|---------------------|
||o-7---------------5-6-|-7---------------5-6-|
||----0-0-0-------------|---0-0-6-(6)-7-6-----|
|
|   Gtr II
|     PM--|                 PM|
|   e S S E E E E E S S   e E E E +E  E E S S
||----------------------|---------------------|
||o---------------------|---------------------|
||----------4---3-------|---------------------|
||----------5---4-------|---------------------|
||o-7---------------5-6-|-7-----4-(4)-5-4-5-6-|
||----0-0-0-------------|---0-0---------------|


  N.C.(E5)Em/GD#m/F#    N.C.(EF#        G
    PM--|                 PM|       PM
  e S S E E E E E S S   e E E E +E  E E E
|---------------------|-------------------|
|---------------------|-------------------|
|---------------------|-------------------|
|---------------------|-------------------|
|-7-------7---6---5-6-|-7-----1-(1)---1-2-|
|---0-0-0-3---2-------|---0-0-2-(2)-0-2-3-|
|
|   PM--|                 PM|       PM
| e S S E E E E E S S   e E E E +E  E E E
|---------------------|-------------------|
|---------------------|-------------------|
|---------------------|-------------------|
|---------------------|-------------------|
|-7-------7---6---5-6-|-7-----1-(1)---1-2-|
|---0-0-0-3---2-------|---0-0-2-(2)-0-2-3-|


  A             G A   Bb
  Gtrs I, II
    PM|       PM        PM|
  E E E E +E  E E E   E E E E +E  E E E
|-------------------|-------------------|
|-------------------|-------------------|
|-------------------|-------------------|
|-------------------|-------------------|
|-4-----4-(4)---2-4-|-5-----5-(5)-------|
|-5-0-0-5-(5)-0-3-5-|-6-0-0-6-(6)-5-3-5-|


  N.C.(Em)  Bb    Am      N.C.(Em)  Bb5   A5
      PM--|                   PM--|
  S S S S E E +E  E E E   S S S S e E +E  E E S S
|-----------------------|--------------------------|
|-----------------------|--------------------------|
|-----------------------|--------------------------|
|-----------------------|--------------------------|
|-----------5-(5)-3-----|-----------8-(8)-7---5-6--|
|-3p0-0-0-0-6-(6)-5-3-5-|-3p0-0-0-0-6-(6)-5-3------|


  N.C.(E5)Em  F#/E      N.C.(EA#m   BmA#m
  Gtr I
    PM--|                 PM|
  e S S E E E E E S S   e E E E +E  E E S S
|---------------------|---------------------|
|---------------------|---------------------|
|---------4---3-------|---------------------|
|---------5---4-------|---------------------|
|-7---------------5-6-|-7---------------5-6-|
|---0-0-0-------------|---0-0-6-(6)-7-6-----|
|
| Gtr II
|   PM--|                 PM|
| e S S E E E E E S S   e E E E +E  E E S S
|---------------------|---------------------|
|---------------------|---------------------|
|---------4---3-------|---------------------|
|---------5---4-------|---------------------|
|-7---------------5-6-|-7-----4-(4)-5-4-5-6-|
|---0-0-0-------------|---0-0---------------|


  N.C.(E5)Em/GD#m/F#    N.C.(EF#        G
    PM--|                 PM|       PM
  e S S E E E E E S S   e E E E +E  E E E
|---------------------|--------------------|
|---------------------|--------------------|
|---------------------|--------------------|
|---------------------|--------------------|
|-7-------7---6---5-6-|-7-----1-(1)---1-2--|
|---0-0-0-3---2-------|---0-0-2-(2)-0-2-3--|
|
|   PM--|                 PM|       PM
| e S S E E E E E S S   e E E E +E  E E E
|---------------------|--------------------|
|---------------------|--------------------|
|---------------------|--------------------|
|---------------------|--------------------|
|-7-------7---6---5-6-|-7-----1-(1)---1-2--|
|---0-0-0-3---2-------|---0-0-2-(2)-0-2-3--|


  A             G A   Bb
  Gtrs I, II
    PM|       PM        PM|
  E E E E +E  E E E   E E E E +E  E E E
|-------------------|-------------------|
|-------------------|-------------------|
|-------------------|-------------------|
|-------------------|-------------------|
|-4-----4-(4)---2-4-|-5-----5-(5)-------|
|-5-0-0-5-(5)-0-3-5-|-6-0-0-6-(6)-5-3-5-|


  N.C.(Em)  Bb    Am      N.C.(Em)  Bb5   A5
      PM--|                   PM--|
  S S S S E E +E  E E E   S S S S e E +E  E E S S
|-----------------------|---------------------------||
|-----------------------|--------------------------o||
|-----------------------|---------------------------||
|-----------------------|---------------------------||
|-----------5-(5)-3-----|-----------8-(8)-7---5-6--o||
|-3p0-0-0-0-6-(6)-5-3-5-|-3p0-0-0-0-6-(6)-5-3-------||


                             Q=128     H.=H
  N.C.                       E5
                             Gtrs I, II
  W                          W
                             |
                             /

                             Gtr III
    PM------------------|
  E S S E S S E S S E S S    Q  E S  S  Q.    E
|-------------------------||--------------------|
|-------------------------||-----------12----10-|
|-------------------------||------9h10----------|
|-------------------------||--------------------|
|-7---------------------0-||--------------------|
|---5-6-7-7-6-5-5-5-3-3---||--------------------|


  +W
   |
   /

         |--3--|                 |-----6------|
   E  E  S  S  S  E  S  S  S  S  S  S  S S  S S
|-------11-12-11----11-12----12-10----10-8----8-|
|-12-13----------13-------13-------12------10---|
|-----------------------------------------------|
|-----------------------------------------------|
|-----------------------------------------------|
|-----------------------------------------------|


  +W
   |
   /

   |----6----| |----6----|          |-3-| |-3-|
   S S S S S S S S S S S S S a  S S T T T E E E
|--7---7-5---5-4---4-5---5-7-7s10-7-5h6p5-------|
|----9-----6-----5-----6------------------6-3-4-|
|-----------------------------------------------|
|-----------------------------------------------|
|-----------------------------------------------|
|-----------------------------------------------|


                                              2/4
  +W                                           +H
   |                                            |
   /                                            /

       |-3-|
   S S T T T S T T T T T T T T S S S S E  E    +H
|----------------------------------------^0-||-(0)----||
|--5-2-4h5p4-0-3-2-1-0---1-0-------------^0-||-(0)----||
|----------------------2-----2-1-0-------^1-||-(1)----||
|----------------------------------4-3-2-^2-||-(2)----||
|-------------------------------------------||--------||
|-------------------------------------------||--------||


   Bridge
    Q=128
    C5B5/F#     C5B5/F#         C5D5/A
   4/4
    Gtrs I, II
        PM  PM|           PM----|
    E E E E E E E E   E E E E E E Q   4x
||------------------|-----------------||
||o-----------------|----------------o||
||------------------|-----------------||
||------------------|-----------------||
||o-3-2---2-----3-2-|---2-----2-3-5--o||
||--3-2-0-2-0-2-3-2-|-2-2-0-0-2-3-5---||


 Intro to "Punishment Due"
  E5              C5                      N.C.(E5) B5  G F#  E5  F#F E5  F E5
                                                                           Gtr II
  W                    W                  W                  H       Q   E E
                                                                           |
                                                                           /

  Gtr I
  PM|                                                  PM|       PM|     PM
  E E a E E E E E E   +H     +Q   +Q      Q  a E E E E E e   E E E E E E E E
|-------------------|-------------------|------------------|-0-------0---------|
|-------------------|-------------------|------------------|---0-------0-------|
|-------------------|-------------------|------------------|-------------------|
|-----0h2---4-----5-|-(5)----(5)--(5)\--|----0h2---4-------|-------------------|
|-2-------2-----3-3-|-(3)----(3)--(3)\--|--------2-2---2-1-|-----1-0-----0-----|
|-0-0---------0-----|-------------------|-0----------0-3-2-|-----2-1-----1-0---|


  +W                   +W
   |                    |
   /                    /

  +Q   a E E E E E E    H    +Q   +Q
|--------------------|------------------|
|--------------------|------------------|
|--------------------|------------------|
|------0h2---4-----5-|--5----(5)--(5)\--|
|----------2-----3-3-|--3----(3)--(3)\--|
|-(0)----------0-----|------------------|


                 G5F#5     F#F5    F5E5
  +H.            E E   Q   E E Q   E E
   |             | |       | |     | |
   /             / /       / /     / /

                 PM|       PM|     PM
   Q   a E E E E E e   E E E E E E E E
|--------------------|-0-------0---------||
|--------------------|---0-------0-------||
|--------------------|-------------------||
|------0h2---4-------|-------------------||
|----------2-2---2-1-|-----1-0-----0-----||
|--0-----------0-3-2-|-----2-1-----1-0---||


   Verse
    E5              C5
    Gtrs I, II
    PM|         PM            PM-------------
    E E a E E E E E  E    +E  E E E E E E E
||----------------------|-------------------|
||o---------------------|-------------------|
||----------------------|-------------------|
||------0h2---4------5--|-(5)-5-5-5-5-5-5-5-|
||o-2-2-----2-----3-(3)-|-(3)-3-3-3-3-3-3-3-|
||--0-0---------0-------|-------------------|


  E5            G F#  E5  F#F E5  F E5
 ---|         PM--|       PM|     PM
  E E a E E E E E E   E E E E E E E E   4x
|-------------------|-0-------0---------||
|-------------------|---0-------0------o||
|-------------------|-------------------||
|-----0-2---4-------|-------------------||
|-2-2-----2-----2-1-|-----1-0-----0-2--o||
|-0-0---------0-3-2-|-----2-1-----1-0---||


 First Guitar Solo
  G7                           Bbsus2                                        F5    F#5
  Gtr IV
  S S S S S S S S  S S S S S S S S    S S S S   S  S  S  S  S  S  S     S  a  S  S  E
|---------------7-10p7-----------6-|-10p6---------------10-13p10-------10-------13-13-|
|-------------8--------8-------6---|------6----------11----------13b15----13s15-------|
|-----------7------------7---7-----|--------7-----10----------------------------------|
|-------5h9----------------9-------|----------/12-------------------------------------|
|-----5----------------------------|--------------------------------------------------|
|-3h7------------------------------|--------------------------------------------------|
|
| Gtrs I, II
| PM--------------|
| E   E   E   E    E   E   E   E      E   E     E     E     E     E           E     E
|----------------------------------|--------------------------------------------------|
|-------------0--------------------|------------1-------------------------------------|
|---------0--------0---------------|------3-----------3-------------------------------|
|-----0----------------3---0-------|--3-----------------------------------------------|
|-2----------------------------1---|------------------------1-----------------3-----4-|
|----------------------------------|------------------------------0-----------1-----2-|


  G7                                   Bbsus2
      ~~~~~
   E  Q.        S  S  S     S  S     S  S  S
|-18-18b20-----15-------------------------20b22--|
|-----------------15-17b18r17-17b18r17p15--------|
|------------------------------------------------|
|------------------------------------------------|
|------------------------------------------------|
|------------------------------------------------|
|
|               PM------------|
|  E  E    E E  E     E        E        E
|------------------------------------------------|
|----------3-0-----------------------------------|
|---------------0--------------------------------|
|---------------------3--------0-----------------|
|-----2---------------------------------1--------|
|--3---------------------------------------------|


  Bbsus2                         F5F#5
                        ~~~~~~~~
   +Q         Q        +Q        E  E
|-(20)pb22---20pb22---(20)pb22-----24b27-|
|----------------------------------------|
|----------------------------------------|
|----------------------------------------|
|----------------------------------------|
|----------------------------------------|
|
|   E      E  E     E   E      E E  E
|----------------------------------------|
|-------------1--------------------------|
|----------3--------3--------------------|
|---3------------------------------------|
|-----------------------1--------3--4----|
|------------------------------0-1--2----|


  G7                               Bbsus2                                F5 F#5
                                                                          ~~
   +Q         Q       Q       E     E    +E.   S  S  S  S  S  S  S  S  S  Q
|-(24)pb27---24b27---24b27---24b27r24-|-(24)-----22p18-15---------------------|
|-------------------------------------|-------------------15------------------|
|-------------------------------------|----------------------15p14------------|
|-------------------------------------|----------------------------15-12------|
|-------------------------------------|----------------------------------13---|
|-------------------------------------|---------------------------------------|
|
|                     PM-----|
|   E      E  E    E  E    E  E     E     E  E    E     E     E     E     E E
|-------------------------------------|---------------------------------------|
|-------------3----0------------------|-----------1---------------------------|
|---------------------0---------------|------3----------3---------------------|
|--------------------------3--0-------|---3-----------------------------------|
|----------2------------------------1-|-----------------------1-----------3-4-|
|---3---------------------------------|-----------------------------0-----1-2-|


  G7                         G     F#
  W
  E E S  S  S  S  S  S  S  S  S  S  S  S
|----------------------------------------||
|---8-8s10-10-10-10s11-11-11-11s13-13-13-||
|----------------------------------------||
|---5-5s=7--7--7--7s=8--8--8--8s10-10-10-||
|----------------------------------------||
|----------------------------------------||
|
|                             PM---|
| E E E     E     E     E     E     E
|----------------------------------------||
|-----3-----0----------------------------||
|-----------------0----------------------||
|-----------------------3----------------||
|---2-------------------------2-----1----||
|-3---------------------------3-----2----||


     E5       F#       N.C.(F)  E5           F        E5                         E5                 C5
 5/4                                                                            4/4
                                                                                 Gtr II
      W                                                                           H..                E
                                                                                  |                  |
                                                                                  /                  /

               |------6-------|               |------6-------|
   a  S  S  E  S  S  S  S  S  S  T  S.  S  S  S  S  S  S  S  S  S  a  S  E        E   E   Q   H
|-----------------------------------------------------------------------20b22-||-20\----------------------|
|-13s18-15h18-15----15h18p15-----------18p15----15----------------------------||--------------------------|
|----------------18----------18-17p15--------18----18p17p15----17-15h16-------||--------------------------|
|-----------------------------------------------------------17----------------||--------------------------|
|-----------------------------------------------------------------------------||--------------------------|
|-----------------------------------------------------------------------------||--------------------------|
|
|                                                                                Gtr I
|              PM------|
|     E     E  E        E        E      E     E        E        Q                 Q     a E E E E E  E
|-----0--------------------------0--------------------------------------------||--------------------------|
|-----------0---------------------------0-------------------------------------||--------------------------|
|-----------------------------------------------------------------------------||--------------------------|
|-----------------------------------------------------------------------------||--------0s2---4------5----|
|--------------1------------------------------0--------2----------------------||------------2-----3-(3)---|
|--------------2--------1---------------------1--------0----------------------||--0-------------0---------|


                E5                               G5F#5     F#F5      E5
  +H.            E       E        S E.   Q   Q   E E   Q   E E Q   E E
   |             |       |        |              | |       | |     | |
   /             /       /        /              / /       / /     / /

   H        Q    S   S   S   S    W                    W
|---------------17p=15--12------|--------------------|-----------------||
|---------------------------12--|--------------------|-----------------||
|-------------------------------|--------------------|-----------------||
|-------------------------------|--------------------|-----------------||
|-------------------------------|--------------------|-----------------||
|-------------------------------|--------------------|-----------------||
|
|     PM------|                                  PM|       PM|     PM
| +E  E E E E E  S   S   S   S    S E. a E E E E E E   E E E E E E E E
|-------------------------------|--------------------|-0-------0-------||
|---------------<5>-------------|--------------------|---0-------0-----||
|-------------------<5>---------|--------------------|-----------------||
|-(5)-------5-5---------<5>-----|------0h2---4-------|-----------------||
|-(3)-3-3-3-3-3-------------<7>-|-2--------2-2---2-1-|-----1-0-----0-2-||
|-------------------------------|-0------------0-3-2-|-----2-1-----1-0-||


    E5              C5
    Gtrs I, II
    PM|         PM            PM-------------
    E E a E E E E E  E    +E  E E E E E E E
||----------------------|-------------------|
||o---------------------|-------------------|
||----------------------|-------------------|
||------0h2---4------5--|-(5)-5-5-5-5-5-5-5-|
||o-2-2-----2-----3-(3)-|-(3)-3-3-3-3-3-3-3-|
||--0-0---------0-------|-------------------|


  E5            G F#  E5  F#F E5  F E5
 ---|         PM--|       PM|     PM
  E E a E E E E E E   E E E E E E E E   3x
|-------------------|-0-------0---------||
|-------------------|---0-------0------o||
|-------------------|-------------------||
|-----0-2---4-------|-------------------||
|-2-2-----2-----2-1-|-----1-0-----0-2--o||
|-0-0---------0-3-2-|-----2-1-----1-0---||


  E5              C5
  Gtr IV
  W                      W
|---------------------|-------------------|
|---------------------|-------------------|
|---------------------|-------------------|
|---------------------|-------------------|
|---------------------|-------------------|
|---------------------|-------------------|
|
| Gtrs I, II
| PM|         PM            PM-------------
| E E a E E E E E  E    +E  E E E E E E E
|---------------------|-------------------|
|---------------------|-------------------|
|---------------------|-------------------|
|-----0h2---4------5--|-(5)-5-5-5-5-5-5-5-|
|-2-2-----2-----3-(3)-|-(3)-3-3-3-3-3-3-3-|
|-0-0---------0-------|-------------------|


  E5            G F   E5  F#F E5  F  E5
  W                   H       Q   E.   S
|-------------------|-------------------------|
|-------------------|-------------------------|
|-------------------|------------------5pb7===|
|-------------------|-------------------------|
|-------------------|-------------------------|
|-------------------|-------------------------|
|
|---|         PM--|       PM|     PM
| E E a E E E E E E   E E E E E E E  E
|-------------------|-0-------0---------------|
|-------------------|---0-------0-------------|
|-------------------|-------------------------|
|-----0-2---4-------|-------------------------|
|-2-2-----2-----2-1-|-----1-0-----0--2--------|
|-0-0---------0-3-2-|-----2-1-----1--0--------|


 2nd Guitar Solo
  G7                         Bbsus2                  F5F#5
                                  ~~~                ~
  +Q.     +S   S S S S S S S E   +Q.     S S S S S S Q
|------------------------------|---------6s8-8-8---------|
|------------------------------|-------------------------|
|-(5)-----(5)r-3---3-----------|---------3s5-5-5-5s7-5---|
|----------------5---5p3-------|-------------------------|
|------------------------5-3---|-------------------------|
|----------------------------6-|-(6)---------------------|
|
|  PM------------|
|  E  E E  E     E   E   E   E    E  E E E   E   E   E E
|------------------------------|-------------------------|
|----------0-------------------|-------1-----------------|
|-------0--------0-------------|-----3---3---------------|
|-----0--------------3---0-----|--3----------------------|
|--2-------------------------1-|-------------1-------3-4-|
|------------------------------|-----------------0---1-2-|


  G7                  Bbsus2                   F5    F#5
  PM
            |-3-|
  E E E E E S S S S S E      +E  +E  E  E  Q    S  S  E
|--------------------------|-----------------------------|
|-------6-8-6-8-6---6-6b8==|=(6)r(6)---------------------|
|-0-5-7-----------7--------|---------7-10-10-------------|
|--------------------------|-----------------------------|
|--------------------------|-------------------------14--|
|--------------------------|-------------------10s15-----|
|
|         PM------|
| E E E E E E     E   E       E   E  E  E  E E  E     E
|--------------------------|-----------------------------|
|-----3-0------------------|---------1-------------------|
|---------0----------------|------3-----3----------------|
|-----------3-----0--------|--3--------------------------|
|---2-----------------1----|---------------1----3-----4--|
|-3------------------------|-----------------0--1-----2--|


  G7                                  Bbsus2                                   F5 F#5
                             ~~~~~                                              ~~
   S  S  S  S  S  S  E      +Q      E  E    S  S  S  S  S  S  S  S  S  S  S  S  E  +S  S
|----------------------------------------|----22-18-------------18-15--------------------|
|-------------------18b20==(18)r---15-18-|-18-------22-18s15-15-------18-15--------------|
|----------15-18-15----------------------|----------------------------------18-19-(19)p0-|
|----15-17-------------------------------|-----------------------------------------------|
|-17-------------------------------------|-----------------------------------------------|
|----------------------------------------|-----------------------------------------------|
|
|                            PM----|
|  E     E     E     E       E   E  E  E    E     E     E     E     E     E     E   E
|----------------------------------------|-----------------------------------------------|
|--------------3-----0-------------------|--------------1--------------------------------|
|----------------------------0-----------|--------3-----------3--------------------------|
|--------------------------------3--0----|--3--------------------------------------------|
|--------2-----------------------------1-|--------------------------1-----------3---4----|
|--3-------------------------------------|--------------------------------0-----1---2----|


  G7                         G  F#   E5    F# F  E5     F     E5
                      ~~~~~                    ~~~~~~~
   Q       +E   S  S  Q       E  E    E  E  E  E  +Q     +Q
|-20b22r==(20)-15------------------|-----------------------------|
|-----------------18-18b20---------|-----------------------------|
|----------------------------15s17-|-17h18-18p17-(17)---(17)\----|
|----------------------------------|-----------------------------|
|----------------------------------|-----------------------------|
|----------------------------------|-----------------------------|
|
|                             PM|           PM|
|  E    E   E   E     E    E  E  E    E  E  E  E   E  E   E   E
|----------------------------------|--0------------0-------------|
|-----------3---0------------------|-----0------------0----------|
|---------------------0------------|-----------------------------|
|--------------------------3-------|-----------------------------|
|-------2---------------------2--1-|--------1-------------0---2--|
|--3--------------------------3--2-|--------2--1----------1---0--|


   3rd Guitar Solo
    Q=172
    E5                                                             G5E5
    Gtrs I, II
        PM---------------------------------------------------|
    Q   E   E   E   E   S   S   E     E   E   S   S   E   S   S  E E E
||---------------------------------|-----------------------------------|
||o--------------------------------|-----------------------------------|
||---------------------------------|-----------------------------------|
||---------------------------------|-----------------------------------|
||o-2------------------------------|-----------------------------2-5-2-|
||--0--<3>-<3>-<3>-<3>-<3>-<3>-<3>-|-<3>-<3>-<3>-<3>-<3>-<3>-<3>-0-3-0-|


  F#G5  F#5     G5        F#5     G5
      PM  PM|       PM|     PM|
  E E E E E E E E   E E E E E E E E
|-----------------|-----------------|
|-----------------|-----------------|
|-----------------|-----------------|
|-----------------|-----------------|
|-4-5---4-----4-5-|-----5-4-----4-5-|
|-2-3-0-2-0-0-2-3-|-0-0-3-2-0-0-2-3-|


  1.
  E5                                                             G5E5
      PM---------------------------------------------------|
  Q   E   E   E   E   S   S   E     E   E   S   S   E   S   S  E E E
|--------------------------------|-----------------------------------|
|--------------------------------|-----------------------------------|
|--------------------------------|-----------------------------------|
|--------------------------------|-----------------------------------|
|-2------------------------------|-------------------------------5-2-|
|-0--<3>-<3>-<3>-<3>-<3>-<3>-<3>-|-<3>-<3>-<3>-<3>-<3>-<3>-<3>-0-3-0-|


  F#G         F#G         F#      G
      PM  PM|       PM|     PM|
  E E E E E E E E   E E E E E E E E
|-----------------|-------------------||
|-----------------|------------------o||
|-----------------|-------------------||
|-----------------|-------------------||
|-1-2---1-----1-2-|-----2-1-----1-2--o||
|-2-3-0-2-0-0-2-3-|-0-0-3-2-0-0-2-3---||


  2.
  E5                                                              G5   E5
  Gtr IV
  W                                 H                    Q          Q
|--------------------------------|---------------------------------------|
|--------------------------------|---------------------------------------|
|--------------------------------|---------------------[14]-------[14]---|
|--------------------------------|---------------------------------------|
|--------------------------------|---------------------------------------|
|--------------------------------|---------------------------------------|
|
| Gtrs I, II
|     PM----------------------------------------------------|
| Q   E   E   E   E   S   S   E     E   E   S   S   E    S   S  E   E  E
|--------------------------------|---------------------------------------|
|--------------------------------|---------------------------------------|
|--------------------------------|---------------------------------------|
|--------------------------------|---------------------------------------|
|-2------------------------------|----------------------------------5--2-|
|-0--<3>-<3>-<3>-<3>-<3>-<3>-<3>-|-<3>-<3>-<3>-<3>-<3>--<3>-<3>-0---3--0-|


  F#   G   F#      G                    F#         G
    W                    Q         +Q       Q.     S  S
|--------------------|-------------------------------17b19r=|
|--------------------|--------------------------------------|
|-[14]---------------|-[14]b16====(14)r---[14]--------------|
|--------------------|--------------------------------------|
|--------------------|--------------------------------------|
|--------------------|--------------------------------------|
|
|        PM  PM|         PM-----|           PM-|
|   E  E E E E E E E     E      E   E   E   E  E E E
|--------------------|--------------------------------------|
|--------------------|--------------------------------------|
|--------------------|--------------------------------------|
|--------------------|--------------------------------------|
|---1--2---1-----1-2-|--------------2---1--------1-2--------|
|---2--3-0-2-0-0-2-3-|---0------0---3---2---0--0-2-3--------|


  E5                                                                         G5E5
   H              Q        E       E       H                      +Q.           E
|-17b19----------17---------------17b19r|=17b19==================(17)r---------17b19r|
|---------------------------------------|--------------------------------------------|
|------------------------[14]-----------|--------------------------------------------|
|---------------------------------------|--------------------------------------------|
|---------------------------------------|--------------------------------------------|
|---------------------------------------|--------------------------------------------|
|
|         PM-----------------------------------------------------------|
|  Q      E   E   E   E    S   S   E       E      E   S   S   E    S    S  E E  E
|---------------------------------------|--------------------------------------------|
|---------------------------------------|--------------------------------------------|
|---------------------------------------|--------------------------------------------|
|---------------------------------------|--------------------------------------------|
|--2------------------------------------|----------------------------------2-5--2----|
|--0-----<3>-<3>-<3>-<3>--<3>-<3>-<3>---|-<3>----<3>-<3>-<3>-<3>--<3>--<3>-0-3--0----|


  F#5      G5    F#5                    G5                 F#5                    G5
   +Q         E.    S     +Q         E  E    Q        +E.     S     +Q         E.   S
|-(17)b19====17r---17b19r(17)b19====17r---|-17b19====(17)r---17b19r(17)b19====17r-----|
|-----------------------------------------|-------------------------------------------|
|-----------------------------------------|-------------------------------------------|
|-----------------------------------------|-------------------------------------------|
|-----------------------------------------|-------------------------------------------|
|-----------------------------------------|-------------------------------------------|
|
|             PM           PM-----|          PM----|                 PM-----|
|   E      E  E  E         E      E  E  E    E     E   E   E         E      E  E  E
|-----------------------------------------|-------------------------------------------|
|-----------------------------------------|-------------------------------------------|
|-----------------------------------------|-------------------------------------------|
|-----------------------------------------|-------------------------------------------|
|---4------5-----4-------------------4--5-|------------5---4-------------------4--5---|
|---2------3--0--2---------0------0--2--3-|--0-----0---3---2---------0------0--2--3---|


  E5
   |--3--|
   S  S  S  E  S   S  S   S  S   S  S   S  S   S   S   S
|-17p15p12-12-12--12-------------------------------------|
|--------------------17p=15p12--17p15p=12-17p=15p=12-----|
|-----------------------------------------------------15-|
|--------------------------------------------------------|
|--------------------------------------------------------|
|--------------------------------------------------------|
|
|              PM-----------------------------------------
|  Q           E      E      E      E      S   S   E
|--------------------------------------------------------|
|--------------------------------------------------------|
|--------------------------------------------------------|
|--------------------------------------------------------|
|--2-----------------------------------------------------|
|--0----------<3>----<3>----<3>----<3>----<3>-<3>-<3>----|


                                          G5 E5   F# G           F#                     G
   E   S   S  S   S   S   S  S   S   S  S  E  e    E  S  S  S  S  S  S  S  S  S  S S  S  S  S
|-----------------------------------------------|----------------------------------------------|
|-12--------------------------------------------|----------------------------------------------|
|-----15p=14p12--15p=14p=12-15p=14p=12----12----|----------------------------------------------|
|--------------------------------------14----14-|-13-12-14p13p12----14p13p12-------------------|
|-----------------------------------------------|----------------14----------14p13---14p13p12--|
|-----------------------------------------------|----------------------------------------------|
|
|-------------------------------|                           PM          PM---|
|  E   E      S   S   E      S   S   E     E  E    E  E     E     E     E     E    E     E
|-----------------------------------------------|----------------------------------------------|
|-----------------------------------------------|----------------------------------------------|
|-----------------------------------------------|----------------------------------------------|
|-----------------------------------------------|----------------------------------------------|
|------------------------------------------5--2-|--1--2-----------1----------------1-----2-----|
|-<3>-<3>----<3>-<3>-<3>----<3>-<3>--0-----3--0-|--2--3-----0-----2-----0-----0----2-----3-----|


              G     F#             G    E5
   S  S  S  S  S  S  E  E  E  S  S  E   H.                   E       E
|-------------------------------------|---------------------------------|
|-------------------------------------|---------------------------------|
|-------------------------------------|---------------------------------|
|-------------------------------------|---------------------------------|
|-14p13p12----14p13p12-10-12-10-12p10-|-----------------------------<5>-|
|----------14-------------------------|-0--------------------0----------|
|
|  PM---|               PM|                  PM--------------------------
|  E     E     E     E  E  E  E     E   Q    E   E   E   E   S   S   E
|-------------------------------------|---------------------------------|
|-------------------------------------|---------------------------------|
|-------------------------------------|---------------------------------|
|-------------------------------------|---------------------------------|
|--------------2-----1--------1-----2-|-2-------------------------------|
|--0-----0-----3-----2--0--0--2-----3-|-0---<3>-<3>-<3>-<3>-<3>-<3>-<3>-|


                                  G5   E5  F#5   G5       F#5             G5
                                                              |---3---|
   E   E   S   E      S  E      E S E.      S  S  E  S  S  E  E  E    E E  S  S
|----------------------------------------|---------------------------------------|
|----------------------------------------|---------------------------------------|
|----------------------------------------|--------------------------------14-----|
|----------------------------------------|-------------------12-13---14------14--|
|--3---0---3p==0------3p=0--------3p0----|-10h12p10-12h13-14---------------------|
|-------------------------------4--------|---------------------------------------|
|
|---------------------------|                        PM       PM---|
|  E   E   S   S   E     S   S  E E    E    E     E  E     E  E    E    E  E
|----------------------------------------|---------------------------------------|
|----------------------------------------|---------------------------------------|
|----------------------------------------|---------------------------------------|
|----------------------------------------|---------------------------------------|
|-------------------------------2-5----2-|--4-----5--------4------------4--5-----|
|-<3>-<3>-<3>-<3>-<3>---<3>-<3>-0-3----0-|--2-----3--0-----2--0----0----2--3-----|


              G5    F#5                     G5      E5
                                                                 |-------6--------|
   S  S  S  S  S  S  S  S  S  S  S  S  S  S  S  S    S  S  S  S  S   S  S  S   S  S  S   S  T   T  S  S   S   S   T  T
|-------------------------------------------------|----------------------------------------12h=15h17-------------12h15h|
|-------------------------12-12h15p12-15-15-17p15-|-17p15p12-15h17p=15p12-17p=15p12-15h=17-----------12h=15h=17--------|
|-12h14-12h14-15p14p12----------------------------|--------------------------------------------------------------------|
|----------------------14-------------------------|--------------------------------------------------------------------|
|-------------------------------------------------|--------------------------------------------------------------------|
|-------------------------------------------------|--------------------------------------------------------------------|
|
|  PM---|                  PM---|                                PM-----------------------------------------------------
|  E     E     E     E     E     E     E     E       Q           E         E         E      E         S   S   E
|-------------------------------------------------|--------------------------------------------------------------------|
|-------------------------------------------------|--------------------------------------------------------------------|
|-------------------------------------------------|--------------------------------------------------------------------|
|-------------------------------------------------|--------------------------------------------------------------------|
|--------------5-----4-----------------4-----5----|--2-----------------------------------------------------------------|
|--0-----0-----3-----2-----0-----0-----2-----3----|--0----------<3>-------<3>-------<3>----<3>-------<3>-<3>-<3>-------|


                                             G5 E5
   E   S   S  S   T   T  E   S   S   S  T  T  E  T  T  S
|-17-------------12h=15h17-------------12h15h17-17p15p12-|
|-----12h=15h17-------------12h=15h=17-------------------|
|--------------------------------------------------------|
|--------------------------------------------------------|
|--------------------------------------------------------|
|--------------------------------------------------------|
|
|-------------------------------|
|  E   E      S   S      E   S   S   E        E  E
|--------------------------------------------------------|
|--------------------------------------------------------|
|--------------------------------------------------------|
|--------------------------------------------------------|
|---------------------------------------------5--2-------|
|-<3>-<3>----<3>-<3>----<3>-<3>-<3>--0--------3--0-------|


  F#    G      F#                      G                      F#                  G
                               |------6-------|                           |--3--|
   Q       +E   E  S  S  S  S  S  S  S  S  S  S    E.    S  E  S  S  Q    S  S  S  S  S
|-17b18r==(17)-12-17p15p12----------------------|---------------------------------------|
|--------------------------17-17p15p12-17p15p12-|------------------------15p14p12-15p12-|
|-----------------------------------------------|-15----12------------------------------|
|-----------------------------------------------|----------15-15p12-14------------------|
|-----------------------------------------------|---------------------------------------|
|-----------------------------------------------|---------------------------------------|
|
|           PM     PM---|                          PM-|              PM|
|  E    E   E   E  E     E     E        E          E  E     E  E     E E  E        E
|-----------------------------------------------|---------------------------------------|
|-----------------------------------------------|---------------------------------------|
|-----------------------------------------------|---------------------------------------|
|-----------------------------------------------|---------------------------------------|
|--1----2-------1--------------1--------2-------|-----------2--1----------1--------2----|
|--2----3---0---2--0-----0-----2--------3-------|--0--0-----3--2-----0-0--2--------3----|


  E5
   S  S  S  S  S   S  S   S  S   S  S   S  S   S   S   S
|----------------------------------------------------------|
|-15p12----12-15p=12-17p=12-----12-15p=12-17p=12------12---|
|-------15------------------15--------------------15-------|
|----------------------------------------------------------|
|----------------------------------------------------------|
|----------------------------------------------------------|
|
|              PM---------------------------------|
|  Q           E      E      E      E      S   S   E
|----------------------------------------------------------|
|----------------------------------------------------------|
|----------------------------------------------------------|
|----------------------------------------------------------|
|--2-------------------------------------------------------|
|--0----------<3>----<3>----<3>----<3>----<3>-<3>-<3>------|


                                             G5    E5
   S   S  S   S  S   S   S   S  S   S   S  S  S  S  S  S
|--------------------------------------------------------|
|-17p=12-----12-15p=12--17p=12-----12--15p12-17p12----12-|
|--------15--------------------15------------------15----|
|--------------------------------------------------------|
|--------------------------------------------------------|
|--------------------------------------------------------|
|
|  PM------------------------------|
|  E      E      S   S   E      S   S   E     E     E
|--------------------------------------------------------|
|--------------------------------------------------------|
|--------------------------------------------------------|
|--------------------------------------------------------|
|---------------------------------------2-----5-----2----|
|-<3>----<3>----<3>-<3>-<3>----<3>-<3>--0-----3-----0----|


  F#5   G5          F#5                     G5                        F#5                     G5
   S  S  S  S  S  S  S  S  S  S  S  S  S  S  S  S    S  S  S  S  S  S  S  S  S  S  S  S  S  S  S  S
|-------------------------------------------------|-------------------------------------------------|
|-17p12----12-15p12-17p12----12-15p12-17p12----12-|-17p12----12-15p12-17p12----12-15p12-17p12----12-|
|-------15----------------15----------------15----|-------15----------------15----------------15----|
|-------------------------------------------------|-------------------------------------------------|
|-------------------------------------------------|-------------------------------------------------|
|-------------------------------------------------|-------------------------------------------------|
|
|              PM          PM---|                    PM---|                  PM---|
|  E     E     E     E     E     E     E     E       E     E     E     E     E     E     E     E
|-------------------------------------------------|-------------------------------------------------|
|-------------------------------------------------|-------------------------------------------------|
|-------------------------------------------------|-------------------------------------------------|
|-------------------------------------------------|-------------------------------------------------|
|--4-----5-----------4-----------------4-----5----|--------------5-----4-----------------4-----5----|
|--2-----3-----0-----2-----0-----0-----2-----3----|--0-----0-----3-----2-----0-----0-----2-----3----|


  E5                                                                                                  G5    E5
   S  S  S  S  S   S  S   S  S   S  S   S  S   S   S   S    S   S  S   S  S   S   S   S  S   S   S  S  S  S  S  S
|--------------------------------------------------------|--------------------------------------------------------|
|-15p12----12-17p=12-----12-15p=12-----12-17p=12------12-|-15p=12-----12-17p=12------12-15p=12-----12-17p12----12-|
|-------16-----------16------------16-------------16-----|--------16-------------16-------------16----------16----|
|--------------------------------------------------------|--------------------------------------------------------|
|--------------------------------------------------------|--------------------------------------------------------|
|--------------------------------------------------------|--------------------------------------------------------|
|
|              PM---------------------------------------------------------------------------|
|  Q           E      E      E      E      S   S   E        E      E      S   S   E      S   S   E     E     E
|--------------------------------------------------------|--------------------------------------------------------|
|--------------------------------------------------------|--------------------------------------------------------|
|--------------------------------------------------------|--------------------------------------------------------|
|--------------------------------------------------------|--------------------------------------------------------|
|--2-----------------------------------------------------|---------------------------------------------5-----2----|
|--0----------<3>----<3>----<3>----<3>----<3>-<3>-<3>----|-<3>----<3>----<3>-<3>-<3>----<3>-<3>--0-----3-----0----|


  F#    G        F#                   G                   F#                   G
   S  S  S  S  E  S  S  E  S  S  S  S  S  S    E  S  S  E  S  S  S  S  S  S  E  S  S
|-------------------------------------------|------------------------------------------|
|-17p15p12----12-17p15p12----12-17p15p12----|-12-17p15p12----12-17-15p12----12-12------|
|----------15-------------15-------------15-|-------------15-------------15-------12---|
|-------------------------------------------|------------------------------------------|
|-------------------------------------------|------------------------------------------|
|-------------------------------------------|------------------------------------------|
|
|              PM       PM|                    PM|               PM---|
|  E     E     E  E     E  E     E     E       E  E     E  E     E     E     E  E
|-------------------------------------------|------------------------------------------|
|-------------------------------------------|------------------------------------------|
|-------------------------------------------|------------------------------------------|
|-------------------------------------------|------------------------------------------|
|--1-----2--------1--------------1-----2----|-----------2--1-----------------1--2------|
|--2-----3-----0--2-----0--0-----2-----3----|--0--0-----3--2-----0-----0-----2--3------|


  E5
   S  S  S  S  S   S  S   S  S   S  S   S  S   S   S   S
|--------------------------------------------------------|
|-17p15p12----17p=15p12-----17p=15p12-----17p=15p=12-----|
|----------12------------12------------12-------------12-|
|--------------------------------------------------------|
|--------------------------------------------------------|
|--------------------------------------------------------|
|
|              PM-----------------------------------------
|  Q           E      E      E      E      S   S   E
|--------------------------------------------------------|
|--------------------------------------------------------|
|--------------------------------------------------------|
|--------------------------------------------------------|
|--2-----------------------------------------------------|
|--0----------<3>----<3>----<3>----<3>----<3>-<3>-<3>----|


                                             G5    E5      F#5   G5          F#5                     G5
   S   S  S   S  S   S   S   S  S   S   S  S  S  S  S  S    S  S  S  S  S  S  S  S  S  S  S  S  S  S  S  S
|--------------------------------------------------------|-------------------------------------------------|
|-18p=16p13-----18p=16p=13-----18p=16p=13----18p16p13----|-19p17p14----19p17p14----19p17p14----19p17p14----|
|------------13-------------13------------13----------13-|----------14----------14----------14----------14-|
|--------------------------------------------------------|-------------------------------------------------|
|--------------------------------------------------------|-------------------------------------------------|
|--------------------------------------------------------|-------------------------------------------------|
|
|----------------------------------|                                    PM          PM---|
|  E      E      S   S   E      S   S   E     E     E       E     E     E     E     E     E     E     E
|--------------------------------------------------------|-------------------------------------------------|
|--------------------------------------------------------|-------------------------------------------------|
|--------------------------------------------------------|-------------------------------------------------|
|--------------------------------------------------------|-------------------------------------------------|
|---------------------------------------2-----5-----2----|--4-----5-----------4-----------------4-----5----|
|-<3>----<3>----<3>-<3>-<3>----<3>-<3>--0-----3-----0----|--2-----3-----0-----2-----0-----0-----2-----3----|


              G5    F#5                     G5      E5
   S  S  S  S  S  S  S  S  S  S  S  S  S  S  S  S    S  S  S  S  S   S  S   S  S   S  S   S  S   S   S   S
|-------------------------------------------------|--------------------------------------------------------|
|-20p18p15----20p18p15----20p18p15----20p18p15----|-21p19p16----21p=19p16-----22p=20p17-----22p=20p=17-----|
|----------15----------15----------15----------15-|----------16------------16------------17-------------17-|
|-------------------------------------------------|--------------------------------------------------------|
|-------------------------------------------------|--------------------------------------------------------|
|-------------------------------------------------|--------------------------------------------------------|
|
|  PM---|                  PM---|                                PM-----------------------------------------
|  E     E     E     E     E     E     E     E       Q           E      E      E      E      S   S   E
|-------------------------------------------------|--------------------------------------------------------|
|-------------------------------------------------|--------------------------------------------------------|
|-------------------------------------------------|--------------------------------------------------------|
|-------------------------------------------------|--------------------------------------------------------|
|--------------5-----4-----------------4-----5----|--2-----------------------------------------------------|
|--0-----0-----3-----2-----0-----0-----2-----3----|--0----------<3>----<3>----<3>----<3>----<3>-<3>-<3>----|


                                             G5    E5
   S   S  S   S  S   S   S   S  S   S   S  S  S  S  S  S
|--------------------------------------------------------|
|-23p=21p18-----23p=21p=18-----24p=22p=19----24p22p19----|
|------------18-------------18------------19----------19-|
|--------------------------------------------------------|
|--------------------------------------------------------|
|--------------------------------------------------------|
|
|----------------------------------|
|  E      E      S   S   E      S   S   E     E     E
|--------------------------------------------------------|
|--------------------------------------------------------|
|--------------------------------------------------------|
|--------------------------------------------------------|
|---------------------------------------2-----5-----2----|
|-<3>----<3>----<3>-<3>-<3>----<3>-<3>--0-----3-----0----|


  F#5   G5  F#5         G5                        F#5       G5
                             |-------3-------|
   H           H             Q       Q       Q       Q       Q
|-22b24-------22b24-------|-22b24---22b24---22b24---22b24---22b25---||
|-------------------------|-----------------------------------------||
|-------------------------|-----------------------------------------||
|-------------------------|-----------------------------------------||
|-------------------------|-----------------------------------------||
|-------------------------|-----------------------------------------||
|
|         PM   PM---|        PM---|                  PM---|
|  E    E E E  E    E E E    E    E       E       E  E    E  E    E
|-------------------------|-----------------------------------------||
|-------------------------|-----------------------------------------||
|-------------------------|-----------------------------------------||
|-------------------------|-----------------------------------------||
|--4----5---4---------4-5-|---------------5-------4----------5------||
|--2----3-0-2--0----0-2-3-|--0----0-------3-------2--0----0--3------||


  N.C.(Em7)                                B5
                               \0.5____\1_______
  W                 +H        +Q       Q
|-----------------|----------------------------|
|-----------------|----------------------------|
|-----------------|----------------------------|
|-----------------|----------------------------|
|-----------------|----------------------------|
|-0---------------|-(0)-------(0)------0-------|
|
|     PM|   PM|         PM|          PM|
| E E E E E E E E    E  E E E  E     E E   E
|-----------------|----------------------------|
|-----------------|----------------------------|
|-----------------|----------------------------|
|-----------------|----------------------------|
|-5h7-----7-----5h|==7------5h=7-----------9---|
|-----0-0---0-0---|-----0-0----------0-0---7---|


  N.C.(Em7)                                     B5
  \1.5__________________\2________\2.5____\3.5_____
  W                     H         Q       Q
|---------------------|---------------------------|
|---------------------|---------------------------|
|---------------------|---------------------------|
|---------------------|---------------------------|
|---------------------|---------------------------|
|-0-------------------|-0---------0-------0-------|
|
|         PM|   PM|         PM|         PM|
| E     E E E E E E E   E   E E E E     E E     E
|---------------------|---------------------------|
|---------------------|---------------------------|
|---------------------|---------------------------|
|---------------------|---------------------------|
|-5h====7-----7-----5h|=7-------5h7-------------9-|
|---------0-0---0-0---|-----0-0---------0-0-----7-|


  N.C.(Em7)                                     B5
  /2.5________/1.5__________/1________/0.5____/
  H           H             H         Q       Q
|-------------------------|-----------------------|
|-------------------------|-----------------------|
|-------------------------|-----------------------|
|-------------------------|-----------------------|
|-------------------------|-----------------------|
|-0-----------0-----------|-0---------0-------0---|
|
|         PM|       PM|         PM|         PM|
| E     E E E E     E E E   E   E E E E     E E E
|-------------------------|-----------------------|
|-------------------------|-----------------------|
|-------------------------|-----------------------|
|-------------------------|-----------------------|
|-5h====7-----7---------5h|=7-------5h7---------9-|
|---------0-0-------0-0---|-----0-0---------0-0-7-|


  N.C.(Em7)                       B5
  H       H         W
|-----------------|-----------------|
|-----------------|-----------------|
|-----------------|-----------------|
|-----------------|-----------------|
|-----------------|-----------------|
|-0---------------|-----------------|
|
|     PM|   PM|       PM|     PM|
| E E E E E E E E   E E E E E E E E
|-----------------|-----------------|
|-----------------|-----------------|
|-----------------|-----------------|
|-----------------|-----------------|
|-5h7-----7-----5h|=7-----5h7-----9-|
|-----0-0---0-0---|---0-0-----0-0-7-|


  N.C.(Em7)                                   B5
  Gtr I
  |---3---|   |---3---|     |---3---|
  Q   Q   Q   Q   Q   Q     Q   Q   Q   Q   Q
|-------------------------|---------------------|
|-------------------------|---------------------|
|-----7---------------7---|-----9---------------|
|-5-------5-------5-------|-7---------------9---|
|-------------7-----------|---------7---6-------|
|-------------------------|---------------------|
|
| Gtr II
|       PM--|   PM--|         PM--|       PM|
| E E   E   E E E   E   E   E E   E   E E E E E
|-------------------------|---------------------|
|-------------------------|---------------------|
|-------------------------|---------------------|
|-------------------------|---------------------|
|-5h7---------7---------5h|=7---------5h7-----9-|
|-------0---0---0---0-----|---0---0-------0-0-7-|


  N.C.(Em7)                           B5
  ~~~~~~~~~~~~~~~~~~~~~~
  W                 +H        +Q    Q
|-----------------|---------------------|
|-----------------|---------------------|
|-----------------|---------------------|
|-----------------|---------------------|
|-7---------------|-(7)-------(7)s==9---|
|-----------------|---------------------|
|
|     PM|   PM|         PM|       PM|
| E E E E E E E E    E  E E E  E  E E E
|-----------------|---------------------|
|-----------------|---------------------|
|-----------------|---------------------|
|-----------------|---------------------|
|-5h7-----7-----5h|==7------5h=7------9-|
|-----0-0---0-0---|-----0-0-------0-0-7-|


  N.C.(Em7)                                       B5
  |---3---|   |---3---|     |---3---|   |---3---|
  Q   Q   Q   Q   Q   Q     Q   Q   Q   Q   Q   Q
|-------------------------|--------------------------|
|-------------------------|--------------------------|
|-----7---------------7---|---------8-----------7----|
|-5-------5-------5-------|-----4-----------3--------|
|-------------7-----------|-6-----------5------------|
|-------------------------|--------------------------|
|
|       PM--|   PM--|         PM--|       PM--|
| E E   E   E E E   E   E   E E   E   E E E   E   E
|-------------------------|--------------------------|
|-------------------------|--------------------------|
|-------------------------|--------------------------|
|-------------------------|--------------------------|
|-5h7---------7---------5h|=7---------5h7---------9--|
|-------0---0---0---0-----|---0---0-------0---0---7--|


  N.C.(Em7)                         B5
  ~~~~~~~~~~~~~~~~~~~~~~
  W                 +H.           Q
|-----------------|-------------------|
|-----------------|-------------------|
|-----------------|-------------------|
|-----------------|-------------------|
|-7---------------|-(7)---------------|
|-----------------|-------------------|
|
|     PM|   PM|         PM|     PM|
| E E E E E E E E    E  E E E E E E E
|-----------------|-------------------|
|-----------------|-------------------|
|-----------------|-------------------|
|-----------------|-------------------|
|-5h7-----7-----5h|==7------5h7-----9-|
|-----0-0---0-0---|-----0-0-----0-0-7-|


  N.C.(Em7)                                   B5
  |---3---|   |---3---|     |---3---|
  Q   Q   Q   Q   Q   Q     Q   Q   Q   Q   Q
|-------------------------|---------------------|
|-------------------------|---------------------|
|-----7---------------7---|-----9---------------|
|-5-------5-------5-------|-7---------------9---|
|-------------7-----------|---------7---6-------|
|-------------------------|---------------------|
|
|       PM--|   PM--|         PM--|       PM|
| E E   E   E E E   E   E   E E   E   E E E E E
|-------------------------|---------------------|
|-------------------------|---------------------|
|-------------------------|---------------------|
|-------------------------|---------------------|
|-5h7---------7---------5h|=7---------5h7-----9-|
|-------0---0---0---0-----|---0---0-------0-0-7-|


  N.C.(Em7)                            B5
  ~~~~~~~~~~~~~~~~~~~~~~~~~
  H       +E  Q.       +H.           Q
|--------------------|-------------------|
|--------------------|-------------------|
|--------------------|-------------------|
|--------------------|-------------------|
|-7-------(7)-7------|-(7)-----------9---|
|--------------------|-------------------|
|
|     PM|     PM-|         PM|     PM|
| E E E E  E  E  E E    E  E E E E E E E
|--------------------|-------------------|
|--------------------|-------------------|
|--------------------|-------------------|
|--------------------|-------------------|
|-5h7------7-------5h|==7------5h7-----9-|
|-----0-0-----0--0---|-----0-0-----0-0-7-|


  N.C.(Em7)                 N.C.
  |---3---|   |---3---|     |-3-| |-3-|
  Q   Q   Q   Q   Q   Q     Q Q Q Q Q Q
|-------------------------|---------------|
|-------------------------|---------------|
|-----7---------------7---|-----8-----7---|
|-5-------5-------5-------|---4-----3-----|
|-------------7-----------|-6-----5-------|
|-------------------------|---------------|
|
|       PM--|   PM--|
|                           |-3-| |-3-|
| E E   E   E E E   E   E   Q Q Q Q Q Q
|-------------------------|---------------|
|-------------------------|---------------|
|-------------------------|-----8-----7---|
|-------------------------|---4-----3-----|
|-5h7---------7---------5-|-6-----5-------|
|-------0---0---0---0-----|---------------|


  N.C.(Em7)                         B5  N.C.(Em7)                       B5
  ~~~~~~~~~~~~~~~~~~~~~~~~~~~~~~            PM|   PM|       PM|     PM|
  W                 +H        E E Q     E E E E E E E E   E S S E E E E Q
|-----------------|-------------------|-----------------|------------------|
|-----------------|-------------------|-----------------|------------------|
|-----------------|-------------------|-----------------|------------------|
|-----------------|-------------------|-----------------|------------------|
|-7---------------|-(7)-------7---9---|-5h7-----7-----5h|=7-----5h7-----9--|
|-----------------|-------------0-7---|-----0-0---0-0---|---0-0-----0-0-7--|
|
|     PM|   PM|         PM|     PM|         PM|   PM|       PM|     PM|
| E E E E E E E E    E  E E E E E E E   E E E E E E E E   E S S E E E E Q
|-----------------|-------------------|-----------------|------------------|
|-----------------|-------------------|-----------------|------------------|
|-----------------|-------------------|-----------------|------------------|
|-----------------|-------------------|-----------------|------------------|
|-5h7-----7-----5h|==7------5h7-----9-|-5h7-----7-----5h|=7-----5h7-----9--|
|-----0-0---0-0---|-----0-0-----0-0-7-|-----0-0---0-0---|---0-0-----0-0-7--|


  N.C.(E5)
  Gtrs I, II
  S S E E E E E S S e   S S E E E E E S S e
|---------------------|---------------------|
|---------------------|---------------------|
|---------------------|---------------------|
|---------------------|---------------------|
|-5-7-x-x-7-x-x-x-x-x-|-5-7-x-x-7-x-x-x-x-x-|
|---------------------|---------------------|


                                      G5A5
  S S E E E E E S S e   S S E E E E E E E
|---------------------|---------------------|
|---------------------|---------------------|
|---------------------|---------------------|
|---------------------|---------------------|
|-5-7-x-x-7-x-x-x-x-x-|-5-7-x-x-7-x-x-5-7---|
|---------------------|---------------3-5---|


  F#G5  F#5     G5        F#5   G5    F#G   F#      G         F#    G5
      PM  PM|       PM|     PM|           PM  PM|       PM|     PM|
  E E E E E E E E   E E E E E E E E   E E E E E E E E   E E E E E E E E
|-----------------|-----------------|-----------------|-----------------|
|-----------------|-----------------|-----------------|-----------------|
|-----------------|-----------------|-----------------|-----------------|
|-----------------|-----------------|-----------------|-----------------|
|-4-5---4-----4-5-|-----5-4-----5---|-1-2---1-----1-2-|-----2-1-----5---|
|-2-3-0-2-0-0-2-3-|-0-0-3-2-0-0-3-0-|-2-3-0-2-0-0-2-3-|-0-0-3-2-0-0-3-5-|


  F#G5  F#5     G5        F#5   G5    N.C.(E5)
      PM  PM|       PM|     PM|
  E E E E E E E E   E E E E E E E E   E E E E H
|-----------------|-----------------|--------------*|
|-----------------|-----------------|--------------*|
|-----------------|-----------------|--------------*|
|-----------------|-----------------|--------------*|
|-4-5---4-----4-5-|-----5-4-----5---|-7---7--------*|
|-2-3-0-2-0-0-2-3-|-0-0-3-2-0-0-3-0-|---0----------*|

2.In My Darkest Hour 

Guitar 1 - Rhythm electric w/distortion
 Guitar 2 - Rhythm electric w/distortion
 Guitar 3 - Acoustic
 Guitar 4 - Lead rhythm electric w/distortion (lead rhythm basicly means Dave Mustaine.)
 Guitar 5 - Lead electric w/distortion & (So I guess we'll say this is Jeff Young.)

bpm = 110

Intro:

 Guitar 3
|-----------0-----|---------0-------|-----------------|-----------------|
|---------0---0---|-------0---0-----|-----------------|-----------------|
|-------7-------7-|-----7-----------|------rest-------|------rest-------|
|-----5-----------|---5-------------|-----------------|-----------------|
|---9-------------|-9---------------|-----------------|-----------------|
|-0---------------|-----------------|-----------------|-----------------|
|                                                                       |                       
|Guitar 1                                                               |                       
|-----------0-----|---------0-------|-----------------|-----------------|
|---------0---0---|-------0---0-----|-----------------|-----------------|
|-------7-------7-|-----7-----------|-----------------|-----------------| x2
|-----5-----------|---5-------------|-2---------------|-(2)-------------|
|---9-------------|-9---------------|-2---------------|-(2)-------------|
|-0---------------|-------------0-0-|-0---------------|-(0)-------------|
|pm......           ...         ...                                     |                       
|Guitar 2                                                               |                       
|-----------------|-----------------|-----------------|-----------------|
|-----------------|-----------------|-----------------|-----------------|
|-----------------|-----------------|-----------------|-----------------|
|-9---------------|-(9)-------------|---0-4-0-2-0-----|-----------0-4-0-|
|-7---------------|-(7)-------------|-2-----------2-0-|-------0-2-------|
|-0---------------|-(0)---------0-0-|-----------------|-3-2-3-----------|
                              pm...


|-----------0-----|---------5-------|-----------9------|-----------------|
|---------0---0---|-----------5-----|-------------10---|-----------------|
|-------7---------|-------7-----7---|---------9------9-|-------7---------|
|-----5-----------|-5---5---------5-|------11----------|-5---5-----------|
|---9-----------9-|---9-------------|---12-------------|---9-------------|
|-0---------------|-----------------|-9----------------|-----------------|
|                                                                        |                       
|                                                                        |                        
|-----------0-----|---------5-------|-----------9------|-----------------|
|---------0---0---|-----------5-----|-------------10---|-----------------|
|-------7---------|-------7-----7---|---------9------9-|-------7---------| x2
|-----5-----------|-5---5---------5-|------11----------|-5---5---2-0-----|
|---9-----------9-|---9-------------|---12-------------|---9---------3-2-|
|-0---------------|-----------------|-9----------------|-----------------|
|pm......       ...........           ..........         .......         |                       
|                                                                        |                        
|-----------------|-----------------|------------------|-----------------|
|-----------------|-----------------|------------------|-----------------|
|-----------------|-----------------|------------------|-----------------|
|-9-------------4-|-5-------------5-|-7--------------7-|-5-------2-0-----|
|-7-------------2-|-3-------------3-|-4--------------4-|-3-----------3-2-|
|-0---------------|-----------------|------------------|-----------------|
             pm..              pm..                pm..

 Guitars 1 & 2
|-----------------|-----------------|-----------------|-----------------|
|-----------------|-----------------|-----------------|-----------------|
|-----------------|-----------------|-----------------|-----------------|
|-2-------2-0-----|-3-------2-0-----|-2-------2-0-----|-3-------2-0-----|
|-2-----------3-2-|-3-----------3-2-|-2-----------3-2-|-3-----------3-2-|
|-0---------------|-1---------------|-0---------------|-1---------------|


Pre-verse:

|-----------------|-----------------|-----------------|-----------------|
|-----------------|-----------------|-----------------|-----------------|
|-----------------|-----------------|-----------------|-----------------|
|-2-------2-------|-2-------2-------|-2-------2-------|-2-------2-------|
|-2-------2-------|-2-------2-------|-2-------2-------|-2-------2-------|
|-0-0-0-0-0-0-0-0-|-0-0-0-0-0-0-0-0-|-0-0-0-0-0-0-0-0-|-0-0-0-0-0-0-0-0-|
  pm.....   .....     .....   .....     .....   .....     .....   .....

 Guitars 1 & 2*
|-----------------|-------------------------|
|-----------------|-8-7-6-5-----------------|
|-----------------|---------8-7-6-5---------|
|-2-------5-------|-----------------9-8-7-6-|
|-2-------5-------|-------------------------|
|-0-0-0-0-3-3-3-3-|-------------------------|
| pm.....   .....                           | x 4
|                                           |
|-----------------|-------------------------|
|-----------------|-------8-7-6-5-----------|
|-----------------|---------------8-7-6-5---|
|-2-------5-------|-----------------------9-|
|-2-------5-------|-------------------------|
|-0-0-0-0-3-3-3-3-|-------------------------|
  pm.....   .....

*on this section, both guitars play the top passage, but the tabbed bottom passage shows
the notes caused by the delay affect. So, guitar 2 can play the bottom passage instead.

Verse: 

 Guitars 1 & 2
|-----------------|-----------------|-----------------|-----------------|
|-----------------|-----------------|-----------------|-----------------|
|-----------------|-----------------|-----------------|-----------------|
|-2-------2-----4-|-5-------5-----0-|-2-------2-----4-|-5-------5-----0-|
|-2-------2-----2-|-3-------3---2---|-2-------2-----2-|-3-------3---2---|
|-0-0-0-0-0-0-0---|---0-0-0---0-----|-0-0-0-0-0-0-0---|---0-0-0---0-----|
  pm.....   ...       .....   ..        .....   ...       .....   ..


|-----------------|-----------------|-----------------|-----------------|
|-----------------|-----------------|-----------------|-----------------|
|-----------------|-----------------|-----------------|-----------------|
|-2-------2-----8-|-7-------7---9---|-4-------4-------|---------4-------|
|-2-------2---7-6-|-5-------5---7---|-2-------2-------|-5---0-1-2-------|
|-0-0-0-0-0-0-----|---0-0-0---0-----|---0-0-0---0-0-2-|-3-0-------0-3-2-|
  pm.....   ..        .....   ..        .....   .....     ......  .....

Pre-chorus:

 Guitars 1 & 2
|-----------------|-------------------------|
|-----------------|-------------------------|
|-----------------|-------------------------| x2
|-2-------2-----4-|-5-------5---4-2h4p2p0---|
|-2-------2-----2-|-3-----3---3-----------4-|
|-0-0-0-0-0-0-0---|---0-0-------------------|
  pm.....   ...       ......  ..


|-----------------|-----------------------|-----------------------|
|-----------------|-----------------------|-----------------------|
|-2-------2-------|---------4---2-0h2p0---|-2-------4---2-0h2p0---|
|-2-------2-------|-4-------------------4-|-2-------------------4-|
|-0-0-0-0-0-0-3-0-|-2-0-0-2---0-----------|-0-0-0-0---0-----------|
|-----------------|-----------------------|-----------------------|
  pm.....   .....     .....   ..              .....   ..


|-------------------------|-------------------------|
|-------------------------|-------------------------|
|-------------------------|-------------------------|
|-------------------------|-------------7-----------|
|-5-5-5-5-5-5-5-5-5-5-5-5-|-5-5-5-5-5-5-5---8---7---|
|-------------------------|-----------------6---5---|
pm.....................................

Chorus:

 Guitars 1 & 2
|-----------------|-----------------|-----------------|-----------------|
|-----------------|-----------------|-----------------|-----------------|
|-----------------|-----------------|-----------------|-----------------|
|-2-------2-----4-|-5-------5-----5-|-7-------7-----7-|-5-------5-------|
|-2-------2-----2-|-3-------3-----3-|-4-------4-----4-|-3-------3-------|
|-0-0-0-0-0-0-0---|---0-0-0---0-0---|---0-0-0---0-0---|---0-0-0---0-0-0-|
  pm.....   ...       .....   ...       .....   ...       .....   .....


|-----------------|-----------------|-----------------|-----------------|
|-----------------|-----------------|-----------------|-----------------|
|-----------------|-----------------|-----------------|-----------------|
|-2-------2-----4-|-5-------5-----5-|-7-------7-----7-|-5-------5-----0-|
|-2-------2-----2-|-3-------3-----3-|-4-------4-----4-|-3-------3---2---|
|-0-0-0-0-0-0-0---|---0-0-0---0-0---|---0-0-0---0-0---|---0-0-0---0-----|
  pm.....   ...       .....   ...       .....   ...       .....   ..

Interlude:

 Guitars 1 & 2
|---------------------------------|---------------------------|
|---------------------------------|---------------------------|
|---------------------------------|---------------------------|
|-----------------0---------------|-------0-----3----2--------|
|-------------0-1---1-0-----------|---0-1---1-0-1----0----5---|
|-0---0-0-0-3-----------0---0-0-0-|-3---------------------3---|
pm.........             .........           

Verse:

 Guitar 4
|-----------------|-----------------|-----------------|-----------------|
|-----------------|-----------------|-----------------|-----------------|
|-------rest------|-------rest------|-------rest------|-----------------|
|-----------------|-----------------|-----------------|-------------0-2-|
|-----------------|-----------------|-----------------|-----------------|
|-----------------|-----------------|-----------------|-----------------|
|                                                                       |
|Guitars 1 & 2                                                          |
|-----------------|-----------------|-----------------|-----------------|
|-----------------|-----------------|-----------------|-----------------|
|-----------------|-----------------|-----------------|-----------------|
|-2-------2-----4-|-5-------5-----5-|-7-------7-----7-|-5-------5-------|
|-2-------2-----2-|-3-------3-----3-|-4-------4-----4-|-3-------3-------|
|-0-0-0-0-0-0-0---|---0-0-0---0-0---|---0-0-0---0-0---|---0-0-0---0-0-0-|
  pm.....   ...       .....   ...       .....   ...       .....   .....


|-------------------------|-------------------------|
|-------------------------|-------------------------|
|-------------------------|-------------------------|
|-------2-0-2-------2-0-2-|-------2-0-2-------2-0-2-|
|-2-----------2-----------|-3-----------3-----------|
|---3-0---------3-0-------|---3-0---------3-0-------|
|                         |                         |
|                         |                         |
|-------------------------|-------------------------|
|-------------------------|-------------------------|
|-------------------------|-------------------------|
|-2-----------2--------4--|-5-----------5--------5--|
|-2-----------2--------2--|-3-----------3--------3--|
|-0--0--0--0--0--0--0-----|----0--0--0-----0--0-----|
   pm.......     ....          .......     ....        
                                                        x2

|-------------------------|-------------------------|
|-------------------------|-------------------------|
|-------------------------|-------------------------|
|-------2-0-2-------2-0-2-|-------2-0-2-------2-0-2-|
|-4-----------4-----------|-3-----------3-----------|
|---3-0---------3-0-------|---3-0---------3-0-------|
|                         |                         | 
|                         |                         |
|-------------------------|-------------------------|
|-------------------------|-------------------------|
|-------------------------|-------------------------|
|-7-----------7--------7--|-5-----------5-----------|
|-4-----------4--------4--|-3-----------3-----------|
|----0--0--0-----0--0-----|----0--0--0----0--0--0---|
   pm.......     ....          .......    .......

Breakdown:

 Guitars 1 & 2
|-----------------------|---------------------------|
|-----------------------|---------------------------|
|-----------------------|---------------------------|
|-2---------------(2)-4-|-5---------5---4-2h4p2p0---|
|-2---------------(2)-2-|-3-------3---3-----------4-|
|-0---------------(0)---|---------------------------|
                                pm..  ..


|-----------------------|---------------------------|
|-----------------------|---------------------------|
|-----------------------|---------------------------|
|-2-------------------4-|-5---------5---4-2h4p2p0---|
|-2-------------------2-|-3-------3---3-----------4-|
|-0---0-0-0-0-0-0-0-0---|-----0-0-------------------|
    pm...............         ......  ..


|-----------------------|---------------------------|
|-----------------------|---------------------------|
|-----------------------|---------------------------|
|-2---------------(2)-4-|-5---------5---4-2h4p2p0---|
|-2---------------(2)-2-|-3-------3---3-----------4-|
|-0---------------(0)---|---------------------------|
                                pm..  ..

|-----------------------|-------------------------|
|-----------------------|-------------------------|
|-----------------------|-------------------------|
|-7---------------(7)---|-------------------------|
|-4---------------(4)-5-|-5-5-5-5-5-5-5-5-5-5-5-5-|
|-----------------------|-------------------------|
                    pm...........................


|-----------------------|                            
|-----------------------|                            
|-----------------------|
|-------------7---------|
|-5-5-5-5-5-5-5---8---7-|
|-----------------6---5-|
pm...........

bpm = 210

Breakdown:

 Guitar 4
|-------------------------|-------------------------|-------------------------|
|-------------------------|-------------------------|-------------------------|
|-----------0h2p1p0-------|-----------0h2p1p0-------|-----------0h2p1p0-------|
|-----0h1h2---------2p1p0-|-----0h1h2---------2p1p0-|-----0h1h2---------2p1p0-|
|-------------------------|-------------------------|-------------------------|
|-------------------------|-------------------------|-------------------------|
|                                                                             |
|Guitars 1 & 2                                                                |
|-------------------------|-------------------------|-------------------------|
|-------------------------|-------------------------|-------------------------|
|-------------------------|-------------------------|-------------------------|
|-2-2---------------------|-3-3---------------------|-4-4---------------------|
|-2-2---------------------|-3-3---------------------|-4-4---------------------|
|-0-0---------------------|-1-1---------------------|-2-2---------------------|


|-------------------------|-------------------------|-------------------------|
|-------------------------|-------------------------|-------------------------|
|-----------0h2p1p0-------|-----------0h2p1p0-------|-----------0h2p1p0-------|
|-----0h1h2---------2p1p0-|-----0h1h2---------2p1p0-|-----0h1h2---------2p1p0-|
|-------------------------|-------------------------|-------------------------|
|-------------------------|-------------------------|-------------------------|
|                                                                             |
|                                                                             |
|-------------------------|-------------------------|-------------------------|
|-------------------------|-------------------------|-------------------------|
|-------------------------|-------------------------|-------------------------|
|-5-5---------------------|-2-2---------------------|-3-3---------------------|
|-5-5---------------------|-2-2---------------------|-3-3---------------------|
|-3-3---------------------|-0-0---------------------|-1-1---------------------|



|-------------------------|-------------------------|-------------------------|
|-------------------------|-------------------------|-------------------------|
|-----------0h2p1p0-------|-----------0h2p1p0-------|---------rest------------|
|-----0h1h2---------2p1p0-|-----0h1h2---------2p1p0-|-------------------------|
|-------------------------|-------------------------|-------------------------|
|-------------------------|-------------------------|-------------------------|
|                                                                             |
|                                                                             |
|-------------------------|-------------------------|-------------------------|
|-------------------------|-------------------------|-------------------------|
|-------------------------|-------------------------|-------------------------|
|-4-4---------------------|-5-5-------------------2-|-(2)-------------------3-|
|-4-4---------------------|-5-5-------------------2-|-(2)-------------------3-|
|-2-2---------------------|-3-3-------------------0-|-(0)-0--0--0--0--0--0--1-|
                                                        pm................


|-------------------------|-------------------------|-------------------------|
|-------------------------|-------------------------|-------------------------|
|---------rest------------|---------rest------------|----------rest-----------|
|-------------------------|-------------------------|-------------------------|
|-------------------------|-------------------------|-------------------------|
|-------------------------|-------------------------|-------------------------|
|                                                                             |
|                                                                             |
|-------------------------|-------------------------|-------------------------|
|-------------------------|-------------------------|-------------------------|
|-------------------------|-------------------------|-------------------------|
|-(3)-------------------4-|-(4)-------------------5-|-(5)-------------------2-|
|-(3)-------------------4-|-(4)-------------------5-|-(5)-------------------2-|
|-(1)-1--1--1--1--1--1--2-|-(2)-2--2--2--2--2--2--3-|-(3)-3--3--3--3--3--3--0-|
    pm................          ................          ................


|-------------------------|-------------------------|-------------------------|
|-------------------------|-------------------------|-------------------------|
|-------------------------|-------------------------|-------------------------|
|-(2)-------------------3-|-(3)-------------------4-|-(4)-------------------5-|
|-(2)-------------------3-|-(3)-------------------4-|-(4)-------------------5-|
|-(0)-0--0--0--0--0--0--1-|-(1)-1--1--1--1--1--1--2-|-(2)-2--2--2--2--2--2--3-|
    pm................          ................          ................

Guitar solo 1:
                      pb17
|----------------------19-|-(19)r(17)-12h17p12----12----12-------------|
|-------------------------|--------------------15----17----15p12----12-|
|-------------------------|--------------------------------------15----|
|-------------------------|--------------------------------------------|
|-------------------------|--------------------------------------------|
|-------------------------|--------------------------------------------|
|                                                                      |
|                                                                      |
|-------------------------|--------------------------------------------|
|-------------------------|--------------------------------------------|
|-------------------------|--------------------------------------------|
|-(5)-------------------2-|-(2)--------------------------------------3-|
|-(5)-------------------2-|-(2)--------------------------------------3-|
|-(3)-3--3--3--3--3--3--0-|-(0)---0-----0-----0-----0-----0-----0----1-|
    pm................            ...............................


|----------------------------------------|
|-17p15p12-15p12-------------------12----|
|----------------14p12-15p14p12-14----15-|
|----------------------------------------|
|----------------------------------------|
|----------------------------------------|
|                                        |
|                                        |
|----------------------------------------|
|----------------------------------------|
|----------------------------------------|
|-(3)----------------------------------4-|
|-(3)----------------------------------4-|
|-(1)----1----1----1----1----1----1----2-|
       pm..........................


|------------------------------------------------|
|-------------------12h14------------------------|
|-14p12-14p12-14h15-------0h15p14p12-14h15p14p12-|
|------------------------------------------------|
|------------------------------------------------|
|------------------------------------------------|
|                                                |
|                                                |
|------------------------------------------------|
|------------------------------------------------|
|------------------------------------------------|
|-(4)-----------------------------------------5--|
|-(4)-----------------------------------------5--|
|-(2)-----2-----2-----2-----2-----2-----2-----3--|
        pm...............................


|-------------------------------------------------|
|-------------------------------------------------|
|-13p12-------------------------------------------|
|-------14-13-12-12-14-13-12-12-13-13-14-13-12-13-|
|-------------------------------------------------|
|-------------------------------------------------|
|                                                 |
|                                                 |
|-------------------------------------------------|
|-------------------------------------------------|
|-------------------------------------------------|
|-(5)-------------------------------------------2-|
|-(5)-------------------------------------------2-|
|-(3)----3-----3-----3-----3------3------3------0-|
       pm.................................


|-------------------------------------------------|
|-------------------------------------------------|
|----------12h13-12h13-12h14p13p12----12h14h15h16-|
|-12g13----------------------------14-------------|
|-------14----------------------------------------|
|-------------------------------------------------|
|                                                 |
|                                                 |
|-------------------------------------------------|
|-------------------------------------------------|
|-------------------------------------------------|
|-(2)-------------------------------------------3-|
|-(2)-------------------------------------------3-|
|-(0)---0------0------0------0------0------0----1-|
      pm....................................


|-------------------------------12h15-12----------|
|-14p12-15-17p15p12----12h15h16------------12h15--|
|-------------------15----------------------------|
|-------------------------------------------------|
|-------------------------------------------------|
|-------------------------------------------------|
|                                                 |
|                                                 |
|-------------------------------------------------|
|-------------------------------------------------|
|-------------------------------------------------|
|-(3)-------------------------------------------4-|
|-(3)-------------------------------------------4-|
|-(1)---1------1------1------1------1------1----2-|
      pm....................................


|----12----------------12---15p12---15p12-15-|
|-15----15p12-15p12-15------------0----------|
|--------------------------------------------|
|--------------------------------------------|
|--------------------------------------------|
|--------------------------------------------|
|                                            |
|                                            |
|--------------------------------------------|
|--------------------------------------------|
|--------------------------------------------|
|-(4)--------------------------------------5-|
|-(4)--------------------------------------5-|
|-(2)---2-----2-----2-----2-----2-----2----3-|
      pm...............................


|-17p15p12----------12h15h17-------12-17b(19)~|
|----------12h15h17----------12h15------------|
|---------------------------------------------|
|---------------------------------------------|
|---------------------------------------------|
|---------------------------------------------|
|                                             |
|                                             |
|---------------------------------------------|
|---------------------------------------------|
|---------------------------------------------|
|-(5)---------------------------------------2-|
|-(5)---------------------------------------2-|
|-(3)----3-----3-----3-----3-----3-----3----0-|
       pm...............................


|-(19)~~~~~~~~~~~~~~~~~~~~|~(19)~~~~~~~~~~~~~~~~~~~~|~(19)~~~~~~~~~~~~~~~~~~~~|
|-------------------------|-------------------------|----------fade-----------|
|-------------------------|-------------------------|-------------------------|
|-------------------------|-------------------------|-------------------------|
|-------------------------|-------------------------|-------------------------|
|-------------------------|-------------------------|-------------------------|
|                                                                             |
|                                                                             |
|-------------------------|-------------------------|-------------------------|
|-------------------------|-------------------------|-------------------------|
|-------------------------|-------------------------|-------------------------|
|-(2)----------------4--5-|-(5)-------------------2-|-(2)----------------5--4-|
|-(2)----------------2--3-|-(3)-3--3--3--3--2--1--0-|-(0)-0--0--0--0--0--3--2-|
|-(0)-0--0--0--0--0-------|-------------------------|-------------------------|
    pm.............             ................          .............


|-------------------------|-------------------------|-------------------------|
|-------------------------|-------------------------|-------------------------|
|-------------------------|-------------------------|-------------------------|
|-(4)-------------------9-|-(9)-------------------5-|-(5)-------------------2-|
|-(2)-2--2--2--2--5--6--7-|-(7)-7--7--7--7--6--5--3-|-(3)-3--3--3--3--2--1--0-|
|-------------------------|-------------------------|-------------------------|
    pm................          ................          ................


|-------------------------|-------------------------|
|-------------------------|-------------------------|
|-------------------------|-------------------------|
|-(2)-------------------4-|-(4)---------------------|
|-(0)-0--0--0--0--2--3--2-|-(2)-2--2--2--2--1--0--2-|
|-------------------------|-----------------------0-|
    pm................          ................

 Guitar 4
|-------------------------|-------------------------|-------------------------|
|-----------14b(15)----\--|-----------14b(15)----\--|-----------14b(15)---14--|
|-----------14b(16)----\--|-----------14b(16)----\--|-----------14b(16)---14--|
|-------------------------|-------------------------|-------------------------|
|-------------------------|-------------------------|-------------------------|
|-------------------------|-------------------------|-------------------------|
|                                                                             |
|Guitars 1 & 2                                                                |
|-------------------------|-------------------------|-------------------------|
|-------------------------|-------------------------|-------------------------|
|-------------------------|-------------------------|-------------------------|
|-(2)----------------4--5-|-(5)-------------------2-|-(2)----------------5--4-|
|-(2)----------------2--3-|-(3)-3--3--3--3--2--1--0-|-(0)-0--0--0--0--0--3--2-|
|-(0)-0--0--0--0--0-------|-------------------------|-------------------------|
    pm.............             ................          .............


|-------------------------|-------------------------|-------------------------|
|--------------14\----15--|-(15)-\------------------|---------------------12/-|
|--------------14\----14b-|-(16)-\------------------|-------------------------|
|-------------------------|-------------------------|-------------------------|
|-------------------------|-------------------------|-------------------------|
|-------------------------|-------------------------|-------------------------|
|                                                                             |
|                                                                             |
|-------------------------|-------------------------|-------------------------|
|-------------------------|-------------------------|-------------------------|
|-------------------------|-------------------------|-------------------------|
|-(4)-------------------9-|-(9)-------------------5-|-(5)-------------------2-|
|-(2)-2--2--2--2--5--6--7-|-(7)-7--7--7--7--6--5--3-|-(3)-3--3--3--3--2--1--0-|
|-------------------------|-------------------------|-------------------------|
    pm................          ................          ................

  *-3       -2      -1      -1   -1   -1   -1   -1        *(w/whammy bar)
   \/       \/      \/      \/   \/   \/   \/   \/
|-------------------------|-------------------------|
|-/24-------23------22----|-19---18---15---14---12--|
|-------------------------|-------------------------|
|-------------------------|-------------------------|
|-------------------------|-------------------------|
|-------------------------|-------------------------|
|                         |                         |                         
|                         |                         |                         
|-------------------------|-------------------------|
|-------------------------|-------------------------|
|-------------------------|-------------------------|
|-(2)-------------------4-|-(4)---------------------|
|-(0)-0--0--0--0--2--3--2-|-(2)-2--2--2--2--1--0--2-|
|-------------------------|-----------------------0-|
    pm................          ................

  \
   \-3/
|-------------------------|-------------------------|-------------------------|
|-14----------------------|-------------------------|-------------------------|
|-------------------------|---------rest------------|---------rest------------|
|-------------------------|-------------------------|-------------------------|
|-------------------------|-------------------------|-------------------------|
|-------------------------|-------------------------|-------------------------|
|                                                                             |
|                                                                             |
|-------------------------|-------------------------|-------------------------|
|-------------------------|-------------------------|-------------------------|
|-------------------------|-------------------------|-------------------------|
|-(2)----------------4--5-|-(5)-------------------2-|-(2)----------------5--4-|
|-(2)----------------2--3-|-(3)-3--3--3--3--2--1--0-|-(0)-0--0--0--0--0--3--2-|
|-(0)-0--0--0--0--0-------|-------------------------|-------------------------|
    pm.............             ................          .............


|-------------------------|-------------------------|-------------------------|
|-------------------------|-------------------------|-------------------------|
|-------------------------|-------------------------|-------------------------|
|-(4)-------------------9-|-(9)-------------------5-|-(5)-------------------2-|
|-(2)-2--2--2--2--5--6--7-|-(7)-7--7--7--7--6--5--3-|-(3)-3--3--3--3--2--1--0-|
|-------------------------|-------------------------|-------------------------|
    pm................          ................          ................

Guitar solo 2:

 Guitar 5 (w/delay)
|-------------------------|-------------------------|
|-------------------------|-------------------------|
|---------rest------------|-------------------------|
|-------------------------|-------------------------|
|-------------------------|-------------------------|
|-------------------------|-----------------3h4p3h4-|
|                         |                         |                        
|Guitars 1 & 2            |                         |                         
|-------------------------|-------------------------|
|-------------------------|-------------------------|
|-------------------------|-------------------------|
|-(2)-------------------4-|-(4)-------------------2-|
|-(0)-0--0--0--0--2--3--2-|-(2)-2--2--2--2--1--0--0-|
|-------------------------|-------------------------|
    pm................          ................


|---------------------------------|---------------------------------|
|---------------------------------|----------------------8h9h10p9p8-|
|---------------------------------|-----5h6h7/8h9p8h9h10------------|
|-----------------------5h6h7p6p5h|-6h7-----------------------------|
|---3h4h5/4h5h6/7p5h6h7-----------|---------------------------------|
|-5-------------------------------|---------------------------------|
|                                 |                                 |                       
|                                 |                                 |                       
|---------------------------------|---------------------------------|
|---------------------------------|---------------------------------|
|---------------------------------|---------------------------------|
|-(2)---------------------------3-|-(3)---------------------------5-|
|-(0)---0---0---0---0---0---0---1-|-(1)---0---0---0---0---0---0---3-|
|---------------------------------|---------------------------------|
      pm.....................             .....................
                                        -1
                                        \/                      
|---------------------------------|---------------------------------|
|-9\6h8p5h6h7h8/10~~~~~~~~~~~~~~~-|-(10)-8/12h15~~~~~~~~~~~~~-------|
|---------------------------------|-----------------------------<3>-|
|---------------------------------|---------------------------------|
|---------------------------------|---------------------------------|
|---------------------------------|---------------------------------|
|                                 |                                 |                       
|                                 |                                 |                       
|---------------------------------|---------------------------------|
|---------------------------------|---------------------------------|
|---------------------------------|---------------------------------|
|-(5)--------------------------10-|-(10)----------9--(9)----------2-|
|-(3)---0---0---0---0---0---0--8--|-(8)---0---0---7--(7)--0---0---0-|
|---------------------------------|---------------------------------|
      pm.....................             .....           .....

                           +3
                 -1       /  \
\*  -3    -2     / \     /    \
 \  / \   / \   /   \   /      \    
-5\/ -5\ / -4\ /   -3\ /        \
|---------------------------------|---------------------------------|
|---------------------------------|---------------------------------|
|*(3)-(3)--(3)-----(3)--------(3)-|-----5-5-5-7-7-7-5-5-4-4---------|
|---------------------------------|-------------------------7-7-5-5-|
|---------------------------------|---------------------------------|
|---------------------------------|---------------------------------|
|                                 |   pm............................|                       
|                                 |                                 |                       
|---------------------------------|---------------------------------|
|---------------------------------|---------------------------------|
|---------------------------------|---------------------------------|
|-(2)---------------------------3-|-(3)---------------------------5-|
|-(0)---0---0---0---0---0---0---1-|-(1)---0---0---0---0---0---0---3-|
|---------------------------------|---------------------------------|
      pm.....................             .....................

*(whammy bar dives, listen to record for exact articulation)


|---------------------------------|---------------------------------|
|---------------------------------|---------------------------------|
|---------------------------------|---------------------------------|
|-3-3-----------------------------|-------------------------10-9h10-|
|-----7-7-5-5-3-3-----------------|---------------------------------|
|-----------------7-7-3-3-3-3-5---|-(5)~~~~~~~~~~(5)~~~~~~~---------|
|pm..........                     |                                 |                       
|                                 |                                 |                       
|---------------------------------|---------------------------------|
|---------------------------------|---------------------------------|
|---------------------------------|---------------------------------|
|-(5)--------------------------10-|-(10)----------9--(9)----------2-|
|-(3)---0---0---0---0---0---0--8--|-(8)---0---0---7--(7)--0---0---0-|
|---------------------------------|---------------------------------|
      pm.....................             .....           .....


|--------------------------------------------------|
|--------------------------------------------------|
|-9-12p9------------9-12p9----------11-14p11-11----|
|--------10-10-9h10--------12-11h12-------------12-|
|--------------------------------------------------|
|--------------------------------------------------|
|                                                  |             
|                                                  |                 
|--------------------------------------------------|
|--------------------------------------------------|
|--------------------------------------------------|
|-(2)--------------------------------------------3-|
|-(0)----0------0------0------0------0------0----1-|
|--------------------------------------------------|
       pm....................................

                                             ph
|------------------------------------------------|
|------------------------------------------------|
|----12-16p12-12-------12-16-17-14-----------17--|
|-14-------------14-14-------------15-14-15------|
|------------------------------------------------|
|------------------------------------------------|
|                                                |               
|                                                |                   
|------------------------------------------------|
|------------------------------------------------|
|------------------------------------------------|
|-(3)-----------------------------------------5--|
|-(1)-----0-----0-----0-----0-----0-----0-----3--|
|------------------------------------------------|
        pm...............................

                                                            ph
|---------------------------------|---------------------------------|
|---------------------------------|---------------------------------|
|-(17)~~~~~~~~~~~~~~~~~-----------|---------------------------------|
|-----------------------15-15-14--|----------------14---15--14b(15)-|
|---------------------------------|-17---15---17--------------------|
|---------------------------------|---------------------------------|
|                                 |                                 |                       
|                                 |                                 |                       
|---------------------------------|---------------------------------|
|---------------------------------|---------------------------------|
|---------------------------------|---------------------------------|
|-(5)--------------------------10-|-(10)----------9--(9)----------2-|
|-(3)---0---0---0---0---0---0--8--|-(8)---0---0---7--(7)--0---0---0-|
|---------------------------------|---------------------------------|
      pm.....................             .....           .....


|---------------------------------|---------------------------------|
|---------------------------------|---------------------------------|
|---------------------------------|-12~~~~~-------------------------|
|-(14)~~~~---------------12-14-14-|---------------------------15-17-|
|---------------12-14-15----------|------------------15-17-19-------|
|---------13-15-------------------|---------15-17-19----------------|
|       pm....................... |       pm........................|                       
|                                 |                                 |                       
|---------------------------------|---------------------------------|
|---------------------------------|---------------------------------|
|---------------------------------|---------------------------------|
|-(2)---------------------------3-|-(3)---------------------------5-|
|-(0)---0---0---0---0---0---0---1-|-(1)---0---0---0---0---0---0---3-|
|---------------------------------|---------------------------------|
      pm.....................             .....................


|----------------------------------------17-20b(22)-|
|----------------------------16-17-19-20------------|
|-------------------16-17-19------------------------|
|-17p15----15-17-19---------------------------------|
|-------19------------------------------------------|
|---------------------------------------------------|
|                                                   |                                      
|                                                   |                                      
|---------------------------------------------------|
|---------------------------------------------------|
|---------------------------------------------------|
|-(5)--------------------------------------------10-|
|-(3)----0------0------0------0------0-----0-----8--|
|---------------------------------------------------|
       pm...................................


|-(22)---20----19----17--------------|
|--------------------------20----17--|
|------------------------------------|
|------------------------------------|
|------------------------------------|
|------------------------------------|
|                                    |                                      
|                                    |                                      
|------------------------------------|
|------------------------------------|
|------------------------------------|
|-(10)----------9---(9)------------2-|
|-(8)---0---0---7---(7)---0---0----0-|
|------------------------------------|
      pm.....             .....


|---------------------------------|---------------------------------|
|-20b----------(22)-------r(20)---|-(20b)--------(23)----------(20)-|
|---------------------------------|---------------------------------|
|---------------------------------|---------------------------------|
|---------------------------------|---------------------------------|
|---------------------------------|---------------------------------|
|                                 |                                 |
|Guitar 4                         |                                 |
|---------------------------------|---------------------------------|
|---------------------------------|---------------------------------|
|---------------------------------|---------------------------------|
|-[7]--[6]--[5]-------------------|-[7]--[6]--[5]-------------------|
|------------------[7]--[6]--[5]--|------------------[7]--[6]--[5]--|
|---------------------------------|---------------------------------|
|                                 |                                 |                       
|                                 |                                 |                       
|---------------------------------|---------------------------------|
|---------------------------------|---------------------------------|
|---------------------------------|---------------------------------|
|-(2)---------------------------3-|-(3)---------------------------5-|
|-(0)---0---0---0---0---0---0---1-|-(1)---0---0---0---0---0---0---3-|
|---------------------------------|---------------------------------|
      pm.....................             .....................


|---------------------------------|---------------------------------|
|-(20b)--------(24)-------r(23)---|-r(22)-------r(21)---------r(20)-|
|---------------------------------|---------------------------------|
|---------------------------------|---------------------------------|
|---------------------------------|---------------------------------|
|---------------------------------|---------------------------------|
|                                 |                                 |
|                                 |                                 |
|---------------------------------|---------------------------------|
|---------------------------------|---------------------------------|
|---------------------------------|-----------------[5]-------------|
|-[7]--[6]--[5]-------------------|-[7]--[5]-------------[7]--[5]---|
|------------------[7]--[6]--[5]--|-----------[7]-------------------|
|---------------------------------|---------------------------------|
|                                 |                                 |                       
|                                 |                                 |                       
|---------------------------------|---------------------------------|
|---------------------------------|---------------------------------|
|---------------------------------|---------------------------------|
|-(5)--------------------------10-|-(10)----------9--(9)----------2-|
|-(3)---0---0---0---0---0---0--8--|-(8)---0---0---7--(7)--0---0---0-|
|---------------------------------|---------------------------------|
      pm.....................             .....           .....

**\                        **\          
   \2                         \3
|---------------------------------|---------------------------------|
|-(20)*w/feedback-------------<7>-|-(7)-----------(7)-----------(7)-|
|---------------------------------|---------------------------------|
|---------------------------------|---------------------------------|
|---------------------------------|---------------------------------|
|---------------------------------|---------------------------------|
|                                 |                                 |
|                                 |                                 |
|---------------------------------|---------------------------------|
|---------------------------------|---------------------------------|
|---------------------------------|---------------------------------|
|-[7]--[6]--[5]-------------------|-[7]--[6]--[5]-------------------|
|------------------[7]--[6]--[5]--|------------------[7]--[6]--[5]--|
|---------------------------------|---------------------------------|
|                                 |                                 |
|---------------------------------|---------------------------------|
|---------------------------------|---------------------------------|
|---------------------------------|---------------------------------|
|-(2)---------------------------3-|-(3)---------------------------5-|
|-(0)---0---0---0---0---0---0---1-|-(1)---0---0---0---0---0---0---3-|
|---------------------------------|---------------------------------|
      pm.....................             .....................

                           **\
                              \6
|---------------------------------|---------------------------------|
|-(7)-----------------------------|---------------------------------|
|----------------------------<3>--|--(3)-----------(3)---------(3)--|
|---------------------------------|---------------------------------|
|---------------------------------|---------------------------------|
|---------------------------------|---------------------------------|
|                                 |                                 |
|                                 |                                 |
|---------------------------------|---------------------------------|
|---------------------------------|---------------------------------|
|---------------------------------|---------------------------------|
|-[7]--[6]--[5]-------------------|---------------------------------|
|------------------[7]--[6]--[5]--|-----------[5]--------------[5]--|
|---------------------------------|-[8]--[5]---------[8]--[5]-------|
|                                 |                                 |                       
|                                 |                                 |                       
|---------------------------------|---------------------------------|
|---------------------------------|---------------------------------|
|---------------------------------|---------------------------------|
|-(5)--------------------------10-|-(10)----------9--(9)----------2-|
|-(3)---0---0---0---0---0---0--8--|-(8)---0---0---7--(7)--0---0---0-|
|---------------------------------|---------------------------------|
      pm.....................             .....           .....

(** indicates gradual dives over notated duration)


|---------------------------------|---------------------------------|
|---------------------------------|---------------------------------|
|---------------------------------|---------------------------------|
|-[7]--[6]--[5]-------------------|-[7]--[6]--[5]-------------------|
|------------------[7]--[6]--[5]--|------------------[7]--[6]--[5]--|
|---------------------------------|---------------------------------|
|                                 |                                 |                       
|                                 |                                 |                       
|---------------------------------|---------------------------------|
|---------------------------------|---------------------------------|
|---------------------------------|---------------------------------|
|-(2)---------------------------3-|-(3)---------------------------5-|
|-(0)---0---0---0---0---0---0---1-|-(1)---0---0---0---0---0---0---3-|
|---------------------------------|---------------------------------|
      pm.....................             .....................


|---------------------------------|---------------------------------|
|---------------------------------|---------------------------------|
|---------------------------------|-----------------[5]-------------|
|-[7]--[6]--[5]-------------------|-[7]--[5]-------------[7]--[5]---|
|------------------[7]--[6]--[5]--|-----------[7]-------------------|
|---------------------------------|---------------------------------|
|                                 |                                 |                       
|                                 |                                 |                       
|---------------------------------|---------------------------------|
|---------------------------------|---------------------------------|
|---------------------------------|---------------------------------|
|-(5)--------------------------10-|-(10)----------9--(9)----------2-|
|-(3)---0---0---0---0---0---0--8--|-(8)---0---0---7--(7)--0---0---0-|
|---------------------------------|---------------------------------|
      pm.....................             .....           .....
         

|---------------------------------|---------------------------------|
|---------------------------------|---------------------------------|
|---------------------------------|---------------------------------|
|-[7]--[6]--[5]-------------------|-[7]--[6]--[5]-------------------|
|------------------[7]--[6]--[5]--|------------------[7]--[6]--[5]--|
|---------------------------------|---------------------------------|
|                                 |                                 |                       
|                                 |                                 |                       
|---------------------------------|---------------------------------|
|---------------------------------|---------------------------------|
|---------------------------------|---------------------------------|
|-(2)---------------------------3-|-(3)---------------------------5-|
|-(0)---0---0---0---0---0---0---1-|-(1)---0---0---0---0---0---0---3-|
|---------------------------------|---------------------------------|
      pm.....................             .....................


|---------------------------------|---------------------------------|
|---------------------------------|---------------------------------|
|---------------------------------|---------------------------------|
|-[7]--[6]--[5]-------------------|---------------------------------|
|------------------[7]--[6]--[5]--|-----------[5]--------------[5]--|
|---------------------------------|-[8]--[5]---------[8]--[5]-------|
|                                 |                                 |                       
|                                 |                                 |                       
|---------------------------------|---------------------------------|
|---------------------------------|---------------------------------|
|---------------------------------|---------------------------------|
|-(5)--------------------------10-|-(10)----------9--(9)----------2-|
|-(3)---0---0---0---0---0---0--8--|-(8)---0---0---7--(7)--0---0---0-|
|---------------------------------|---------------------------------|
      pm.....................             .....           .....


|-----------------|-------------------|-------------------|-------------------|
|-----------------|-------------------|-------------------|-------------------|
|-----------------|-------rest--------|-------rest--------|-------rest--------|
|-----------------|-------------------|-------------------|-------------------| 
|-[5]-------------|-------------------|-------------------|-------------------|
|-----------------|-------------------|-------------------|-------------------|
|                                                                             |
|                                                                             |
|-----------------|-------------------|-------------------|-------------------|
|-----------------|-------------------|-------------------|-------------------|
|-----------------|-------------------|-------------------|-------------------|
|-2-------------3-|-(3)-------------4-|-(4)-------------5-|-(5)-------------2-| 
|-2-------------3-|-(3)-------------4-|-(4)-------------5-|-(5)-------------2-|
|-0-0-0-0-0-0-0-1-|-(1)-1-1-1-1-1-1-2-|-(2)-2-2-2-2-2-2-3-|-(3)-3-3-3-3-3-3-0-|
  pm...........         ...........         ...........         ...........


|-------------------|-------------------|-------------------|-------------------|
|-------------------|-------------------|-------------------|-------------------|
|-------rest--------|-------rest--------|-------rest--------|-------rest--------|
|-------------------|-------------------|-------------------|-------------------| 
|-------------------|-------------------|-------------------|-------------------|
|-------------------|-------------------|-------------------|-------------------|
|                                                                               |
|                                                                               |
|-------------------|-------------------|-------------------|-------------------|
|-------------------|-------------------|-------------------|-------------------|
|-------------------|-------------------|-------------------|-------------------| 
|-(2)-------------3-|-(3)-------------4-|-(4)-------------5-|-(5)-------------2-| 
|-(2)-------------3-|-(3)-------------4-|-(4)-------------5-|-(5)-------------2-|
|-(0)-0-0-0-0-0-0-1-|-(1)-1-1-1-1-1-1-2-|-(2)-2-2-2-2-2-2-3-|-(3)-3-3-3-3-3-3-0-|
    pm...........         ...........         ...........         ...........


|-------------------|-------------------|-------------------|-------------------|
|-----5-5-5-5-------|------6-6-6-6-6----|------7-7-7-7-7-7--|------8-8-8-8-8-8--|
|-----4-4-4-4-------|------5-5-5-5-5----|------6-6-6-6-6-6--|------7-7-7-7-7-7--|
|-------------------|-------------------|-------------------|-------------------| 
|-------------------|-------------------|-------------------|-------------------|
|-------------------|-------------------|-------------------|-------------------|
|                                                                               |
|                                                                               |
|-------------------|-------------------|-------------------|-------------------|
|-------------------|-------------------|-------------------|-------------------|
|-------------------|-------------------|-------------------|-------------------|
|-(2)-------------3-|-(3)-------------4-|-(4)-------------5-|-(5)-------------6-| 
|-(2)-------------3-|-(3)-------------4-|-(4)-------------5-|-(5)-------------6-|
|-(0)-0-0-0-0-0-0-1-|-(1)-1-1-1-1-1-1-2-|-(2)-2-2-2-2-2-2-3-|-(3)-3-3-3-3-3-3-4-|
    pm...........         ...........         ...........         ...........


|-------------------|-------------------|-------------------|-------------------|
|-----9-9-9-9-9-9---|-----10-10-10-10---|------11---11-11---|---12--------------|
|-----8-8-8-8-8-8---|------9--9--9--9---|------10---10-10---|---11--------------|
|-------------------|-------------------|-------------------|-------------------| 
|-------------------|-------------------|-------------------|-------------------|
|-------------------|-------------------|-------------------|-------------------|
|                                                                               |
|                                                                               |
|-------------------|-------------------|-------------------|-------------------|
|-------------------|-------------------|-------------------|-------------------|
|-------------------|-------------------|-------------------|-------------------|
|-(6)-------------7-|-(7)-------------8-|-(8)-------------9-|-(9)---------------| 
|-(6)-------------7-|-(7)-------------8-|-(8)-------------9-|-(9)-------2---0---|
|-(4)-4-4-4-4-4-4-5-|-(5)-5-5-5-5-5-5-6-|-(6)-6-6-6-6-6-6-7-|-(7)-7-7-7---3---0-|
    pm...........         ...........         ...........         ...........

bpm = 110

Outro:

 Guitar 3
|-----------0-----|---------0-------|-----------------|-----------------|
|---------0---0---|-------0---0-----|-----------------|-----------------|
|-------7-------0-|-----7-----------|------rest-------|------rest-------|
|-----5-----------|---5-------------|-----------------|-----------------|
|---9-------------|-9---------------|-----------------|-----------------|
|-0---------------|-----------------|-----------------|-----------------|
|                                                                       |                       
|Guitar 1                                                               |                       
|-----------0-----|---------0-------|-----------------|-----------------|
|---------0---0---|-------0---0-----|-----------------|-----------------|
|-------7-------0-|-----7-----------|-----------------|-----------------| x2
|-----5-----------|---5-------------|-2---------------|-(2)-------------|
|---9-------------|-9---------------|-2---------------|-(2)-------------|
|-0---------------|-------------0-0-|-0---------------|-(0)-------------|
|pm......           ...         ...                                     |                       
|Guitar 2                                                               |                       
|-----------------|-----------------|-----------------|-----------------|
|-----------------|-----------------|-----------------|-----------------|
|-----------------|-----------------|-----------------|-----------------|
|-9---------------|-(9)-------------|---0-4-0-2-0-----|-----------0-4-0-|
|-7---------------|-(7)-------------|-2-----------2-0-|-------0-2-------|
|-0---------------|-(0)---------0-0-|-----------------|-3-2-3-----------|
                              pm...

                                   slight rit.--------------------------|
|-----------0-----|---------0-------|-----------------|-----------------|
|---------0---0---|-------0---0-----|-----------------|-----------------|
|-------7-------7-|-----7-----------|------rest-------|------rest-------|
|-----5-----------|---5-------------|-----------------|-----------------|
|---9-------------|-9---------------|-----------------|-----------------|
|-0---------------|-----------------|-----------------|-----------------|
|                                                                       |                       
|                                                                       |                       
|-----------0-----|---------0-------|-----------------|-----------------|
|---------0---0---|-------0---0-----|-----------------|-----------------|
|-------7-------7-|-----7-----------|-----------------|-----------------| 
|-----5-----------|---5-------------|-2---------------|-(2)-------------|
|---9-------------|-9---------------|-2---------------|-(2)-------------|
|-0---------------|-------------0-0-|-0---------------|-(0)-------------|
|pm......           ...         ...                                     |                       
|                                                                       |                       
|-----------------|-----------------|-----------------|-----------------|
|-----------------|-----------------|-----------------|-----------------|
|-----------------|-----------------|-----------------|-----------------|
|-9---------------|-(9)-------------|---0-4-0-2-0-----|-----------0-4-0-|
|-7---------------|-(7)-------------|-2-----------2-0-|-------0-2-------|
|-0---------------|-(0)---------0-0-|-----------------|-3-2-3-----------|
                              pm...

 Guitars 1 & 3     
|-0---------------|-(0)-------------|-(0)-------------|-0------(0)------|
|-0---------------|-(0)-------------|-(0)-------------|-3------(3)------|
|-x---------------|-----------------|-----------------|-0------(0)------| 
|-2---------------|-(2)-------------|-(2)-------------|-2------(2)------|
|-2---------------|-(2)-------------|-(2)-------------|-2------(2)------|
|-0---------------|-(0)-------------|-(0)-------------|-0------(0)------|
|                                                                       |              
|Guitars 2                                                              |                       
|-----------------|-----------------|-----------------|-----------------|
|-----------------|-----------------|-----------------|-----------------|
|-9---------------|-(9)-------------|-(9)-------------|-9------(9)\-----|
|-9---------------|-(9)-------------|-(9)-------------|-9------(9)\-----|
|-7---------------|-(7)-------------|-(7)-------------|-7------(7)\-----|
|-0---------------|-(0)-------------|-(0)-------------|-0------(0)------|

3.Peace Sells 

Intro
e|------------|
B|------------|
G|------------|
D|-----9\-----|
A|-----7\--2--|
E|-0-0-----0--|
   * *
 
e|-----------------------------------------|
B|-----------------------------------------|
G|-----------------------------------------|
D|-7---------------------------------------|
A|-5----------------------------------8-7--|
E|--------0-0-0-0-0-0-0-0-0-0-0-0-0-0-6-5--|
          * * * * * * * * * * * * * *    

Intro solo:
e|-[16]b17r16-[16]b17r16-[16]b17r16--|
B|-----------------------------------|
G|-----------------------------------|
D|-----------------------------------|
A|-----------------------------------|
E|-----------------------------------|

e|-12h15p12--12--10h13p10--10--9h11p9--9--7h9p7---7-|
B|---------15------------13----------12--------10---|
G|--------------------------------------------------|
D|--------------------------------------------------|
A|--------------------------------------------------|
E|--------------------------------------------------|

e|-5h7p5---5--3h5p3---3--2h4p2---2--1h3p1---1--0----|
B|-------8----------6----------5----------4---------|
G|--------------------------------------------------|
D|--------------------------------------------------|
A|--------------------------------------------------|
E|--------------------------------------------------|


Riff 1
e|-------------------------------------|
B|-------------------------------------|
G|-------------------------------------|
D|-------------------------------------|
A|----------------6-----------------5--|
E|-0-0-0-0-0-0-0--4--0-0-0-0-0-0-0--3--|
   * * * * * * *     * * * * * * *
  "What do ya mean I don't believe in God ?...."
e|-------------------------------------|
B|-------------------------------------|
G|-------------------------------------|
D|-------------------------------------|
A|----------------6---------------8--7-|
E|-0-0-0-0-0-0-0--4--0-0-0-0-0-0--6--5-|
   * * * * * * *     * * * * * *
  "Talk to him everyday..."


Riff 2
e|----------------------------------------|
B|----------------------------------------|
G|----------7--------------------7--------|
D|-9-9-7-9--5--7-9-9----9-9-7-9--5--------|
A|-7-7-5-7-----5-7-7----7-7-5-7-----4-5-5-|
E|----------------------------------2-3-3-|
             "If there's a new way..."
e|-----------------------------|
B|-----------------------------|
G|-----------------------------|
D|----------7--------------5---|
A|-5-5-4-5--5--4-5---5-4-3-3---|
E|-3-3-2-3-----2-3---3-2-1-----|
                     * * *
              "But it better work this time..."


Play Riff 1 with this solo:
e|-------------------------------------------------------------|
B|---------------------------12h13-12p11p10p9--------9h12p10---|
G|-14~~-13p12h13p12--12h13h14----------------10-9h10--------10-|
D|-----------------14------------------------------------------|
A|-------------------------------------------------------------|
E|-------------------------------------------------------------|

e|---------------------------------------------12---------------|
B|---10p9------9-------------------------15~~----15-12----------|
G|-9------10p9---10p9---------------------------------14-12b13\-|
D|--------------------10p9p7---7p6------------------------------|
A|---------------------------8-----8p7--------------------------|
E|--------------------------------------------------------------|

End solo

Play Riff 1   "What do ya mean I hurt your feelings ?"
Here are the solos:

#1
e|-----------------------------|
B|-----------------------------|
G|-----------------------------|
D|-[wah]-----------------------|
A|--5p3-6p3--0---*tremolo dive-|
E|----------(5)r3--------------|
  "...didn't know ya had any feelings..."

#2
e|-------18--------18~~--|
B|-17b18-----17b18-------|
G|-----------------------|
D|-----------------------|
A|-----------------------|
E|-----------------------|
  "...just not your kind..."

#3
e|------------------------------|
B|-14h15---------12-13b15~~~~~\-|
G|--a--------12~----------------|
D|-------14~--------------------|
A|------------------------------|
E|------------------------------|
  "...of the United States of America ?"

#4
e|-----------------------------------------------|
B|-15--------------------------------------------|
G|-14b15--14p12---15-14p12-----------------------|
D|-------------14---------14-12------------------|
A|------------------------------14-12-10-12-10~~-|
E|-----------------------------------------------|
  "...we, the people, right ?"

End solos


Play Riff 2   "If there's a new way..."


Riff 3
e|-----------------------------------------|
B|-----------------------------------------|
G|-----------------------------------------|
D|-----5p4h5-----4p2h4------2p0h2----------|
A|-----------------------------------5p4h5-|
E|-0-0-------0-0-------0-0-------0-0-------|
   * *       * *       * *       * *   
e|-------------------------------------------|
B|-------------------------------------------|
G|-------------------------------------------|
D|-------------------------------------------|
A|-----4p2h4-----2p0h2-----------------------|
E|-0-0-------0-0-------0-0--5p3h5-0-0--3p2h3-|
   * *       * *       * *        * *


Riff 3a
Guitar 1
e|-----------------------------------------|
B|-----------------------------------------|
G|-----------------------------------------|
D|-----5p4h5-----4p2h4-----2p0h2-----------|
A|-----------------------------------5p4h5-|
E|-0-0-------0-0-------0-0-------0-0-------|
   * *       * *       * *       * *   
e|-----------------------------------------|
B|-----------------------------------------|
G|-----------------------------------------|
D|-----------------------------------------|
A|-----4p2h4-----2p0h2----------------/6-5-|
E|-0-0-------0-0-------0-0--5p3h5-0-0-/4-3-|
   * *       * *       * *        * *

Guitar 2
e|-----------------------------------------|
B|-----------------------------------------|
G|-----4p2h4-----2p0h2---------------------|
D|-------------------------5p4h5-----4p2h4-|
A|-----------------------------------------|
E|-0-0-------0-0-------0-0-------0-0-------|
   * *       * *       * *       * *
e|-----------------------------------------|
B|-----------------------------------------|
G|-----------------------------------------|
D|-----2p0h2-------------------------------|
A|---------------5p4h5-----4p2h4------/6-5-|
E|-0-0-------0-0-------0-0--------0-0-/4-3-|
   * *       * *       * *        * *


Riff 4  (Solo Rhythm)            
e|---------------------------------|
B|---------------------------------|
G|---------------------------------|
D|---------------------------------|         --------|
A|-4-------------5-------4-----5-4-|                 |
E|-2-2-2-2-2-2-2-3-3-3-3-2-2-2-3-2-|                 |
     * * * * * *   * * *   * *                       |
Guitar 1                                             |
e|----------------------------------------|          |
B|----------------------------------------|          |
G|----------------------------------------|          |
D|-----5p4h5-----4p2h4-----2p0h2----------|          |--- Play 3x
A|-----------------------------------/6-5-|          |
E|-0-0-------0-0-------0-0-------0-0-/4-3-|          |
   * *       * *       * *       * *                 |
Guitar 2                                             |
e|----------------------------------------|          |
B|----------------------------------------|          |
G|-----4p2h4-----2p0h2--------------------|          |
D|-------------------------5p4h5----------|   -------|
A|-----------------------------------/6-5-|
E|-0-0-------0-0-------0-0-------0-0-/4-3-|
   * *       * *       * *       * *

Final time
e|----------------------------------------------|
B|----------------------------------------------|
G|----------------------------------------------|
D|-----------------------------7-8-9------------|
A|-4-------------5-------4-----5-6-7-[let ring]-|
E|-2-2-2-2-2-2-2-3-3-3-3-2-2-2------------------|
     * * * * * *   * * *   * *

Solos:

#1
e|----10-------------------------------------------|
B|-12----12-12-10-----------8-10-12-8--------------|
G|----------------12---10-------------9--7---------|
D|-------------------9----9----------------9-7-5b6-|
A|-------------------------------------------------|
E|-------------------------------------------------|

#2
e|----------------------------------------------|
B|----------------------------------------------|
G|-------------------------------5\4p2h4p2------|
D|------------------2---4p2----------------4-2~-|
A|------2h4-2h4-2h4---4-----4-2-----------------|
E|-2--2-----------------------------------------|

#3
e|-14-15-19-14-15-19--15-15-16-16-15b16-16b17-|
B|--------------------------------------------|
G|--------------------------------------------|
D|--------------------------------------------|
A|--------------------------------------------|
E|--------------------------------------------|

e|-17-17b19~~-----15------------------------------------|
B|-------------17---14-15b17~~--15b17~~---15------------|
G|-------------------------------------------16-14-12~~-|
D|------------------------------------------------------|
A|------------------------------------------------------|
E|------------------------------------------------------|

#4
e|-------------19----------------19----------|
B|-19h22p19h22----22p19h22p19-22----22p19h22-|
G|-------------------------------------------|
D|-------------------------------------------|
A|-------------------------------------------|
E|-------------------------------------------|

e|-------19----------------19----------------------------------|
B|-19h22----22p19h22-19h22----22p19h22p19----------------------|
G|----------------------------------------21-19h21-18h19-16~~~-|
D|-------------------------------------------------------------|
A|-------------------------------------------------------------|
E|-------------------------------------------------------------|

End solos

"Can you put a price on peace ? "     
                                 
Riff 5
Guitar 1           x12
e|-------------------|
B|-------------------|
G|-------------------|
D|--------5----------|
A|-7--5-7---0-7-5-00-|
E|-------------------|
            *     **

Guitar 2 (comes in after awhile)
e|-------------------------------|
B|-------------------------------|
G|-------------------------------|
D|--9-------12------11-----------|
A|--7----xx-10---xx--9---xx-9----|
E|--0----xx-10---xx--9---xx-7----|

e|---------------------------------|
B|---------------------------------|
G|---------------------------------|
D|----9-------12------11-----------|
A|-xx-7----xx-10---xx--9---xx-9----|
E|-xx-0----xx-10---xx--9---xx-7----|


Riff 6
e|-----------------------|
B|-----------------------|
G|-----------------------|
D|---------5-------7/8---|
A|-7~--5-7---0-7-5-------|
E|-----------------------|
             *
    "Peace....peace sells..."

Riff 7
Guitar 1
e|-----------------------|
B|-----------------------|
G|-----------------------|
D|---------5-------7/8---|
A|-7~--5-7---0-7-5-------|
E|-----------------------|
             *
  "Peace sells, but who's buying ?"

Guitar 2
e|-----------------------|
B|-----------------------|
G|---------7-------9/10--|
D|-9~--7-9---0-9-7-------|
A|-----------------------|
E|-----------------------|
             *

Play Riff 6   Solo Rhythm

Solo
e|-----------------------12-------------12----------------|
B|-8b9-10b11-12b13-15b16----15-12----12----15-12----------|
G|--------------------------------15-------------15-14-12-|
D|--------------------------------------------------------|
A|--------------------------------------------------------|
E|--------------------------------------------------------|

E|-15b16-15b16-15b16-15b16~-12--12h13p12--------12h13p12---------|
B|----------------------------15--------15-12-15--------15-12-15-|
G|---------------------------------------------------------------|
D|---------------------------------------------------------------|
A|---------------------------------------------------------------|
E|---------------------------------------------------------------|

E|-12h13p12----------------------------12-15b16-17b18-20b21-22b23~-|
B|----------15-13-12----------12-13-15-----------------------------|
G|-------------------14-12-14--------------------------------------|
D|-----------------------------------------------------------------|
A|-----------------------------------------------------------------|
E|-----------------------------------------------------------------|

E|-22-19-22-19----------------------------|
B|-------------22-20b21-20b21-20b21-20~~\-|
G|----------------------------------------|
D|----------------------------------------|
A|----------------------------------------|
E|----------------------------------------|

End Solo

Play Riff 7   "Peace sells, but who's buying?"
Play Riff 6   "Peace sells, but who's buying?"


Riff 8
e|---------------------------------------------|
B|---------------------------------------------|
G|---------------------------------------------|
D|----------------------12-12-12-12-1111-12-11-|
A|-6-5--4-3---3-4-3---3-10-10-10-10--9-9-10--9-|
E|-4-3--2-1-0-1-2-1-0-1------------------------|
   * *  * * * * * * * *
     "No....no no no no..."
e|------------------------------------|
B|------------------------------------|
G|------------------------------------|
D|---------5-------7/8----------5-----|
A|-7~--5-7---0-7-5------7~--5-7---0-7-|
E|------------------------------------|
             *                    *
Final time
e|------------------------------------------------|
B|------------------------------------------------|
G|------------------------------------------------|
D|----------------------12-12-12-12-1111-12-11-9\-|
A|-6-5--4-3---3-4-3---3-10-10-10-10--9-9-10--9-7\-|
E|-4-3--2-1-0-1-2-1-0-1---------------------------|
   * *  * * * * * * * *
      "Peace sells.....                  ....ahhh"


Ending solo
e|---------------------------------------------------------------|
B|------------------------------------------------------12-14-15-|
G|---------------------------------------------11-12-14----------|
D|-------------------9-11-12-11-12----11-12-14-------------------|
A|-7h9h10p7-7h9h10p7---------------14----------------------------|
E|---------------------------------------------------------------|

e|------------------------------------12h15-17p15h17---------|
B|-12b15r12-10--10----12-----9--12h14------------------------|
G|------------12----------------------------------------16---|
D|-----------------------------------------------------------|
A|-----------------------------------------------------------|
E|-----------------------------------------------------------|

e|----------------------------------------------------------------|
B|-15-17b18---17--17p15-17p15----17p15-----17p15----17p15-17p15---|
G|---------------------------16--------16-------16-------------16-|
D|----------------------------------------------------------------|
A|----------------------------------------------------------------|
E|----------------------------------------------------------------|

e|---------------------------------------------------------19--22--22b23~~-|
B|-15h17-20p17-20p17--17h20p17-17-20b21-20b21-20b21-20b21-20---------------|
G|------------------19-----------------------------------------------------|
D|-------------------------------------------------------------------------|
A|-------------------------------------------------------------------------|
E|-------------------------------------------------------------------------|

End solo

4.Sweating Bullets 

Intro
Guitar 1
e|-------------------------------|
B|-------------------------------|
G|-------------------------------|
D|-------------1-0---------------|
A|-2----1-2----2-1----2-1----1-2-|
E|-0----2-3-----------3-2----2-3-|

e|------------------------------|
B|------------------------------|
G|------------------------------|
D|-------------1-0---/4-1-------|
A|-2----1-2----2-1---/5-2-------|
E|-0----2-3------------------3^-|

e|---------------------------------|
B|---------------------------------|
G|---------------------------------|
D|-------------1-0-----------------|
A|-2----1-2----2-1----2-1----1-2-2-|
E|-0----2-3-----------3-2----2-3-0-|


Guitar 2
e|-----------------------------------|
B|-----------------------------------|
G|---------------7--6----------------|
D|-------7--9------------9--8----8-9-|
A|-10--------------------------------|
E|-----------------------------------|

e|----------------------------------|
B|----------------------------------|
G|---------------7--6----11--8------|
D|-------7--9---------------------9-|
A|-10-------------------------------|
E|----------------------------------|

e|--------------------------------------|
B|--------------------------------------|
G|---------------7--6-------------------|
D|-------7--9------------9--8----8-9----|
A|-10--------------------------------10-|
E|--------------------------------------|




Riff 1                      x4
e|---------------------------|-------|
B|---------------------------|-------|
G|---------------------------|-------|
D|------9-----------------9--|-------|
A|---7--7--------------7--7--|-------|
E|-6-5---------------6-5-----|--X\\--|
         "Hello me..."



Riff 2
Guitar 1
e|----------------------------|
B|----------------------------|
G|----------------------------|
D|----------------------------|
A|-2--5--7----5--8--7-----8-7-|
E|-0--3--5--0-3--6--5--0--6-5-|
   *  *  *  * *        *
   "Feeling paranoid..."
e|----------------------------|
B|----------------------------|
G|----------------------------|
D|----------------------------|
A|-2--5--7----5--8--7--5----3-|
E|-0--3--5--0-3--6--5--3--0-1-|
   *  *  *  * *        *  *
   "...or false friend..."
e|----------------------------|
B|----------------------------|
G|----------------------------|
D|----------------------------|
A|-2--5--7----5--8--7-----8-7-|
E|-0--3--5--0-3--6--5--0--6-5-|
   *  *  *  * *        *
   "Anxiety's attacking me..."
e|-----------------|
B|-----------------|
G|-----------------|
D|-----------------|
A|-2--5--7----3--2-|
E|-0--3--5--0-1--0-|
   *  *  *  *
   "...air is getting thin."
e|----------------------------|
B|----------------------------|
G|----------------------------|
D|----------------------------|
A|-2--5--7----5--8--7-----8-7-|
E|-0--3--5--0-3--6--5--0--6-5-|
   *  *  *  * *        *
   "I'm in trouble..."
e|----------------------------|
B|----------------------------|
G|----------------------------|
D|----------------------------|
A|-2--5--7----5--8--7--5----3-|
E|-0--3--5--0-3--6--5--3--0-1-|
   *  *  *  * *        *  *
   "...haven't got to yet..."
e|----------------------------|
B|----------------------------|
G|----------------------------|
D|----------------------------|
A|-2--5--7----5--8--7-----8-7-|
E|-0--3--5--0-3--6--5--0--6-5-|
   *  *  *  * *        *
   "I'm chomping at the bit..."
e|-------------------------|
B|-------------------------|
G|-------------------------|
D|-----------------9--7-9--|
A|-8--7--5--3-2----7--5-7--|
E|-6--5--3--1-0------------|
   "...palms are getting wet..."

Guitar 2
e|-12-------11-------10--------9-------|
B|-15b17~---14b16~---13b15~---12b14~---|
G|-------------------------------------|
D|-------------------------------------|
A|-------------------------------------|
E|-------------------------------------|

e|--8--------7-------6---------------|
B|-11b13~---10b12~---9b11~-----------|
G|---------------------------3b4-0---|
D|-----------------------------------|
A|-----------------------------------|
E|-----------------------------------|

e|-12-------11-------10--------9-------|
B|-15b17~---14b16~---13b15~---12b14~---|
G|-------------------------------------|
D|-------------------------------------|
A|-------------------------------------|
E|-------------------------------------|

e|--8--------7-------|
B|-11b13~---10b12~---|
G|-------------------|
D|-------------------|
A|-------------------|
E|-------------------|

e|------------------------|
B|------------------------|
G|----------------------7-|
D|-----------------9--7-5-|
A|-8--7--5--3-2----7--5---|
E|-6--5--3--1-0-----------|


Play Riff 1  "Hello me, it's me again..."
Play Riff 2  "Feeling claustrophobic..."


Riff 3 (Solo Rhythm, Play 4x)
e|--------------------------------------|
B|--------------------------------------|
G|--------------------------------------|
D|--------------------------------------|
A|-------------2--------2--------2--8-7-|
E|-0-0-0-0-0-0-0--0-0-0-0--0-0-0-0--6-5-|
   * * * * * *    * * *    * * * *  *
e|--------------------------------------|
B|--------------------------------------|
G|--------------------------------------|
D|--------------------------------------|
A|-------------2--------2--------2--8-7-|
E|-0-0-0-0-0-0-0--0-0-0-0--0-0-0-0--6-5-|
   * * * * * *    * * *    * * * *  *
e|-----------------------------------------|
B|-----------------------------------------|
G|-----------------------------------------|
D|-----------------------------------------|
A|-------------5--------------------8--7-3-|
E|-3-3-3-3-3-3-3--3-3-3-5-5-5-5-5-5-6--5-1-|
   * * * * * *    * * * * * * * * *
e|--------------------------------------|
B|--------------------------------------|
G|--------------------------------------|
D|--------------------------------------|
A|-------------2--------2--------2--8-7-|
E|-0-0-0-0-0-0-0--0-0-0-0--0-0-0-0--6-5-|
   * * * * * *    * * *    * * * *  *


Solo (Mustaine)
e|----------------------------12-------------------|
B|----------------------------h.-12----------------|
G|-------------------------------h.-12-------------|
D|----------------------------------h.-12----------|
A|-------------------------7-----------h.-12-------|
E|-3------5----6-5-1----0-----------------h.-12-12-|
                                             h. h.
e|-15-14-13-12-----------------------|
B|------------16-15-14-13------------|
G|-----------------------16-15-14-13-|
D|-----------------------------------|
A|-----------------------------------|
E|-----------------------------------|

e|-----------------------------------|
B|-16-15-14-13-----------------------|
G|------------16-15-14-13------------|
D|-----------------------17-16-15-14-|
A|-----------------------------------|
E|-----------------------------------|

e|-----------------------------------|
B|-----------------------------------|
G|-16-15-14-13-----------------------|
D|------------17-16-15-14------------|
A|-----------------------18-17-16-15-|
E|-----------------------------------|

e|-----------------------------------|
B|-----------------------------------|
G|-----------------------------------|
D|-17-16-15-14-----------------------|
A|------------18-17-16-15------------|
E|-----------------------19-18-17-16-|

e|-----------------------------------|
B|-----------------------------------|
G|-----------------------------------|
D|----------------------------9----9-|
A|----------10----10-12-10-12---12---|
E|-12-10-12----12--------------------|

e|----------------------------|
B|----------------------------|
G|---------9----9-12p10p9-10~-|
D|-12-9-12---12---------------|
A|----------------------------|
E|----------------------------|

e|--------------------------------|
B|--------------------------------|
G|-9h10p9----9-10-12p10p9-10p9----|
D|--------12-------------------12-|
A|--------------------------------|
E|--------------------------------|

e|--------------------------------|
B|--------------------------------|
G|-9h10p9----9--------------------|
D|--------12---12-12p10p9-10p9----|
A|-----------------------------12-|
E|--------------------------------|

e|--------------------------------|
B|--------------------------------|
G|--------------------------------|
D|-9h10p9----9-10-12p10p9-10p9----|
A|--------12-------------------12-|
E|--------------------------------|

e|--------------------------------|
B|--------------------------------|
G|--------------------------------|
D|-9------------------------------|
A|---12p10-12p10----10------------|
E|---------------12----12p10-12~--|

e|----------------------------------------|
B|----------------------------------------|
G|----------------------------------------|
D|----------------------------------------|
A|-------------------------------12-12-12-|
E|-12-12-12--15-15-15--14-14-14-----------|
    *  *  *   *  *  *   *  *  *   *  *  *
e|----------------------------------------|
B|----------------------------------------|
G|----------------------------------------|
D|----------------------------------------|
A|-15-15-15--14-14-14--12-12-12-----------|
E|-------------------------------15-15-15-|
    *  *  *   *  *  *   *  *  *   *  *  *
e|----------------------------------------|
B|----------------------------------------|
G|----------------------------------------|
D|----------------------------------------|
A|----------------------------------------|
E|-14-14-14--12-12-12--14-14-14--15-15-15-|
    *  *  *   *  *  *   *  *  *   *  *  *
e|-----------------------------------|
B|-----------------------------------|
G|-----------------------------------|
D|------------------------------12~--|
A|-12-12-12--14-14-14--15-15-15------|
E|-----------------------------------|
    *  *  *   *  *  *   *  *  *
e|-15---16---17---18---19---20---21---22---22b24~~-|
B|----14---15---16---17---18---19---20---21--------|
G|-------------------------------------------------|
D|-------------------------------------------------|
A|-------------------------------------------------|
E|-------------------------------------------------|

End Solo


Riff 4            x3
e|-----------------|
B|-----------------|
G|-----------------|
D|-10--------------|
A|--8--10--9--5--2-|
E|------8--7--3--0-|

e|-----------------------------------|
B|-----------------------------------|
G|-----------------------------------|
D|-10--------------------------------|
A|--8--10--9--5--2--------3--------4-|
E|------8--7--3--0--------1--------2-|


Riff 5
e|-----------------------------------|
B|-----------------------------------|
G|-----------------------------------|
D|-----------------------------------| ---|
A|-5-------4-------3-------2-------1-|    |
E|---0-2-3---0-2-3---0-2-3---0-2-3---|    |
     * * *   * * *   * * *   * * *        |
e|-------------------------------|        |--> Play 4x
B|-------------------------------|        |
G|-------------------------------|        |
D|-------------------------------|  ------|
A|-------0-----------------------|
E|-0-2-3---0-2-3-4-3-2-1-0-1-2-3-|
   * * *   * * * * * * * * * * *

e|-----------------------|
B|-----------------------|
G|-----------------------|
D|-----------------------|
A|-11-10-9-8----------2--|
E|------------4-3-2-1-0--|


Play Riff 1  "Well me it's nice..."

Riff 2a
Guitar 1
e|----------------------------|
B|----------------------------|
G|----------------------------|
D|----------------------------|
A|-2--5--7----5--8--7-----8-7-|
E|-0--3--5--0-3--6--5--0--6-5-|
   *  *  *  * *        *
   "Feeling paranoid..."
e|----------------------------|
B|----------------------------|
G|----------------------------|
D|----------------------------|
A|-2--5--7----5--8--7--5----3-|
E|-0--3--5--0-3--6--5--3--0-1-|
   *  *  *  * *        *  *
   "...or false friend..."
e|----------------------------|
B|----------------------------|
G|----------------------------|
D|----------------------------|
A|-2--5--7----5--8--7-----8-7-|
E|-0--3--5--0-3--6--5--0--6-5-|
   *  *  *  * *        *
   "Anxiety's attacking me..."
e|-----------------|
B|-----------------|
G|-----------------|
D|-----------------|
A|-2--5--7----3--2-|
E|-0--3--5--0-1--0-|
   *  *  *  *
   "...air is getting thin."
e|----------------------------|
B|----------------------------|
G|----------------------------|
D|----------------------------|
A|-2--5--7----5--8--7-----8-7-|
E|-0--3--5--0-3--6--5--0--6-5-|
   *  *  *  * *        *
   "Feeling claustrophobic..."
e|----------------------------|
B|----------------------------|
G|----------------------------|
D|----------------------------|
A|-2--5--7----5--8--7--5----3-|
E|-0--3--5--0-3--6--5--3--0-1-|
   *  *  *  * *        *  *
   "...walls are caving in..."
e|----------------------------|
B|----------------------------|
G|----------------------------|
D|----------------------------|
A|-2--5--7----5--8--7-----8-7-|
E|-0--3--5--0-3--6--5--0--6-5-|
   *  *  *  * *        *
   "Bloodstains on my hands..."
e|-------------------|
B|-------------------|
G|-------------------|
D|-----------------9-|
A|-8--7--5--3-2----7-|
E|-6--5--3--1-0------|
   "...don't know where I've been."

Guitar 2
e|-12-------11-------10--------9-------|
B|-15b17~---14b16~---13b15~---12b14~---|
G|-------------------------------------|
D|-------------------------------------|
A|-------------------------------------|
E|-------------------------------------|

e|--8--------7-------6--------------|
B|-11b13~---10b12~---9b11~----------|
G|---------------------------3b4-0--|
D|----------------------------------|
A|----------------------------------|
E|----------------------------------|

e|-12-------11-------10--------9-------|
B|-15b17~---14b16~---13b15~---12b14~---|
G|-------------------------------------|
D|-------------------------------------|
A|-------------------------------------|
E|-------------------------------------|

e|--8--------7-------|
B|-11b13~---10b12~---|
G|-------------------|
D|-------------------|
A|-------------------|
E|-------------------|

e|--------------------|
B|--------------------|
G|--------------------|
D|-----------------9--|
A|-8--7--5--3-2----7--|
E|-6--5--3--1-0-------|


Riff 2b
Guitar 1
e|---------------------------------|
B|---------------------------------|
G|---------------------------------| ---|
D|---------------------------------|    |
A|---------------------------------|    |
E|-000-333-555-333-666-555-333-555-|    |
   *** *** *** *** *** *** *** ***      |
   "Once you committed me..."           |--> Play 3x
e|---------------------------------|    |
B|---------------------------------|    |
G|---------------------------------|    |
D|---------------------------------| ---|
A|---------------------------------|
E|-000-333-555-333-666-555-333-111-|
   *** *** *** *** *** *** *** ***
   "...now you've acquitted me..."

e|---------------------------------|
B|---------------------------------|
G|---------------------------------|
D|---------------------------------|
A|---------------------------------|
E|-000-333-555-333-666-555-333-555-|
   *** *** *** *** *** *** *** ***
   "Well here I go again..."

Guitar 2
e|-12-------11-------10--------9-------|
B|-15b17~---14b16~---13b15~---12b14~---|
G|-------------------------------------|
D|-------------------------------------| --> Play 3x
A|-------------------------------------|
E|-------------------------------------|

e|--8--------7-------|
B|-11b13~---10b12~---|
G|-------------------|
D|-------------------|
A|-------------------|
E|-------------------|


Ending
Guitar 1
e|--------------------------------------|
B|--------------------------------------|
G|--------------------------------------|
D|-----------------9--7-9-------------9-|
A|-8--7--5--3-2----7--5-7----------7--7-|
E|-6--5--3--1-0------------------6-5----|
                  "Sweating bullets!"

Guitar 2
e|--------------------------------------|
B|--------------------------------------|
G|----------------------7---------------|
D|-----------------9--7-5-------------9-|
A|-8--7--5--3-2----7--5------------7--7-|
E|-6--5--3--1-0------------------6-5----|

5.Angry Again 

Riff 1
Guitar 1
eb|-----------------------------------------|
Bb|-----------------------------------------|
Gb|-----------------------------------------|
Db|-0-1------4-5------8-9-------12-13-------|
Ab|-----2--------6--------10----------14----|
Eb|-------3--------7---------11----------15-|

Guitar 2
eb|------------------------------------------|
Bb|---------------------11-12------15-16-----|
Gb|-7-8------11-12-----------12---------16---|
Db|-----9---------13-----------13---------17-|
Ab|------10---------14-----------------------|
Eb|------------------------------------------|


Riff 2
eb|---------------------------------|
Bb|---------------------------------|
Gb|---------------------------------|
Db|-----2-----2---------------------|
Ab|---2-----3---3-2-2-----2---------|
Eb|-0-----0---------0-0-0-0-0-0-0-0-|
    *     *           * *   * * * *
eb|----------------------------------|
Bb|----------------------------------|
Gb|----------------------------------|
Db|-----2-----2----------------------|
Ab|---2-----3---3-2-2-----2---/4-3-2-|
Eb|-0-----0---------0-0-0-0-0-/5-4-3-|
    *     *           * *   *
eb|---------------------------|
Bb|---------------------------|
Gb|---------------------------|
Db|-----2-----2---------------|
Ab|---2-----3---3-2-2-----2---|
Eb|-0-----0---------0-0-0-0-0-|
    *     *           * *   *
eb|----------------------------------------|
Bb|----------------------------------------|
Gb|----------------------------------------|
Db|-----------------------7-------7--------|
Ab|-/4-3-2--/4-3-2--/4-3--5-------3------2-|
Eb|-/5-4-3--/5-4-3--/5-4------0-0----3b4-0-|
                              * *


Riff 2a
eb|---------------------------------|
Bb|---------------------------------|
Gb|---------------------------------|
Db|-----2-----2---------------------|
Ab|---2-----3---3-2-2-----2---------|
Eb|-0-----0---------0-0-0-0-0-0-0-0-|
    *     *           * *   * * * *
                   "The more of you that I inspect..."
eb|----------------------------------|
Bb|----------------------------------|
Gb|----------------------------------|
Db|-----2-----2----------------------|
Ab|---2-----3---3-2-2-----2---/4-3-2-|
Eb|-0-----0---------0-0-0-0-0-/5-4-3-|
    *     *           * *   *
                   "The more of me I see reflect..."
eb|---------------------------------|
Bb|---------------------------------|
Gb|---------------------------------|
Db|-----2-----2---------------------|
Ab|---2-----3---3-2-2-----2---------|
Eb|-0-----0---------0-0-0-0-0-0-0-0-|
    *     *           * *   * * * *
                   "The more I try to read your lips..."

eb|---------------------------------|
Bb|---------------------------------|
Gb|---------------------------------|
Db|-----2-----2---7-------7---------|
Ab|---2-----3---3-5-------3-------2-|
Eb|-0-----0-----------0-0----3b4--0-|
    *     *           * *
                  "The more the mask you're wearing rips..."


Play Riff 2   "But when I seek out your voice..."
Play Riff 1


Riff 3
eb|----------------------------------|
Bb|----------------------------------|
Gb|----------------------------------|
Db|-5---4-5----9-7-5-5-----2---4-4---|
Ab|-7---5-7---10-9-7-7-----3---5-5---|
Eb|---0-----0----------0-0---0-----0-|
      *     *          * *   *     *
   "Engaged in crime..."
eb|--------------------------------|
Bb|--------------------------------|
Gb|--------------------------------|
Db|-5---4-5----9\--2------4--------|
Ab|-7---5-7---10\--3------5--------|
Eb|---0-----0---------0-0----0-0-0-|
      *     *         * *    * * *
   "Enraged my mind..."
eb|----------------------------------|
Bb|----------------------------------|
Gb|----------------------------------|
Db|-5---4-5----9-7-5-5-----2---4-4---|
Ab|-7---5-7---10-9-7-7-----3---5-5---|
Eb|---0-----0----------0-0---0-----0-|
      *     *          * *   *     *
   "Enforce a mental..."
eb|----------------------------------------------|
Bb|----------------------------------------------|
Gb|----------------------------------------------|
Db|-5---4-5----9\--5------5------2------5--------|
Ab|-7---5-7---10\--3------2------0------2------2-|
Eb|---0-----0---------0-0----0-0----0-0----3b4-0-|
      *     *         * *    * *    * *
   "Angry again, angry again..."


Play Riff 2  "And when the story takes a twist..."
Play Riff 1
Play Riff 3  "Engaged in crime..."


Riff 4
eb|-----------------------------------------------|
Bb|-----------------------------------------------|
Gb|-----------------------------------------------|
Db|-----------------------------------------------|
Ab|-2-2-2---2-2-2---3-3-3---3-3-3---4-4-4---4-4-4-|
Eb|-0-0-0---0-0-0---1-1-1---1-1-1---2-2-2---2-2-2-|
    * * *   * * *   * * *   * * *   * * *   * * *
   "The searing of the sinew..."
eb|-----------------------------------------------|
Bb|-----------------------------------------------|
Gb|-----------------------------------------------|
Db|-----------------------------------------------|
Ab|-5-5-5---5-5-5---6-6-6---6-6-6---7-7-7---7-7-7-|
Eb|-3-3-3---3-3-3---4-4-4---4-4-4---5-5-5---5-5-5-|
    * * *   * * *   * * *   * * *   * * *   * * *
   "...lungs begin to tear..."

eb|----------------------------|
Bb|----------------------------|
Gb|----------------------------|
Db|-------------7-------7------|
Ab|-8-8-8---8-8-5-------3------|
Eb|-6-6-6---6-6-----0-0----3-0-|
    * * *   * *     * *
    "...I make out my sweaty face..."


Riff 5 (Solo Rhythm)
eb|------------------------------|
Bb|------------------------------|
Gb|------------------------------|
Db|-9-------------9-------7------|
Ab|-7-------------5-------3------|
Eb|-----0-0-0-0-0-----0-0----3-0-|
        * * * * *     * *

Riff 6 (Solo Rhythm)
eb|----------------------------------|
Bb|----------------------------------|
Gb|----------------------------------|
Db|------2-----2-----0-1-------------|
Ab|-2--2-----3---3-2-----2-----------|
Eb|-0------0---------------3-2-1-2-3-|
           *                 * * * *
eb|----------------------------------|
Bb|----------------------------------|
Gb|----------------------------------|
Db|-----2-----2-----0-1------4-5-----|
Ab|---2-----3---3-2-----2--------6---|
Eb|-0-----0---------------3--------7-|
          *
eb|----------------------------------|
Bb|----------------------------------|
Gb|----------------------------------|
Db|------4-----4-----2-3-------------|
Ab|-4--4-----5---5-4-----4-----------|
Eb|-2------2---------------5-4-3-4-5-|
           *                 * * * *
eb|----------------------------------|
Bb|----------------------------------|
Gb|----------------------------------|
Db|------4-----4-----2-3-------------|
Ab|-4--4-----5---5-4-----4-----------|
Eb|-2------2---------------5-4-3-2-1-|
           *                 * * * *

Solo (Friedman)
eb|---------------------------------------------|
Bb|---------------------------------------------|
Gb|------------------------------/16-14--12-11~-|
Db|-9--/14\--9-9b10~~----9--/14-----------------|
Ab|---------------------------------------------|
Eb|---------------------------------------------|

eb|--------------------0-7-12-0-7-12-0-7-10-|
Bb|-------------0-8-12----------------------|
Gb|-7-7--0-9-12-----------------------------|
Db|-----------------------------------------|
Ab|-----------------------------------------|
Eb|-----------------------------------------|

eb|-0-7-10-0-10-14-0-12-14-15-14h15p14p12-14-12--12---|
Bb|--------------------------------------------15--15-|
Gb|---------------------------------------------------|
Db|---------------------------------------------------|
Ab|---------------------------------------------------|
Eb|---------------------------------------------------|

eb|----------------------|
Bb|-15b17r15-12-15-12~~--|
Gb|----------------------|
Db|----------------------|
Ab|----------------------|
Eb|----------------------|

eb|----12-12h17p12---------------------------|
Bb|-15------------15p12--12---------------14-|
Gb|--------------------14--14b16r14-12----14-|
Db|------------------------------------14----|
Ab|------------------------------------------|
Eb|------------------------------------------|

eb|-----------------------------|
Bb|-----------------------------|
Gb|-12-14-12--(12)b13r12b13r12\-|
Db|-----------------------------|
Ab|-----------------------------|
Eb|-----------------------------|

eb|----------------------------------------------------|
Bb|----------------------------------------------------|
Gb|-3b4r3b4-3b4-3b4-3b4-{3}{3}{3}{3}{3}{3}{3}{3}{3}{3}-|
Db|----------------------------------------------------|
Ab|----------------------------------------------------|
Eb|----------------------------------------------------|

eb|----------------------------------------------|
Bb|----------------------------------------------|
Gb|-3h4p3p0------4-----4-------------------------|
Db|---------2--5---2-5---5-2--6-7------9-10------|
Ab|-------------------------------9-6-------12-9-|
Eb|----------------------------------------------|

eb|--------------------------------------|
Bb|--------------------------------------|
Gb|---------------------------/4b5r4b5~~-|
Db|-4/7-7-7-7-7-7/9-9-9-9-9\-------------|
Ab|--------------------------------------|
Eb|--------------------------------------|

eb|------------------------------17b19-17b19r17b19r17b19r17-|
Bb|---------------------16h17p14----------------------------|
Gb|-4-4-4/14-14-14-16~~-------------------------------------|
Db|---------------------------------------------------------|
Ab|---------------------------------------------------------|
Eb|---------------------------------------------------------|

eb|-19h20p19p17-19p17--------------17-19-|
Bb|------------------20-19-17-19-20------|
Gb|--------------------------------------|
Db|--------------------------------------|
Ab|--------------------------------------|
Eb|--------------------------------------|

eb|-22b24-22b24-22b24~~~\-|
Bb|-----------------------|
Gb|-----------------------|
Db|-----------------------|
Ab|-----------------------|
Eb|-----------------------|

End solo


Play Riff 2a   "Association that I choose..."
Play Riff 2    "A cut-out cardboard condo maze..."
Play Riff 1


Riff 3a
Guitar 1
eb|----------------------------------|
Bb|----------------------------------|
Gb|----------------------------------|
Db|-5---4-5----9-7-5-5-----2---4-4---|
Ab|-7---5-7---10-9-7-7-----3---5-5---|
Eb|---0-----0----------0-0---0-----0-|
      *     *          * *   *     *
   "Engaged in crime..."
eb|--------------------------------|
Bb|--------------------------------|
Gb|--------------------------------|
Db|-5---4-5----9\--2------4--------|
Ab|-7---5-7---10\--3------5--------|
Eb|---0-----0---------0-0----0-0-0-|
      *     *         * *    * * *
   "Enraged my mind..."
eb|----------------------------------|
Bb|----------------------------------|
Gb|----------------------------------|
Db|-5---4-5----9-7-5-5-----2---4-4---|
Ab|-7---5-7---10-9-7-7-----3---5-5---|
Eb|---0-----0----------0-0---0-----0-|
      *     *          * *   *     *
   "Enforce a mental..."
eb|--------------------------------------------|
Bb|--------------------------------------------|
Gb|--------------------------------------------|
Db|-5---4-5----9\--5------5------2------5------|
Ab|-7---5-7---10\--3------2------0------2------|
Eb|---0-----0---------0-0----0-0----0-0----3-0-|
      *     *         * *    * *    * *
   "Angry again, angry again..."
eb|-----------------------------|
Bb|-----------------------------|
Gb|-----------------------------|
Db|-5------5------2------5------|
Ab|-3------2------0------2------|
Eb|----0-0----0-0----0-0----3-0-|
       * *    * *    * *
       "...and again and again, again..."
eb|------------------------------------|
Bb|------------------------------------|
Gb|------------------------------------|
Db|-5-5---4-5----9-7-5-5-----2---4-4---|
Ab|-7-7---5-7---10-9-7-7-----3---5-5---|
Eb|-----0-----0----------0-0---0-----0-|
        *     *          * *   *     *
   "Engaged in crime..."
eb|--------------------------------|
Bb|--------------------------------|
Gb|--------------------------------|
Db|-5---4-5----9\--2------4--------|
Ab|-7---5-7---10\--3------5--------|
Eb|---0-----0---------0-0----0-0-0-|
      *     *         * *    * * *
   "Enraged my mind..."
eb|----------------------------------|
Bb|----------------------------------|
Gb|----------------------------------|
Db|-5---4-5----9-7-5-5-----2---4-4---|
Ab|-7---5-7---10-9-7-7-----3---5-5---|
Eb|---0-----0----------0-0---0-----0-|
      *     *          * *   *     *
   "Enforce a mental..."
eb|--------------------------------------------|
Bb|--------------------------------------------|
Gb|--------------------------------------------|
Db|-5---4-5----9\--5------5------2------5------|
Ab|-7---5-7---10\--3------2------0------2------|
Eb|---0-----0---------0-0----0-0----0-0----3b4-|
      *     *         * *    * *    * *
   "Angry again..."


Ending
Guitar 1
eb|----------------------------------------|
Bb|----------------------------------------|
Gb|----------------------------------------|
Db|-0-1------4-5------8-9------------------|
Ab|-----2--------6--------10-------------2-|
Eb|-------3--------7---------11--2-1-2-3-0-|
                                 * * * *
Guitar 2
eb|-----------------------------------------|
Bb|--------------------11-12----------------|
Gb|-7-8------11-12----------12--------------|
Db|-----9---------13----------13------------|
Ab|------10---------14--------------------2-|
Eb|-------------------------------2-1-2-3-0-|
                                  * * * *

6.A Tout Le Monde 

verse 1
e-------------------------------|----------------------------------|
B-------------------------------|----------------------------------|
G-----------2----------2--------|---------2-----------2------------|
D-------------------------------|----------------------------------|
A-----4-----------4----------4--|------4----------4----------4-----|
E--2----------2-----------2-----|--0----------0----------0---------|

e-------------------------------|----------------------------------|
B-------------------------------|----------------------------------|
G--------2--------2-------------|--------2-------------2-----------|
D-----4--------4----4-----------|----0-------------2---------------|
A--2--------2-------------------|---------------0------------------|
E------------------------2/3----|-----------3---------------3------|

pre-chorus
e-------------------------------|----------------------------------|
B-------------------------------|----------------------------------|
G--------------------2----------|-----2-h-4----------2--4----------|
D-4----------2--4----2----------|-----2-h-4----------2--4----------|
A-4----------2--4----0----------|--x-------------------------------|
E-2-----------------------------|------------------------------0---|
pm          ......                                  ......

e-------------------------------|----------------------------------|
B-------------------------------|----------------------------------|
G---------------------------2---|---------4----------2---4---------|
D-4-----------4----2--4-----2---|---------4----------2---4---------|
A-4-----------4----2--4-----0---|-----x---2--------------2---x-----|
E-2-------0---2-----------------|----------------------------------|
pm       ..       ......                            ..

e--------------------------------|---------------------------------|
B--------------------------------|---------------------------------|
G-7-7-7-7-7-7-7-7-7-7-7-7-7-7-7-7|---------------------------------|
D-7-7-7-7-7-7-7-7-7-7-7-7-7-7-7-5|---------------------------------|
A-5-5-5-5-5-5-5-5-5-5-5-5-5-5-5-5|---------------------------------|
E--------------------------------|---------------------------------|

chorus
e---------9--------9-------9----|-------7------7------7------------|
B----10-------10----------------|----9------9----------------------|
G-9-------------------9---------|-9---------------9----------------|
D-------------------------------|----------------------------------|
A-------------------------------|----------------------------------|
E-------------------------------|----------------------------------|

e--------7--------7-------7-----|----------5-------5-----5---------|
B----7--------7-----------------|-----7---------7------------------|
G-8-------------------8---------|-6-------------------6------------|
D-------------------------------|----------------------------------|
A-------------------------------|----------------------------------|
E-------------------------------|----------------------------------|



e-------5-------5---------5-----|-------4---------4------4---------|
B----5------5-------------------|----5-------5---------------------|
G-6------------------6----------|-6------------------6-------------|
D-------------------------------|----------------------------------|
A-------------------------------|----------------------------------|
E-------------------------------|----------------------------------|

e-----------2---------2--------2|---0------------------------------|
B------2---------2--------------|---3------------------------------|
G-4------------------------4----|---2------------------------------|
D-------------------------------|---0------------------------------|
A-------------------------------|----------------------------------|
E-------------------------------|----------------------------------|


Guitar 2   verse 2 w/dis     guitar 1 plays verse 1 as well
e-------------------------------|----------------------------------|
B-------------------------------|----------------------------------|
G-----------2----------2--------|---------2-----------2------------|
D-------------------------------|----------------------------------|
A-----4-----------4----------4--|------4----------4----------4-----|
E--2----------2-----------2-----|--0----------0----------0---------|
pm ....       .....       ..      ......     ......     ..

e-------------------------------|----------------------------------|
B-------------------------------|----------------------------------|
G--------2--------2-------------|--------2-------------2-----------|
D-----4--------4----4-----------|----0-------------2---------------|
A--2--------2-------------------|---------------0------------------|
E------------------------2/3----|-----------3---------------3------|
pm ....     ....    ..              ..      ........        ..

pre-chorus
e-------------------------------|----------------------------------|
B-------------------------------|----------------------------------|
G--------------------2----------|-----2-h-4----------2--4----------|
D-4----------2--4----2----------|-----2-h-4----------2--4----------|
A-4----------2--4----0----------|--x-------------------------------|
E-2-----------------------------|------------------------------0---|
pm          ......                                  ......

e-------------------------------|----------------------------------|
B-------------------------------|----------------------------------|
G---------------------------2---|---------4----------2---4---------|
D-4-----------4----2--4-----2---|---------4----------2---4---------|
A-4-----------4----2--4-----0---|-----x---2--------------2---x-----|
E-2-------0---2-----------------|----------------------------------|
pm       ..       ......                            ..

e--------------------------------|---------------------------------|
B--------------------------------|---------------------------------|
G-7-7-7-7-7-7-7-7-7-7-7-7-7-7-7-7|---------------------------------|
D-7-7-7-7-7-7-7-7-7-7-7-7-7-7-7-5|---------------------------------|
A-5-5-5-5-5-5-5-5-5-5-5-5-5-5-5-5|---------------------------------|
E--------------------------------|---------------------------------|

chorus
e---------9--------9-------9----|-------7------7------7------------|
B----10-------10----------------|----9------9----------------------|
G-9-------------------9---------|-9---------------9----------------|
D-------------------------------|----------------------------------|
A-------------------------------|----------------------------------|
E-------------------------------|----------------------------------|

e--------7--------7-------7-----|----------5-------5-----5---------|
B----7--------7-----------------|-----7---------7------------------|
G-8-------------------8---------|-6-------------------6------------|
D-------------------------------|----------------------------------|
A-------------------------------|----------------------------------|
E-------------------------------|----------------------------------|


e-------5-------5---------5-----|-------4---------4------4---------|
B----5------5-------------------|----5-------5---------------------|
G-6------------------6----------|-6------------------6-------------|
D-------------------------------|----------------------------------|
A-------------------------------|----------------------------------|
E-------------------------------|----------------------------------|

e-----------2---------2--------2|---0------------------------------|
B------2---------2--------------|---3------------------------------|
G-4------------------------4----|---2------------------------------|
D-------------------------------|---0------------------------------|
A-------------------------------|----------------------------------|
E-------------------------------|----------------------------------|



Solo..
e-------------------------------|----------------------------------|
B-------------------------------|----------------------------------|
G-11h14-11\9-9h11---------------|-----6----------------------------|
D-----------------9h11---11\9--7|-9--------------------------------|
A-------------------------------|-------9---------7-9-9-------7\4--|
E-------------------------------|-----------7h9--------------------|
                                                      ~~~~~~
e-------------------------------|----------------------------------|
B-------------------------------|----------------------------------|
---------4----6--4----------2-4-|-4^--2-4----2--4-4fb-4p2-4-----2--|
D--------4--4----------2h4------|----------------------------4-----|
A-4h5--5------------------------|----------------------------------|
E-------------------------------|----------------------------------|
                 ~~~~                   ~~~~                    ~~~

e-------------------------------|----------12----------------------|
B-------------------------------|----------------------------------|
G-/11-11-11-11-11-11-11----11---|-14-14fb-----14--13--h14p13-11----|
D-------------------------------|-------------------------------14-|
A-------------------------------|----------------------------------|
E-------------------------------|----------------------------------|
                                     *hold bend

e---------------------------|-------7-10-----7/12-9------------9h12|
B---------------------------|-----8--------8-------10-------10-----|
G--------/11--11/11--11-11\-|--7---------7------------9----9-------|
D-12-12--/12--12/14--12-12\-|/9-------------------------11---------|
A---------------------------|--------------------------------------|
E---------------------------|--------------------------------------|
  ~~~

pre-chorus
e-------------------------------|----------------------------------|
B-------------------------------|----------------------------------|
G----------------------4------x-|--4h6----4--6---------------------|
D-6-----------4--6-----4------x-|--4h6----4--6---------------------|
A-6-----------4--6--------------|--------------------4-------------|
E-4-----------------------------|--------------------4-------------|
pm           .....                       ..          ..

e-------------------------------|----------------------------------|
B-------------------------------|----------------------------------|
G---------------------------4---|---x---4h6--------4---6-----------|
D-6-------------6----4-6----4---|---x---4h6--------4---6-----------|
A-6-------------6----4-6--------|----------------------------------|
E-4----------x--4---------------|----------------------------------|
pm                   ....

e-------------------------------|----------------------------------|
B-------------------------------|----------------------------------|
G-9--9--9--9--9--9--9--9--9--9--|-9--9--9--9--9--9-----------------|
D-9--9--9--9--9--9--9--9--9--9--|-9--9--9--9--9--9-----------------|
A-7--7--7--7--7--7--7--7--7--7--|-7--7--7--7--7--7-----------------|
E-------------------------------|----------------------------------|

chorus:


For the Outro ..both guitars play a separate note each .
but I have tabbed it for one guitar...it gets harder at the end!!

Outro...
e-9-----9------9------9---------|-----------------------------------|
B----12-----------12------14----|------------14--12-----------------|
G-14-13-14--11-14-13--14--11----|------14/11-14--13--14/11-13/9-----|
D-----------11------------------|-14/11------------------------14/11|
A-------------------------------|-----------------------------------|
E-------------------------------|-----------------------------------|
                                                  ~~
e-10-9---10-----10--9---10------|--------------------------9-----9-|
B-12-10--12-11--12--10--12/15---|-15------12-15--14-12--10----12---|
G-----------12-------------11---|-11---12-12-16--14-12--11-14-13-14|
D-------------------------------|---12-12--------------------------|
A-------------------------------|---12-----------------------------|
E-------------------------------|----------------------------------|

e----9-------9------------------|----------------------------------|
B--------12-----14--------------|14--12----------------------------|
G-11-14--13--14-11-------14/11--|14--13---14\11--13\9--------------|
D-11----------------14/11-------|----------------------14/11-------|
A-------------------------------|----------------------------------|
E-------------------------------|----------------------------------|
                                     ~~~
e-10-9---10-----10--9---10------|----------------------------------|
B-12-10--12-11--12--10--12/15---|-15-14----------------------------|
G-----------12-------------11---|-7--6-14--13----------------------|
D-------------------------------|------7---6-14-12-----------------|
A-------------------------------|------------7--5-14-12-11-12-14\9-|
E-------------------------------|-----------------7--5--4--5--7\-2-|

e-------------------------------|--------------------------|--2----|
B-------------------------------|--------------------------|--2----|
G-------------------------------|--------------------------|--2----|
D--------0-----0----------------|-------0------0-----------|--4----|
A----4-----4------4-------4-----|---4-------4-----4------4-|--4----|
E-2-------------------2---------|-2--------------------2---|--2----|

Guitar 2
e-------------------------------|--------------------------|-------|
B-------------------------------|--------------------------|-5fb---|
G-------------------------------|--------------------------|-------|
D-------------------------------|--------------------------|-------|
A-------------------------------|--------------------------|-------|
E-------------------------------|--------------------------|-------|

7.Trust

Intro

Guitar 1 (Synth arranged for guitar)
                              x2
e|-----------------------------|
B|-----------------------------|
G|-9--------9--------7----/12--|
D|-----------------------------|
A|-7--------7--------5----/10--|
E|-----------------------------|

e|-----------------------|
B|-----------------------|
G|-9--------9---10--/12--|
D|-----------------------|
A|-7--------7----8--/10--|
E|-----------------------|

e|-----------------------------|
B|-----------------------------|
G|-9--------9--------7----/12--|
D|-----------------------------|
A|-7--------7--------5----/10--|
E|-----------------------------|

e|----------------------|
B|----------------------|
G|-9--------9---10--12--|
D|----------------------|
A|-7--------7----8--10--|
E|----------------------|

e|---------------------|
B|---------------------|
G|-9--------9----10----|
D|---------------------|
A|-7--------7-----8----|
E|---------------------|


Guitar 2 (Comes in at 0:44, distortion)
e|-------------------12~----------------------------|
B|--------12~--------------------12~----------------|
G|-/9-9-9------9~--------9~--9~-------9~--9\7-7~-7~-|
D|--------------------------------------------------|
A|--------------------------------------------------|
E|--------------------------------------------------|

e|----------------12~-----------12~---------|
B|--------12~------------12~-----------12~--|
G|-/9-9-9------9~------9-----9~------9------|
D|------------------------------------------|
A|------------------------------------------|
E|------------------------------------------|

e|---12b13--{12}--{12}--{12}--{12}--(12)\--|
B|-----------------------------------------|
G|-9---------------------------------------|
D|-----------------------------------------|
A|-----------------------------------------|
E|-----------------------------------------|


Guitar 3 (Comes in at 0:44, distortion)
e|----------------------|
B|----------------------|
G|----------------------|
D|--9-------------------|
A|--7----10----7----3---|
E|--------8----5----1---|

e|-----------------------------------------|
B|-----------------------------------------|
G|-----------------------------------------|
D|--9--------------------------------------|
A|--7----10----7----3--3-3-3-3-3-3-3-3-----|
E|--------8----5----1--1-1-1-1-1-1-1-1-...-|
                       * * * * * * * *



Riff 1
e|-------------------------------|
B|-------------------------------|
G|-------------------------------|
D|-------------------------------|
A|---7---------7---------7-------|
E|-0---8-7~--0---8~--7-0----8-7~-|

e|-------------------------------|
B|-------------------------------|
G|-------------------------------|
D|-------------------------------|
A|---7---------7--------5--------|
E|-0---8-7~--0---6--5-0---0-6-8~-|

e|-------------------------------|
B|-------------------------------|
G|-------------------------------|
D|-------------------------------|
A|---7---------7---------7-------|
E|-0---8-7~--0---8~--7-0----8-7~-|

e|--------------------------------|
B|--------------------------------|
G|--------------------------------|
D|--------------------------------|
A|---7---------7--------5---------|
E|-0---8-7~--0---6--5-0---0-6-8-0-|
                                *


Riff 2 (Guitar 2 plays notes in () )
e|-------------------------------|
B|-------------------------------|
G|-------------------------------|
D|-9-----------------------------|
A|-7-------------10--------------|
E|----0-0-0-0-0---8--0-0-0-0-0-0-|
      * * * * *      * * * * * *
   "Lost in a dream..."
e|-------------------------------|
B|-------------------------------|
G|-------------------------------|
D|-------------------------------|
A|-7--------------3--------------|
E|-5--0-0-0-0-0-0-1--0-0-0-0-0-0-|
      * * * * * *    * * * * * *
   "Nothing's what..."
e|-------------------------------|
B|-------------------------------|
G|-------------------------------|
D|-9-----------------------------|
A|-7--------------10------9------|
E|----0-0-0-0-0-0--8--0-0-7--0-0-|
      * * * * * *     * *    * *
   "Searching..."
e|-------------------------------|
B|-------------------------------|
G|-------------------------------|
D|-------------------------------|
A|-7--------------3--------------|
E|-5--0-0-0-0-0-0-1--0-0-0-0-0-0-|
      * * * * * *    * * * * * *
   "...words that..."
e|---------------------------------|
B|-(12~)---------------------------|
G|-(12~)-----------(9~)------------|
D|---9-----------------------------|
A|---7-------------10--------------|
E|------0-0-0-0-0---8--0-0-0-0-0-0-|
        * * * * *      * * * * * *
   "Tears filled..."
e|--------------------------------|
B|--------------------------------|
G|-(5~)-----------(5~)------------|
D|--------------------------------|
A|--7--------------3--------------|
E|--5--0-0-0-0-0-0-1--0-0-0-0-0-0-|
       * * * * * *    * * * * * *
   "...said our..."
e|-----------------------------------|
B|-(12)-------------------------(7)--|
G|-(12)-------------(9~)----(7)------|
D|---9---------------------------7---|
A|---7--------------10-------9---5---|
E|------0-0-0-0-0-0--8---0-0-7-0---0-|
        * * * * * *      * *   *   *
   "The same scene..."
e|----------------------------------|
B|----------------------------------|
G|-(5~)----------(10~)--------------|
D|---------------(10~)--------------|
A|--7--------------3--3-3-3-3-3-3-3-|
E|--5--0-0-0-0-0-0-1--1-1-1-1-1-1-1-|
       * * * * * *
   "...walking away..."


Play Riff 1  "My body aches..."
Play Riff 2  "Time and again..."

Use this for the last bar for Riff 2:
e|----------------------------------|
B|----------------------------------|
G|-(5~)----------(10~)--------------|
D|---------------(10~)--------------|
A|--7--------------3--3-3-3-3-3-----|
E|--5--0-0-0-0-0-0-1--1-1-1-1-1-13\-|
       * * * * * *
   "...but I wish I could trust..."


Riff 1a
e|-------------------------------|
B|-------------------------------|
G|-------------------------------|
D|-------------------------------| ---|
A|---7---------7---------7-------|    |
E|-0---8-7~--0---8~--7-0----8-7~-|    |
   "My body aches..."                 |
e|-------------------------------|    |--> Play 3x
B|-------------------------------|    |
G|-------------------------------|    |
D|-------------------------------| ---|
A|---7---------7--------5--------|
E|-0---8-7~--0---6--5-0---0-6-8~-|
   "...mistakes..."

e|-------------------------------|
B|-------------------------------|
G|-------------------------------|
D|-------------------------------|
A|---7---------7---------7-------|
E|-0---8-7~--0---8~--7-0----8-7~-|
   "We lie to..."
e|-------------------------------|
B|-------------------------------|
G|-------------------------------|
D|-------------------------------|
A|---7---------7--------5--------|
E|-0---8-7~--0---6--5-0---0-6-8\-|
   "...so much..."



Interlude (Acoustic)
e|-0--------0--------0--------2-|
B|-0--------0--------0--------3-|
G|-0--------0--------0--------2-|
D|-2--------2--------2--------0-|
A|-2--------3--------4----------|
E|-0----------------------------|
  "...true.  Trust hurts..."


Riff 3 (Acoustic)
Guitar 1
e|------------------------------------------------|
B|------------------------------------------------|
G|-9-------9h10-9h10p9-------10-------8---------8-|
D|------10-------------10-------10------10---10---|
A|---12-------------------12-------12------8------|
E|------------------------------------------------|

e|--------------------6----------------|
B|----------8----8-10---6---6----------|
G|-7------7----7----------6---6----6---|
D|------8------------------------8---8-|
A|---10--------------------------------|
E|-------------------------------------|

e|---------0-------------------------------|
B|-------6---6------------8-8/11-11p8------|
G|-----5-------5--------6-------------9----|
D|---7-----------7----5-----------------11-|
A|-0----------------0----------------------|
E|-----------------------------------------|

Guitar 2
e|--------------------------------------|
B|--------------------------------------|
G|-5-----5h7-5h7p5----------5----2/5----|
D|-----7-----------7------7----------7\-|
A|---7---------------7--6-----3---------|
E|--------------------------------------|

e|------------------------------------------|
B|------------------------------------------|
G|----------3\2/3-----------6-5-6-----------|
D|-(7)\5----------5---------------8-------7-|
A|--------5---------5--8------------8-8-7---|
E|------------------------6-----------------|

e|---------------------|
B|-------5-5/8-8p5-----|
G|-----3-----------6---|
D|---2---------------7-|
A|-0-------------------|
E|---------------------|


Riff 4
Guitar 1 (Acoustic)
e|--------------------------------|
B|--------------------------------|
G|---------------------0-------0--|
D|-----0-------0-----0-------0----|
A|---0-------0-----1-----1-0------|
E|-1-----1-0-----0----------------|

e|--------------------------------|
B|--------------------------------|
G|--------------------------------|
D|-----------[silent]-------------|
A|--------------------------------|
E|--------------------------------|


Guitar 2 (Distortion)
e|-------------------------------------|
B|-------------------------------------|
G|---------------------0-------0-------|
D|-----0-------0-----0-------0-------2-|
A|---0-------0-----1-----1-0---------0-|
E|-1-----1-0-----0---------------3b4---|
   * * * * * * * * * * * * * * *
e|-----------------------------------------------|
B|-----------------------------------------------|
G|-----------------------------------------------|
D|---------------------------------------------2-|
A|-0-0-0-0-0-0-0-0-0-0-0-0-0-0-0-0-0-0-0-0-0-0-0-|
E|-----------------------------------------------|
   * * * * * * * * * * * * * * * * * * * * * *


Play Riff 1a  Solo Rhythm

Solo (Friedman)
e|---------------------------------------------|
B|-------------11b12~~-----------------12b15~~-|
G|-9--9~--9----------------9--9~--9------------|
D|----------9-----------/9----------9----------|
A|---------------------------------------------|
E|---------------------------------------------|

e|------------------------------------|
B|-------------------16-17b20--(20)~--|
G|---9~-9~~-------16------------------|
D|-9---------9/17---------------------|
A|------------------------------------|
E|------------------------------------|

e|--------------------------|
B|-[17]20r17b20--17b20r17\--|
G|--------------------------|
D|--------------------------|
A|--------------------------|
E|--------------------------|

e|-----------------------------------15-----|
B|--------------------------17-17~~----17---|
G|-2b3--2b3-2b3r2b3~~---/16--------------16-|
D|------------------------------------------|
A|------------------------------------------|
E|------------------------------------------|

e|-18b19--18b19~-{18}-(19)r18p17-15---------|
B|----------------------------------17~~-17-|
G|------------------------------------------|
D|------------------------------------------|
A|------------------------------------------|
E|------------------------------------------|

e|----------15h19p15--15-19-19b22~~~\-|
B|----17h19---------19----------------|
G|-16---------------------------------|
D|------------------------------------|
A|------------------------------------|
E|------------------------------------|

e|-19-22-22b24--22-22b24-22b24-22b24-22b24-22b24-|
B|-----------------------------------------------|
G|-----------------------------------------------|
D|-----------------------------------------------|
A|-----------------------------------------------|
E|-----------------------------------------------|

e|-22-2b24-22b24-22b24-{22}{22}{22}{22}{22}\-|
B|---------------22b23-{22}{22}{22}{22}{22}\-|
G|-------------------------------------------|
D|-------------------------------------------|
A|-------------------------------------------|
E|-------------------------------------------|

e|-----12-11--------11-12-11---------12-14p12--------|
B|-5/-------12p10-12--------12--12h15--------15-12---|
G|----------------------------14------------------14-|
D|---------------------------------------------------|
A|---------------------------------------------------|
E|---------------------------------------------------|

e|------12-14p12---------(15)----------------------|
B|-12h15--------15-12--12----15-12--12-15p12h15p12-|
G|-------------------14-----------14---------------|
D|-------------------------------------------------|
A|-------------------------------------------------|
E|-------------------------------------------------|

e|-----------------------|
B|---12------------------|
G|-14--14p12-------------|
D|----------14-12-14~~~\-|
A|-----------------------|
E|-----------------------|

End Solo


Play Riff 1a  "My body aches..."

Ending:
e|-------------------------------|
B|-------------------------------|
G|-------------------------------|
D|-------------------------------|
A|---7---------7---------7-------|
E|-0---8-7~--0---8~--7-0----8-7~-|
  "Oh..."
e|----------------------------------|
B|----------------------------------|
G|----------------------------------|
D|----------------------------------|
A|---7---------7--------5---------2-|
E|-0---8-7~--0---6--5-0---0-6-8\--0-|
       "Absolutely nothing we trust."


Ending guitar fills:
e|-----------------------------|
B|-----------------------------|
G|-11b12--------[11]12r11-9~~~-|
D|-----------------------------|
A|-----------------------------|
E|-----------------------------|

e|----------------------------------------------12--------|
B|--------------12h15-----12h15---------------15--15b17~~-|
G|-14-12---12h14-----12h14-----12h14p12--12-14------------|
D|------14-----------------------------14-----------------|
A|--------------------------------------------------------|
E|--------------------------------------------------------|

e|-----------------------------------------------------|
B|-12-12-15b17r15p12-15b17~~-15p12-15b17r15p12-15b17~~-|
G|-----------------------------------------------------|
D|-----------------------------------------------------|
A|-----------------------------------------------------|
E|-----------------------------------------------------|

e|-17b19r18--[17]19~~~\-|
B|----------------------|
G|----------------------|
D|----------------------|
A|----------------------|
E|----------------------|

e|-19b20--(20)r19--15-17-[17]18r17b18r17b18r17p15-|
B|------------------------------------------------|
G|------------------------------------------------|
D|------------------------------------------------|
A|------------------------------------------------|
E|------------------------------------------------|

e|-17b19~~-(19)r17p15-----------------15------------|
B|--------------------17~~~--17p15-17----17-15-17~~-|
G|--------------------------------------------------|
D|--------------------------------------------------|
A|--------------------------------------------------|
E|--------------------------------------------------|

e|----------------17-------------------|
B|-17~~--17p15-17----17p15-17~~\-------|
G|--------------------------------/16\-|
D|-------------------------------------|
A|-------------------------------------|
E|-------------------------------------|

e|---------------------------------------------------|
B|-11-------10-----\------------------------12-------|
G|-13b15~~--12b14~~\---9h12p9~~-----12p9----12p9-----|
D|------------------------------12p9----12p9----12p9-|
A|---------------------------------------------------|
E|---------------------------------------------------|

e|-----------------------|
B|-----------------------|
G|----9------------------|
D|-12---12p9-------------|
A|----------12p10--10----|
E|---------------12--12\-|

e|-------------------------------|
B|-------------------------------|
G|-------------------------------|
D|--[use wah pedal for this bar]-|
A|-------------------------------|
E|-3h5p3h5p3h5p3h5-5-5-5\--------|

End Solo

8.Kill The King 

RIff 1
e|-------------------|
B|-------------------|
G|-------------------|
D|-------------------|
A|-------------------|
E|-0-0-0-0-00000000--|
   * * * * ********
  "Broken down..."

Riff 2
e|-------------------------------------------------------|
B|-------------------------------------------------------|
G|-------------------------------------------------------|
D|--5----4~---5----4~------------------------------------|
A|--3----3----3----3-------------------------------------|
E|---------------------0-0-0-0-00000000-0-0-0-0-00000000-|
                       * * * * ******** * * * * ********
  "Time and time..."



Riff 3
e|--------------------------------|
B|--------------------------------|
G|--------------------------------|
D|--------------------------------|
A|-5h7---5h7---5h7---5h7---5h7----|
E|-----0-----0-----0-----0-----00-|
       *     *     *     *     **
   "...back from the edge..."
e|-------------------------------------|
B|-------------------------------------|
G|-------------------------------------|
D|-------------------------------------|
A|-7h10---7h10---7h10---7h10---7h10----|
E|------0------0------0------0------00-|
        *      *      *      *      **
   "...kill the king..."
e|--------------------------------|
B|--------------------------------|
G|--------------------------------|
D|--------------------------------|
A|-7h9---7h9---7h9---7h9---7h9----|
E|-----0-----0-----0-----0-----00-|
       *     *     *     *     **
   "...king is dead..."
e|--------------------------------|
B|--------------------------------|
G|--------------------------------|
D|--------------------------------|
A|-7h8---7h8---7h8---7h8---7h8----|
E|-----0-----0-----0-----0-----00-|
       *     *     *     *     **
   "...live the king..."
e|--------------------------------|
B|--------------------------------|
G|--------------------------------|
D|--------------------------------|
A|-5h7---5h7---5h7---5h7---5h7----|
E|-----0-----0-----0-----0-----00-|
       *     *     *     *     **
   "Kill the king..."
e|-------------------------------------|
B|-------------------------------------|
G|-------------------------------------|
D|-------------------------------------|
A|-7h10---7h10---7h10---7h10---7h10----|
E|------0------0------0------0------00-|
        *      *      *      *      **
   "...king is dead..."
e|--------------------------------|
B|--------------------------------|
G|--------------------------------|
D|--------------------------------|
A|-7h9---7h9---7h9---7h9---7h9----|
E|-----0-----0-----0-----0-----00-|
       *     *     *     *     **
   "...live the king..."
e|--------------------------------|
B|--------------------------------|
G|--------------------------------|
D|--------------------------------|
A|-7h8---7h8---7h8---7h8---7h8----|
E|-----0-----0-----0-----0-----00-|
       *     *     *     *     **
   "...I am the king..."
e|------------------------------|
B|------------------------------|
G|------------------------------|
D|------------------------------|
A|-7h8---7h8---7h8---7h8---7h8\-|
E|-----0-----0-----0-----0------|
       *     *     *     *
   "...God save the king..."


Play Riff 1    "Kill the king..."
Play Riff 2    "Time and time again..."
Play Riff 3    "...edge...to kill the king..."


Riff 4
e|------------------|
B|------------------|
G|------------------|
D|------------------|
A|------------------|
E|-0-0-0000-00-0000-|
   * * **** ** ****
 "A new precedent in pain..."


Riff 5 (Solo Rhythm)
e|----------------------------------|
B|----------------------------------|
G|----------------------------------|
D|----------------------------------|
A|--5------6-----3------------------|
E|--3------4-----1---0-0-0-0-0-...--|
                     * * * * *


Solo 1 (Pitrelli)
e|--------------------------------------------------|
B|-14-------12-------13-------15-------17-----(17)\-|
G|-16b18----14b16----15b17----17b19----19b21--(19)\-|
D|--------------------------------------------------|
A|--------------------------------------------------|
E|--------------------------------------------------|


Solo 2 (Mustaine)
e|-15--------12-15\12----------9-12/-|
B|---------14---------------11-------|
G|----12-15-----------10-12----------|
D|-----------------------------------|
A|-----------------------------------|
E|-----------------------------------|

e|-18----------15-18\17----------14-17-15~~\-|
B|----------17----------------16-------------|
G|----15-18-------------14-17----------------|
D|-------------------------------------------|
A|-------------------------------------------|
E|-------------------------------------------|


Solo 3 (Pitrelli)
e|-22d21*--(21)b23~*--(23)\--|
B|---------------------------|
G|---------------------------|
D|---------------------------|
A|---------------------------|
E|---------------------------|

e|-----------------|
B|-----------------|
G|-----------------|
D|---------5-------|
A|-----5-4---5-7~--|
E|-6-7-------------|
   * * * * * *

Solo 4 (Mustaine)
e|------------------------------------|
B|------------------------------------|
G|------------------------------------|
D|---------------------5-8-7h8p7-5h6--|
A|-7---4-7---4-7-4-6-7----------------|
E|---6-----6--------------------------|

e|------------------|
B|------------------|
G|------------------|
D|-4h5p4-3h4p3-2~~--|
A|------------------|
E|------------------|


Solo 5 (Pitrelli)
e|----------------------------------------|
B|-15b17----------------------------------|
G|-------[14]16r14-12-14-14b16-{14}-12~~--|
D|------------------------a------a--------|
A|----------------------------------------|
E|----------------------------------------|

e|-----------------------------|
B|-----------------------------|
G|-/13--13\10--10/15--15\9--9--|
D|---x---x------x------x----x--|
A|-/11--11\-8---8/13--13\7--7--|
E|-----------------------------|


Solo 6 (Mustaine)
e|---------------------------------------------|
B|----8-8---6-6--------------------------------|
G|----------------6-6----3-5-[5]6r5p3----------|
D|-/5-----5-----5------5--------------6-3-2~~--|
A|---------------------------------------------|
E|---------------------------------------------|


Solo 7 (Pitrelli)
e|-7-6-5-------7-6-5---------------------|
B|-------8-7-5-------8-7-5-7-4/5-7-5\4-7-|
G|---------------------------------------|
D|---------------------------------------|
A|---------------------------------------|
E|---------------------------------------|

e|---------5/6------7-------10----12b14r12--|
B|-4/5-7-8-----8-10---10/12----12-----------|
G|------------------------------------------|
D|------------------------------------------|
A|------------------------------------------|
E|------------------------------------------|


Solo 8 (Mustaine)
e|--------------------------------------------------|
B|---------------------------------11-13-14-/20~~\--|
G|---------------------------10-12------------------|
D|------------------10-11-12------------------------|
A|------------10-13---------------------------------|
E|-10\6-/10-13--------------------------------------|

End Solos



Riff 3a
e|----------------------------|
B|----------------------------|
G|--9--9-9--9-9--9-9--9-9-9-9-|
D|----------------------------|
A|--7--7-7--7-7--7-7--7-7-7-7-|
E|----------------------------|
  "Kill the king..."
e|----------------------------|
B|----------------------------|
G|-12-1212-1212-1212-12121212-|
D|----------------------------|
A|-10-1010-1010-1010-10101010-|
E|----------------------------|
  "...the king is dead..."
e|----------------------------|
B|----------------------------|
G|-11-1111-1111-1111-11111111-|
D|----------------------------|
A|--9--9-9--9-9--9-9--9-9-9-9-|
E|----------------------------|
  "...live the king..."
e|----------------------------|
B|----------------------------|
G|-10-1010-1010-1010-12121212-|
D|----------------------------|
A|--8--8-8--8-8--8-8-10101010-|
E|----------------------------|
  "...I am the king..."


Ending chord:
e|------|
B|------|
G|--9\--|
D|------|
A|--7\--|
E|------|
  "...king"


Ending Solo (Mustaine)
e|-15p12---15p12---15p12---15p12---15p12--12-|
B|------12------12------12------12------12---|
G|-------------------------------------------| ----|
D|-------------------------------------------|     |
A|-------------------------------------------|     |
E|-------------------------------------------|     |
                                                   |
e|-19p12---19p12---19p12---19p12---19p12--12-|     |
B|------12------12------12------12------12---|     |
G|-------------------------------------------|     |
D|-------------------------------------------|     |
A|-------------------------------------------|     |
E|-------------------------------------------|     |
                                                   |---> Play 2x
e|-18p12---18p12---18p12---18p12---18p12--12-|     |
B|------12------12------12------12------12---|     |
G|-------------------------------------------|     |
D|-------------------------------------------|     |
A|-------------------------------------------|     |
E|-------------------------------------------|     |
                                                   |
e|-17p12---17p12---17p12---17p12---19p12--12-|     |
B|------12------12------12------12------12---|     |
G|-------------------------------------------|     |
D|-------------------------------------------| ----|
A|-------------------------------------------|
E|-------------------------------------------|

e|--15\--|
B|-------|
G|-------|
D|-------|
A|-------|
E|-------|

End Solo

9.Symphony of Destruction 

Intro
 
         F E         F E                F E

                                                You take a mortal man

  Pm---                         Pm---

e------------------|------------------|-------------------------------|
B------------------|------------------|-------------------------------|
G------------------|------------------|-------------------------------|
D--------3-2--2----|-3-2--2-----------|-3-2--2------------------------|
A--------3-2--2----|-3-2--2-----------|-3-2--2------------------------|
E-1-3-1--1-0--0----|-1-0--0-----1-3-1-|-1-0--0------------------------|




  F E                F E                F E

                                                An'put him in control

                                Pm---

e------------------|------------------|--------------------------------|
B------------------|------------------|--------------------------------|
G------------------|------------------|--------------------------------|
D-3-2--2-----------|-3-2--2-----------|-3-2--2-------------------------|
A-3-2--2-----------|-3-2--2-----------|-3-2--2-------------------------|
E-1-0--0-----------|-1-0--0-----1-3-1-|-1-0--0-------------------------|



  F E                F E                F E

                                                Watch him become a god

                                Pm---

e------------------|------------------|--------------------------------|
B------------------|------------------|--------------------------------|
G------------------|------------------|--------------------------------|
D-3-2--2-----------|-3-2--2-----------|-3-2--2-------------------------|
A-3-2--2-----------|-3-2--2-----------|-3-2--2-------------------------|
E-1-0--0-----------|-1-0--0-----1-3-1-|-1-0--0-------------------------|




  F E                F E                F E

                                                Watch people's heads a

                                Pm---

e------------------|------------------|--------------------------------|
B------------------|------------------|--------------------------------|
G------------------|------------------|--------------------------------|
D-3-2--2-----------|-3-2--2-----------|-3-2--2-------------------------|
A-3-2--2-----------|-3-2--2-----------|-3-2--2-------------------------|
E-1-0--0-----------|-1-0--0-----1-3-1-|-1-0--0-------------------------|


        A     Ab    G              A     Ab    G

    Roll                                             a

  Pm--             
 Gtr 1
e--------------------------------|--------------------------|
B--------------------------------|--------------------------|
G--------------------------------|--------------------------|
D-------7-----6-----5-----5h7--5-|-7-----6-----5-----5h7--5-|
A-------7-----6-----5------------|-7-----6-----5------------|
E-0--0-----0-----0-----7---------|----0-----0-----7---------|
                                                            |
  Pm--                                                      |
 Gtr 2                                                      |
e--------------------------------|--------------------------|
B--------------------------------|--------------------------|
G--------------------------------|-------------------4h5-4--|
D-------7-----6-----5-----5h7--5-|-7-----6-----5------------|
A-------7-----6-----5------------|-7-----6-----5------------|
E-0--0-----0-----0-----7---------|----0-----0-----7---------|


  A    Ab    G              A     Ab    G

  Roll                                        a       

e-------------------------|--------------------------|
B-------------------------|--------------------------|
G-------------------------|--------------------------|
D-7----6-----5-----5h7--5-|-7-----6-----5-----5h7--5-|
A-7----6-----5------------|-7-----6-----5------------|
E---0-----0-----7---------|----0-----0-----7---------|
                                                     |
                                                     |
                                                     |
e-------------------------|--------------------------|
B-------------------------|-------------------5h6--5-|
G------------------4h5--5-|--------------------------|
D-7----6-----5------------|-7-----6-----5------------|
A-7----6-----5------------|-7-----6-----5------------|
E---0-----0-----7---------|----0-----0-----7---------|



  A     Ab    G              A     Ab    G

    Roll                                            

e--------------------------|--------------------------|
B--------------------------|--------------------------|
G--------------------------|--------------------------|
D-7-----6-----5-----5h7--5-|-7-----6-----5-----5h7--5-|
A-7-----6-----5------------|-7-----6-----5------------|
E----0-----0-----7---------|----0-----0-----7---------|
                                                      |
                                                      |
                                                      |
e--------------------------|--------------------------|
B-------------------5h6--5-|-------------------5h6--5-|
G--------------------------|--------------------------|
D-7-----6-----5------------|-7-----6-----5------------|
A-7-----6-----5------------|-7-----6-----5------------|
E----0-----0-----7---------|----0-----0-----7---------|


  A     Ab    G              A     Ab    G

 
e--------------------------|--------------------------|
B--------------------------|--------------------------|
G--------------------------|-------8-----7\-----------|
D-7-----6-----5-----5h7--5-|-7-----6-----5\-----------|
A-7-----6-----5------------|-7-----6-----5\-------5---|
E----0-----0-----7---------|----0-----0-----0--0------|
                                                      |
                                                      |
                                                      |
e--------------------------|--------------------------|
B-------------------5h6--5-|--------------------------|
G--------------------------|-------8-----7\-----------|
D-7-----6-----5------------|-7-----6-----5\-----------|
A-7-----6-----5------------|-7-----6-----5\--------5--|
E----0-----0-----7---------|----0-----0------0--0-----|



  Pm-----------------
e----------------------|
B----------------------|
G----------------------|
D----------------------|
A----------------------|
E-6--5--4--3--2--1--0--|




Chorus

  E                    D        E                    
 
  Just      like  the  pied     piper                

e--------------------|--------------------------|
B--------------------|--------------------------|
G--------------------|--------------------------|
D-9---------8--------|-7--------6---------------|
A-----7--7-----7--7--|----5--5-----7--7---------|
E-----0--0-----0--0--|-------------------7~-7~--|


     C           D

     Led rats    through  the streets

e--------------|----------------------|
B--------------|----------------------|
G--------------|-7--------------------|
D----5---4-----|-7--------5--4--------|
A----3---3-----|-5--------------5-----|
E-0------------|-------------------7--|



  E                       D        E                    
 
  We dance    like   the  marionettes              

e-----------------------|-------------------|
B-----------------------|-------------------|
G-----------------------|-------------------|
D----9---------8--------|-7--------6--------|
A--------7--7-----7--7--|----5--5-----7-----|
E-0------0--0-----0--0--|----------------7\-|


     C                   D

     swayin'    to the   Symphony    of   Destruction 

                         Pm--------
e----------------------|--------------------|-----------------|
B----------------------|--------------------|-----------------|
G----------------------|------------7--7\0--|-----------------|
D----5----------4------|-7--7--7--7-7--7\0--|-3-2--2----------|
A----3----3--3-----3---|-5--5--5--5-5--5\0--|-3-2--2----------|
E-0--------------------|--------------------|-1-0--0----------|






2nd Verse


  F E                F E

                            Acting like robot                      

             Pm---
e------------------|--------------------------|
B------------------|--------------------------|
G------------------|--------------------------|
D-3-2--2-----------|-3-2--2-------------------|
A-3-2--2-----------|-3-2--2-------------------|
E-1-0--0-----1-3-1-|-1-0--0-------------------|


  F E                F E                F E

                                               It's metal brain corrodes     

                                Pm---
e------------------|------------------|---------------------------------|
B------------------|------------------|---------------------------------|
G------------------|------------------|---------------------------------|
D-3-2--2-----------|-3-2--2-----------|-3-2--2--------------------------|
A-3-2--2-----------|-3-2--2-----------|-3-2--2--------------------------|
E-1-0--0-----------|-1-0--0-----1-3-1-|-1-0--0--------------------------|




  F E                F E                F E

                                               You try to take his pulse 

                                Pm---
e------------------|------------------|---------------------------------|
B------------------|------------------|---------------------------------|
G------------------|------------------|---------------------------------|
D-3-2--2-----------|-3-2--2-----------|-3-2--2--------------------------|
A-3-2--2-----------|-3-2--2-----------|-3-2--2--------------------------|
E-1-0--0-----------|-1-0--0-----1-3-1-|-1-0--0--------------------------|


  F E                F E                F E

                                               Before the head explodes

                                Pm---
e------------------|------------------|---------------------------------|
B------------------|------------------|---------------------------------|
G------------------|------------------|---------------------------------|
D-3-2--2-----------|-3-2--2-----------|-3-2--2--------------------------|
A-3-2--2-----------|-3-2--2-----------|-3-2--2--------------------------|
E-1-0--0-----------|-1-0--0-----1-3-1-|-1-0--0--------------------------|



       A      Ab    G              A     Ab    G

                                                     Ex-

  Pm--             
 Gtr 1
e--------------------------------|--------------------------|
B--------------------------------|--------------------------|
G--------------------------------|--------------------------|
D-------7-----6-----5-----5h7--5-|-7-----6-----5-----5h7--5-|
A-------7-----6-----5------------|-7-----6-----5------------|
E-0--0-----0-----0-----7---------|----0-----0-----7---------|
                                                            |
  Pm--                                                      |
 Gtr 2                                                      |
e--------------------------------|--------------------------|
B--------------------------------|--------------------------|
G--------------------------------|-------------------4h5--5-|
D-------7-----6-----5-----5h7--5-|-7-----6-----5------------|
A-------7-----6-----5------------|-7-----6-----5------------|
E-0--0-----0-----0-----7---------|----0-----0-----7---------|



  A    Ab    G              A     Ab    G

  plodes                                      Ex-

e-------------------------|--------------------------|
B-------------------------|--------------------------|
G-------------------------|--------------------------|
D-7----6-----5-----5h7--5-|-7-----6-----5-----5h7--5-|
A-7----6-----5------------|-7-----6-----5------------|
E---0-----0-----7---------|----0-----0-----7---------|
                                                     |
                                                     |
                                                     |
e-------------------------|--------------------------|
B-------------------------|-------------------5h6--5-|
G------------------4h5--5-|--------------------------|
D-7----6-----5------------|-7-----6-----5------------|
A-7----6-----5------------|-7-----6-----5------------|
E---0-----0-----7---------|----0-----0-----7---------|


  A     Ab    G              A     Ab    G

  plodes                                              

e--------------------------|--------------------------|
B--------------------------|--------------------------|
G--------------------------|--------------------------|
D-7-----6-----5-----5h7--5-|-7-----6-----5-----5h7--5-|
A-7-----6-----5------------|-7-----6-----5------------|
E----0-----0-----7---------|----0-----0-----7---------|
                                                      |
                                                      |
                                                      |
e--------------------------|--------------------------|
B-------------------5h6--5-|-------------------5h6--5-|
G--------------------------|--------------------------|
D-7-----6-----5------------|-7-----6-----5------------|
A-7-----6-----5------------|-7-----6-----5------------|
E----0-----0-----7---------|----0-----0-----7---------|



  A     Ab    G              A     Ab    G

                                                Ah!

e--------------------------|--------------------------|
B--------------------------|--------------------------|
G--------------------------|-------8-----7\-----------|
D-7-----6-----5-----5h7--5-|-7-----6-----5\-----------|
A-7-----6-----5------------|-7-----6-----5\-------5---|
E----0-----0-----7---------|----0-----0-----0--0------|
                                                      |
                                                      |
                                                      |
e--------------------------|--------------------------|
B-------------------5h6--5-|--------------------------|
G--------------------------|-------8-----7\-----------|
D-7-----6-----5------------|-7-----6-----5\-----------|
A-7-----6-----5------------|-7-----6-----5\--------5--|
E----0-----0-----7---------|----0-----0------0--0-----|

  


  Pm-----------------

e----------------------|
B----------------------|
G----------------------|
D----------------------|
A----------------------|
E-6--5--4--3--2--1--0--|





2nd Chorus




  E                    D        E                    
 
  Just      like  the  pied     piper                

e--------------------|--------------------------|
B--------------------|--------------------------|
G--------------------|--------------------------|
D-9---------8--------|-7--------6---------------|
A-----7--7-----7--7--|----5--5-----7--7---------|
E-----0--0-----0--0--|-------------------7~-7~--|



     C           D

     Led rats    through  the streets

e--------------|----------------------|
B--------------|----------------------|
G--------------|-7--------------------|
D----5---4-----|-7--------5--4--------|
A----3---3-----|-5--------------5-----|
E-0------------|-------------------7--|



  E                       D        E                    
 
  We dance    like   the  marionettes              

e-----------------------|-------------------|
B-----------------------|-------------------|
G-----------------------|-------------------|
D----9---------8--------|-7--------6--------|
A--------7--7-----7--7--|----5--5-----7-----|
E-0------0--0-----0--0--|----------------7\-|




     C                   D

     swayin'    to the   Symphony   

                         Pm--------

e----------------------|--------------------|
B----------------------|--------------------|
G----------------------|------------7--7\0--|
D----5----------4------|-7--7--7--7-7--7\0--|
A----3----3--3-----3---|-5--5--5--5-5--5\0--|
E-0--------------------|--------------------|




  E                       D        E                    
 
     Just      like  the  pied     piper                
 Gtr 1
e----------------------|--------------------------|
B----------------------|--------------------------|
G----------------------|--------------------------|
D----9--------8--------|-7--------6---------------|
A-------7--7-----7--7--|----5--5--------7---------|
E-0-----0--0-----0--0--|-------------------7~-7~--|
                                                  |
                                                  |
 Gtr 2                                            |
e----------------------|--------------------------|
B----------------------|--------------------------|
G----------------------|--------------------------|
D----9--5-----8--5-----|-7--5-----9-----6---------|
A-7--------7--------7--|-------7-----------7--7---|
E-0--------------------|--------------------------|




  C                     D

    Led      rats       through  the streets

e---------------------|-------------------------|
B---------------------|-------------------------|
G---------------------|-7--------4--------------|
D---9--------7--------|-7-------------7----4----|
A------7--7-----7-----|-5---------------------5-|
E-0----------------0--|-------------------------|
                                                |
                                                |
                                                |
e---------------------|-------------------------|
B---------------------|-------------------------|
G---------------------|-7-----------------------|
D----5--------4-------|-7--------5----4---------|
A-------3--3----------|-5------------------5----|
E-0----------------0--|-----------------------7-|




  E                      D        E                    
 
  We dance  like the     marionettes               

e----------------------|--------------------------|
B----------------------|--------------------------|
G----------------------|--------------------------|
D----9--------8--------|-7--------6---------------|
A-------7--7-----7--7--|----5--5--------7---------|
E-0-----0--0-----0--0--|-------------------7~-7~--|
                                                  |
                                                  |
                                                  |
e----------------------|--------------------------|
B----------------------|--------------------------|
G----------------------|--------------------------|
D----9--5-----8--5-----|-7--5-----9-----6---------|
A-7--------7--------7--|-------7-----------7--7---|
E-0--------------------|--------------------------|




  C                     D

    Swayin'  to   the   Symphony

e---------------------|-------------------------|
B---------------------|-------------------------|
G---------------------|-7--------4--------------|
D---9--------7--------|-7-------------7----4----|
A------7--7-----7-----|-5---------------------5-|
E-0----------------0--|-------------------------|
                                                |
                                                |
                                                |
e---------------------|-------------------------|
B---------------------|-------------------------|
G---------------------|-7-----------------------|
D----5--------4-------|-7--------5----4---------|
A-------3--3-------3--|-5------------------5----|
E-0-------------------|-----------------------7-|
   



 C                       D
 
     swayin'    to the   Symphony          of De-

e----------------------|-------------------------|
B----------------------|-------------------------|
G----------------------|-------------------------|
D---9--------7---------|-------------------------|
A------7--7-----7------|-------------------------|
E-0----------------0---|-------------------------|
                                                 |
                         Pm--------         Pm-- |
                                                 |
e----------------------|-------------------------|
B----------------------|-------------------------|
G----------------------|------------7--7\0-------|
D----5----------4------|-7--7--7--7-7--7\0-------|
A----3----3--3-----3---|-5--5--5--5-5--5\0-------|
E-0--------------------|--------------------0--0-|





Solo



  A       Ab         G             A        Ab    G           A

 (Marty)
e---------0--0--0--0-----------------|--------------------------|
B----3/5--5--5--5--5~~~~~~-----(5)\3-|-3\5-----5~~---5\3-----3b-|
G------------------------------------|--------------------4-----|
D------------------------------------|--------------------------|
A------------------------------------|--------------------------|
E------------------------------------|--------------------------|
                                                                |
                                                                |
 (Dave)                                                         |
e------------------------------------|--------------------------|
B------------------------------------|--------------------------|
G------------------------------------|--------------------------|
D-7-------6-----------5------------7-|------6-----5-----------7-|
A-7-------6-----------5------------7-|------6-----5-----------7-|
E----0----------0---------0--0--0----|---0-----0-----0--0--0----|




       Ab          G            A         Ab    G           A

                                                      Pm-----

e----------------------------------|--------------------------|
B-------------------------5\-------|--------------------------|
G----------------------7b-------3b-|--------------------------|
D----------------------------------|------------------5--7--5-|
A----------------------------------|--------------------------|
E----------------------------------|--------------------------|
                                                              |
                                                              |
                                                              |
e----------------------------------|--------------------------|
B----------------------------------|--------------------------|
G----------------------------------|--------------------------|
D------6-----------5------------7--|------6-----5-----------7-|
A------6-----------5------------7--|------6-----5-----------7-|
E-0----------0---------0--0--0-----|---0-----0-----0--0--0----|



       Ab          G            A         Ab    G              A

e----------------------------------|------------------------------|
B----------------------------------|------------------------------|
G----------------------------------|------------------------------|
D-7brb(Gradual Bend)------------7b-|------5-----5--------------9\-|
A----------------------------------|---------7-----7--7~~~--------|
E----------------------------------|------------------------------|
                                                                  |
                                                                  |
                                                                  |
e----------------------------------|------------------------------|
B----------------------------------|------------------------------|
G----------------------------------|------------------------------|
D------6-----------5------------7--|------6-----5--------------7--|
A------6-----------5------------7--|------6-----5--------------7--|
E-0----------0---------0--0--0-----|---0-----0--------0--0--0-----|




      Ab           G                    A


e------------------------12-------12/14----12-|
B------------------10-13----10-13-------13----|
G-----9-11----9-11----------------------------|
D-/10------10---------------------------------|
A---------------------------------------------|
E---------------------------------------------|
                                              |
                                              |
                                              |
e---------------------------------------------|
B---------------------------------------------|
G---------------------------------------------|
D------6-----------5--------------------7-----|
A------6-----------5--------------------7-----|
E-0----------0-----------0-----0-----0--------|





        Ab             G                  A
        

e-14-17p14p12----14/20-17h20p17--------------|
B-------------13----------------19-17--------|
G-------------------------------------17~~~\-|
D--------------------------------------------|
A--------------------------------------------|
E--------------------------------------------|
                                             |
                                             |
                                             |
e--------------------------------------------|
B--------------------------------------------|
G--------------------------------------------|
D--------6-------------5------------------7--|
A--------6-------------5------------------7--|
E-0--------------0---------0--0--0-----------|






         Ab          G                       A

e--------------------------------------------------|
B-/12p10----10-12p10----10-15p10----15p10----14p10-|
G--------12----------12----------12-------12-------|
D--------------------------------------------------|
A--------------------------------------------------|
E--------------------------------------------------|
                                                   |
                                                   |
                                                   |
e--------------------------------------------------|
B--------------------------------------------------|
G--------------------------------------------------|
D--------6-----------5-----------------------7-----|
A--------6-----------5-----------------------7-----|
E--0-----------0------------0----0------0----------|





         Ab          G                          A

e-----------------------------------------------------|
B-17p15-----15-17p15----20p15--------20p15------19p15-|
G--------16----------16----------16--------16---------|
D-----------------------------------------------------|
A-----------------------------------------------------|
E-----------------------------------------------------|
                                                      |
                                                      |
                                                      |
e-----------------------------------------------------|
B-----------------------------------------------------|
G-----------------------------------------------------|
D--------6-----------5--------------------------7-----|
A--------6-----------5--------------------------7-----|
E--0-----------0-----------0-----0---------0----------|





        Ab             G                             A

e----------------19p15----15-19h22p19----19-------------|
B-20p15----15----------15-------------20----20----------|
G-------16----16-------------------------------19-------|
D-------------------------------------------------21----|
A----------------------------------------------------22-|
E-------------------------------------------------------|
                                                        |
                                                        |
                                                        |
e-------------------------------------------------------|
B-------------------------------------------------------|
G-------------------------------------------------------|
D--------6-------------5-----------------------------7--|
A--------6-------------5-----------------------------7--|
E--0-----------0----------------0------0----0-----------|





        Ab          G                       A

e-------------------------------------------------|
B-15----------------------------------------------|
G----16-------------------14b~~~~~~~~~\-----------|
D-------17----14----------------------------------|
A----------17----17-16h17-------------------------|
E-------------------------------------------------|
                                                  |
                                                  |
                                                  |
e-------------------------------------------------|
B-------------------------------------------------|
G-------------------------------------------------|
D--------6-----------5----------------------7-----|
A--------6-----------5----------------------7-----|
E--0-----------0-----------0-----0-----0----------|





         Ab           G                      A

e--------------------------------------------------|
B-----------------12-13p12----------------12-13----|
G-/16p12----12-15----------15-12----12-15----------|
D--------14----------------------14----------------|
A--------------------------------------------------|
E--------------------------------------------------|
                                                   |
                                                   |
                                                   |
e--------------------------------------------------|
B--------------------------------------------------|
G--------------------------------------------------|
D---------6-----------5----------------------7-----|
A---------6-----------5----------------------7-----|
E---0-----------0-----------0-----0-----0----------|




        Ab           G                         A

e----------------------------12-------------------|
B-13p12-------------------12----15p12-------------|
G-------15-12----12-14-15-------------15-14p12----|
D-------------14-------------------------------14-|
A-------------------------------------------------|
E-------------------------------------------------|
                                                  |
                                                  |
                                                  |
e-------------------------------------------------|
B-------------------------------------------------|
G-------------------------------------------------|
D--------6-----------5-------------------------7--|
A--------6-----------5-------------------------7--|
E--0-----------0-----------0-----0----0-----------|




         Ab          G                       A

e-----------------12--------12-----------12-----------|
B--------------12----15p12-----15p12--------15p12-----|
G-13b~~~~----------------------------14b----------14b-|
D-----------------------------------------------------|
A-----------------------------------------------------|
E-----------------------------------------------------|
                                                      |
                                                      |
                                                      |
e-----------------------------------------------------|
B-----------------------------------------------------|
G-----------------------------------------------------|
D--------6-----------5-----------------------7--------|
A--------6-----------5-----------------------7--------|
E--0-----------0-----------0-----0--------------------|




      Ab            G                     F E

e-12------------12-------12-17b--------|-(17)\------------|
B-----15p12--------15p12----17b--------|-(17)\------------|
G-----------14b------------------------|------------------|
D--------------------------------------|------------------|
A--------------------------------------|------------------|
E--------------------------------------|------------------|
                                                          |
                                                          |
                                                          |
e--------------------------------------|------------------|
B--------------------------------------|------------------|
G--------------------------------------|------------------|
D-----6-------------5------------------|--3-2--2----------|
A-----6-------------5------------------|--3-2--2----------|
E--0--------0---------------0--0--0--0-|--1-0--0----------|






3rd Verse




  F E                F E

                            The earth starts to rumble                      

             Pm---

e------------------|-----------------------------------|
B------------------|-----------------------------------|
G------------------|-----------------------------------|
D-3-2--2-----------|-3-2--2----------------------------|
A-3-2--2-----------|-3-2--2----------------------------|
E-1-0--0-----1-3-1-|-1-0--0----------------------------|




  F E                F E                F E

                                               World powers fall    

                                Pm---

e------------------|------------------|--------------------------|
B------------------|------------------|--------------------------|
G------------------|------------------|--------------------------|
D-3-2--2-----------|-3-2--2-----------|-3-2--2-------------------|
A-3-2--2-----------|-3-2--2-----------|-3-2--2-------------------|
E-1-0--0-----------|-1-0--0-----1-3-1-|-1-0--0-------------------|




  F E                F E                F E

                                               Warring for the heavens

                                Pm---

e------------------|------------------|---------------------------------|
B------------------|------------------|---------------------------------|
G------------------|------------------|---------------------------------|
D-3-2--2-----------|-3-2--2-----------|-3-2--2--------------------------|
A-3-2--2-----------|-3-2--2-----------|-3-2--2--------------------------|
E-1-0--0-----------|-1-0--0-----1-3-1-|-1-0--0--------------------------|




  F E                F E                F E

                                               A peacefil man stands tall

                                Pm---

e------------------|------------------|----------------------------------|
B------------------|------------------|----------------------------------|
G------------------|------------------|----------------------------------|
D-3-2--2-----------|-3-2--2-----------|-3-2--2---------------------------|
A-3-2--2-----------|-3-2--2-----------|-3-2--2---------------------------|
E-1-0--0-----------|-1-0--0-----1-3-1-|-1-0--0---------------------------|



       A      Ab    G              A     Ab    G

                                                     Tall

  Pm--             
 Gtr 1
e--------------------------------|--------------------------|
B--------------------------------|--------------------------|
G--------------------------------|--------------------------|
D-------7-----6-----5-----5h7--5-|-7-----6-----5-----5h7--5-|
A-------7-----6-----5------------|-7-----6-----5------------|
E-0--0-----0-----0-----7---------|----0-----0-----7---------|
                                                            |
  Pm--                                                      |
 Gtr 2                                                      |
e--------------------------------|--------------------------|
B--------------------------------|--------------------------|
G--------------------------------|-------------------4h5--5-|
D-------7-----6-----5-----5h7--5-|-7-----6-----5------------|
A-------7-----6-----5------------|-7-----6-----5------------|
E-0--0-----0-----0-----7---------|----0-----0-----7---------|



  A    Ab    G              A     Ab    G

                   Tall

e-------------------------|--------------------------|
B-------------------------|--------------------------|
G-------------------------|--------------------------|
D-7----6-----5-----5h7--5-|-7-----6-----5-----5h7--5-|
A-7----6-----5------------|-7-----6-----5------------|
E---0-----0-----7---------|----0-----0-----7---------|
                                                     |
                                                     |
                                                     |
e-------------------------|--------------------------|
B-------------------------|-------------------5h6--5-|
G------------------4h5--5-|--------------------------|
D-7----6-----5------------|-7-----6-----5------------|
A-7----6-----5------------|-7-----6-----5------------|
E---0-----0-----7---------|----0-----0-----7---------|



  A     Ab    G              A     Ab    G
                                        
e--------------------------|--------------------------|
B--------------------------|--------------------------|
G--------------------------|--------------------------|
D-7-----6-----5-----5h7--5-|-7-----6-----5-----5h7--5-|
A-7-----6-----5------------|-7-----6-----5------------|
E----0-----0-----7---------|----0-----0-----7---------|
                                                      |
                                                      |
                                                      |
e--------------------------|--------------------------|
B-------------------5h6--5-|-------------------5h6--5-|
G--------------------------|--------------------------|
D-7-----6-----5------------|-7-----6-----5------------|
A-7-----6-----5------------|-7-----6-----5------------|
E----0-----0-----7---------|----0-----0-----7---------|



  A     Ab    G              A     Ab    G

                                               
e--------------------------|--------------------------|
B--------------------------|--------------------------|
G--------------------------|-------8-----7\-----------|
D-7-----6-----5-----5h7--5-|-7-----6-----5\-----------|
A-7-----6-----5------------|-7-----6-----5\-------5---|
E----0-----0-----7---------|----0-----0-----0--0------|
                                                      |
                                                      |
                                                      |
e--------------------------|--------------------------|
B-------------------5h6--5-|--------------------------|
G--------------------------|-------8-----7\-----------|
D-7-----6-----5------------|-7-----6-----5\-----------|
A-7-----6-----5------------|-7-----6-----5\--------5--|
E----0-----0-----7---------|----0-----0------0--0-----|

  


  Pm-----------------

e----------------------|
B----------------------|
G----------------------|
D----------------------|
A----------------------|
E-6--5--4--3--2--1--0--|





3rd Chorus




  E                    D        E                    
 
  Just      like  the  pied     piper                

e--------------------|--------------------------|
B--------------------|--------------------------|
G--------------------|--------------------------|
D-9---------8--------|-7--------6---------------|
A-----7--7-----7--7--|----5--5-----7--7---------|
E-----0--0-----0--0--|-------------------7~-7~--|



     C           D

     Led rats    through  the streets

e--------------|----------------------|
B--------------|----------------------|
G--------------|-7--------------------|
D----5---4-----|-7--------5--4--------|
A----3---3-----|-5--------------5-----|
E-0------------|-------------------7--|



  E                       D        E                    
 
  We dance    like   the  marionettes              

e-----------------------|-------------------|
B-----------------------|-------------------|
G-----------------------|-------------------|
D----9---------8--------|-7--------6--------|
A--------7--7-----7--7--|----5--5-----7-----|
E-0------0--0-----0--0--|----------------7\-|



     C                   D

     swayin'    to the   Symphony   

                         Pm--------

e----------------------|--------------------|
B----------------------|--------------------|
G----------------------|------------7--7\0--|
D----5----------4------|-7--7--7--7-7--7\0--|
A----3----3--3-----3---|-5--5--5--5-5--5\0--|
E-0--------------------|--------------------|




  E                      D         E                    
 
     Just      like  the  pied     piper                
 Gtr 1
e----------------------|--------------------------|
B----------------------|--------------------------|
G----------------------|--------------------------|
D----9--------8--------|-7--------6---------------|
A-------7--7-----7--7--|----5--5--------7---------|
E-0-----0--0-----0--0--|-------------------7~-7~--|
                                                  |
                                                  |
 Gtr 2                                            |
e----------------------|--------------------------|
B----------------------|--------------------------|
G----------------------|--------------------------|
D----9--5-----8--5-----|-7--5-----9-----6---------|
A-7--------7--------7--|-------7-----------7--7---|
E-0--------------------|--------------------------|



  C                     D

    Led      rats       through  the streets

e---------------------|-------------------------|
B---------------------|-------------------------|
G---------------------|-7--------4--------------|
D---9--------7--------|-7-------------7----4----|
A------7--7-----7-----|-5---------------------5-|
E-0----------------0--|-------------------------|
                                                |
                                                |
                                                |
e---------------------|-------------------------|
B---------------------|-------------------------|
G---------------------|-7-----------------------|
D----5--------4-------|-7--------5----4---------|
A-------3--3----------|-5------------------5----|
E-0----------------0--|-----------------------7-|



  E                      D        E                    
 
  We dance  like the     marionettes               

e----------------------|--------------------------|
B----------------------|--------------------------|
G----------------------|--------------------------|
D----9--------8--------|-7--------6---------------|
A-------7--7-----7--7--|----5--5--------7---------|
E-0-----0--0-----0--0--|-------------------7~-7~--|
                                                  |
                                                  |
                                                  |
e----------------------|--------------------------|
B----------------------|--------------------------|
G----------------------|--------------------------|
D----9--5-----8--5-----|-7--5-----9-----6---------|
A-7--------7--------7--|-------7-----------7--7---|
E-0--------------------|--------------------------|



  C                     D

    Swayin'  to   the   Symphony

e---------------------|-------------------------|
B---------------------|-------------------------|
G---------------------|-7--------4--------------|
D---9--------7--------|-7-------------7----4----|
A------7--7-----7-----|-5---------------------5-|
E-0----------------0--|-------------------------|
                                                |
                                                |
                                                |
e---------------------|-------------------------|
B---------------------|-------------------------|
G---------------------|-7-----------------------|
D----5--------4-------|-7--------5----4---------|
A-------3--3-------3--|-5------------------5----|
E-0-------------------|-----------------------7-|
   


 C                       D                         F E

     swayin'    to the   Symphony          of De-   struction

                         Pm--------
                         
e----------------------|-------------------------|-----------|
B----------------------|-------------------------|-----------|
G----------------------|-------------------------|-----------|
D---9--------7---------|-7--7--7--7---7\---------|-3-2--2----|
A------7--7-----7------|-5--5--5--5---5\0--------|-3-2--2----|
E-0----------------0---|-------------------------|-1-0--0----|
                                                             |
                         Pm--------                          | 
                                                             |
e----------------------|-------------------------|-----------|
B----------------------|-------------------------|-----------|
G----------------------|--------------7\0--------|-----------|
D----5----------4------|-7--7--7--7---7\0--------|-3-2--2----|
A----3----3--3-----3---|-5--5--5--5---5\0--------|-3-2--2----|
E-0--------------------|-------------------------|-1-0--0----|

10.Mecahnix


   SECTION A: BOTH GUITARS

Eb-||----------------------------------------------------|--------------
Bb-||*---------------------------------------------------|--------------
Gb-||---4--------5---------------------------------------|--4---------5-
Db-||---4--------5---------4/-5----5----------(5)--------|--4---------5-
Ab-||*--2--------3-------x-4/-5--x-5----------(5)--------|--2---------3-
Eb-||--------------------x-2/-3--x-3----------(3)--------|--------------
   *  Detuned by 1/4 step from standard

Eb|------------------------------------||------------------------------
Bb|-----------------------------------*||------------------------------
Gb|------------------------------------||---4--------5-----------------
Db|--------------2---------(2)---------||---4--------5---------4/-5----
Ab|--------------2---------(2)--------*||---2--------3-------x-4/-5--x-
Eb|--------0-2-3-0---------(0)---------||--------------------x-2/-3--x-


Eb|----------------------------------|---------------------------------
Bb|----------------------------------|---------------------------------
Gb|----------------------------------|--4---------5--------------------
Db|-5--------------5-3---------------|--4---------5--------------2-----
Ab|-5------------------5-3-5-4-3-----|--2---------3--------------2-----
Eb|-3--3-3-3-3-3-3---------------6-5-|---------------------0-2-3-0-----
    *  Guitar 2 holds chord here.


                       SECTION B: GUITAR 1

Eb|-----------------||-||-----------------------------------------------
Bb|-----------------||-||*----------------------------------------------
Gb|-----------------||-||-----------------------------------------------
Db|-----(2)---x\----||-||-----------------------------------------------
Ab|-----(2)---x\----||-||*--7-5-7-5-7-5-7-5-7-5-7-5-7-5---5---7-5-7-5-7-
Eb|-----(0)---------||-||---0---0---0---0---0---0---0---7-----0---0---0-
              *  Guitar 1 pickslide

Eb-------------------------|-------------------------------------------
Bb-------------------------|-------------------------------------------
Gb-------------------------|-------------------------------------------
Db-------------5-7p5-------|---------------------------------------5---
Ab-5-7-5---5-7-------7p5---|---7-5-7-5-7-5---5---7-5-7-5-7-5---5---3---
Eb---0---7-----------------|---0---0---0---7-----0---0---0---7---------



                     SECTION B: GUITAR 2

Eb----------------||-----------------------------------------|---------
Bb---------------*||-----------------------------------------|---------
Gb----------------||-----------------------------------------|---------
Db-------7----5---||-------------------------------2----2----|---------
Ab--5----5----3--*||-------------------------------2----2----|---------
Eb--3-------------||-------------------------------0----0----|---------



                                      SECTION C: BOTH GUITARS

Eb|---------------------------------|-||--------------------------------
Bb|---------------------------------|-||*-------------------------7-7-7-
Gb|---------------------------------|-||-------9-------9-------9--7-7-7-
Db|---------------5---------7----5--|-||-------9-------9-------9--7-7-7-
Ab|---------------3----5----5----3--|-||*------7-------7-------7--5-5-5-
Eb|--------------------3------------|-||---0-0-0---0-0-0---0-0-0--------
                  *  Merge w/ Guitar 1 for the repeat. "Imagine you were at my station..."

Eb-------------------------------|-------------------------------------
Bb-------------------------------|-------------------------------------
Gb------9-------9-------9--------|-------9-------9-------9---12--9-----
Db------9-------9-------9--5--7--|-------9-------9-------9---12--9---5-
Ab------7-------7-------7--3--5--|-------7-------7-------7---10--7---3-
Eb--0-0-0---0-0-0---0-0-0--------|---0-0-0---0-0-0---0-0-0-------------
    "And you brought your motor to me..." "You're a burner, yeah, a real motor car..."


                       SECTION D: BOTH GUITARS

Eb------------------||---------------------------------------------|---
Bb-----------------*||---9---------------------7-------------------|-5-
Gb------------------||---9----------------x-9--7---------------x-7-|-5-
Db---------7----5---||---9----------------x-9--7---------------x-7-|-5-
Ab----5----5----3--*||---7----------------x-7--5---------------x-5-|-3-
Eb----3-------------||---------------------------------------------|---
                         "Who ever thought you'd be better..." "At turning a screw than me..."

Eb|----------------------------------------|---------------------------
Bb|---------------------4------------------|---9---------------------7-
Gb|----------------x-5--4------------------|---9----------------x-9--7-
Db|----------------x-5--4------x\----------|---9----------------x-9--7-
Ab|----------------x-3--2------x\----------|---7----------------x-7--5-
Eb|----------------------------------------|---------------------------
     "Well, I do it for my life..." *  Pick Slide  "Made my drive shaft crank..."

Eb|-------------------|------------------------------------------|-----
Bb|-------------------|-5----------------------------------------|-----
Gb|---------------x-7-|-5----------------------------------------|-----
Db|---------------x-7-|-5----------------------4----5----4-------|-----
Ab|---------------x-5-|-3----------------------2----3----2----5--|-----
Eb|-------------------|---------------------------------------3--|-----
     "Made my pistons bulge..." "Made my ball bearings melt from the heat...."

Eb---------------------------------------------------------------------
Bb---------------------------------------------------------------------
Gb---------------------------------------------------------------------
Db---------------------------------------------------------------------
Ab---------------------------------------------------------------------
Eb---------------------------------------------------------------------



       SECTION E: BOTH GUITARS

Eb--------------------------------------------|------------------------
Bb--------------------------------------------|------------------------
Gb--------------------------------------------|------------------------
Db-------2------------------------------------|--(2)-------------------
Ab-------2------------------------------------|--(2)-------------------
Eb-------0------------------------------------|--(0)----------0--0-0-0-
                                                 *  Guitar 2 out.

Eb|--------------------------------------|-----------------------------
Bb|--------------------------------------|-----------------------------
Gb|--------------------------------------|-----------------------------
Db|--------------------------------------|-----------------------------
Ab|--------------------------------------|-----------------------------
Eb|-0-0--0-0-0-0-0--0-0-0-0-0--0-0-0-0-0-|---0-0-0-0-0--0-0-0-0-0--0-0-


Eb|-----------------------------------------|--------------------------
Bb|-----------------------------------------|--------------------------
Gb|-----------------------------------------|--------------------------
Db|-----------------------------------------|--------------------------
Ab|-----------------------------------------|--------------------------
Eb|-0-0-0--0-0-0-0-0--0-0-0-0-0--0-0-0-0-0--|--0-0-0-0-0--0-0-0-0-0--0-



                                             SECTION F: BOTH GUITARS

Eb|----------------------------------------|----------------------------
Bb|------------------------------------9~--|----------------------------
Gb|-----------------------------10\-9--9~--|----------------------------
Db|-----------------------------10\-9--9~--|----------------------------
Ab|------------------------------8\-7--7~--|----------------------------
Eb|-0-0-0-0--0-0-0-0-0--0-0-0-0------------|-0--0-0-0-0-0--0-0-0-0-0--0-
                                *  Guitar 2 enters.

Eb|-----------------|--------------------------------------------|-----
Bb|--------------9~-|--------------------------------------------|-----
Gb|-------10\-9--9~-|----------------------------------10---10~--|-----
Db|-------10\-9--9~-|----------------------------------10---10~--|-----
Ab|--------8\-7--7~-|-----------------------------------8----8~--|-----
Eb|-0-0-0-----------|-0--0-0-0-0-0--0-0-0-0-0--0-0-0-0-----------|--0--


Eb|-----------------------------------------|--------------------------
Bb|--------------------------------------9~-|--------------------------
Gb|-------------------------------10\-9--9~-|--------------------------
Db|-------------------------------10\-9--9~-|--------------------------
Ab|--------------------------------8\-7--7~-|--------------------------
Eb|-0-0-0-0-0--0-0-0-0-0--0-0-0-0-----------|-0--0-0-0-0-0--0-0-0-0-0--


Eb|-------------------|--------------------------------------------|---
Bb|-------------------|-----------------------------------------9~-|---
Gb|---------10---10~--|----------------------------------10\-9--9~-|---
Db|---------10---10~--|----------------------------------10\-9--9~-|---
Ab|----------8----8~--|-----------------------------------8\-7--7~-|---
Eb|-0-0-0-0-----------|-0--0-0-0-0-0--0-0-0-0-0--0-0-0-0-----------|-0-


Eb|-------------------------------------------|-------------------------
Bb|-------------------------------------------|-------------------------
Gb|--------------------------------10---10~---|-------------------------
Db|--------------------------------10---10~---|-------------------------
Ab|---------------------------------8----8~---|-------------------------
Eb|--0-0-0-0-0--0-0-0-0-0--0-0-0-0------------|-0--0-0-0-0-0--0-0-0-0-0-


Eb|--------------------|--------------------------------------------|--
Bb|-----------------9~-|--------------------------------------------|--
Gb|----------10\-9--9~-|----------------------------------10---10~--|--
Db|----------10\-9--9~-|----------------------------------10---10~--|--
Ab|-----------8\-7--7~-|-----------------------------------8----8~--|--
Eb|--0-0-0-0-----------|-0--0-0-0-0-0--0-0-0-0-0--0-0-0-0-----------|--



                                                      LEAD 1: GUITAR 1

Eb|-------------------------------------------------|--------------------
Bb|-------------------------------------------------|--------------------
Gb|-------------------------------------------------|--------------------
Db|-------------------------------------------------|------------14------
Ab|-7-5---5-----------------7-5---5-----------------|-------13--------12-
Eb|-----7---7-6-5-3-5-0-3-5-----7---7-6-5-3-5-0-3-5-|--12----------------
                                                      *  Guitar 2 plays Section F throughout.

Eb|--------------------------------------14----|-15p12----15h17-12-15p12-
Bb|-----------------------14--------13---------|-------15----------------
Gb|--------14--------13--------12--------------|-------------------------
Db|---13--------12-----------------------------|-------------------------
Ab|--------------------------------------------|-------------------------
Eb|--------------------------------------------|-------------------------


Eb|-------------12h15-12-15h17-12-15p12----------------12h15-12-15h17-15-
Bb|-15-17-12-15-------------------------15-17p12-15h17-------------------
Gb|----------------------------------------------------------------------
Db|----------------------------------------------------------------------
Ab|----------------------------------------------------------------------
Eb|----------------------------------------------------------------------


Eb|-12-----------|-------------------------------------------------------
Bb|----17p15-12--|-15h17-15-12-------------------------------15p12-------
Gb|--------------|-------------16-15-15p14-12----12-14-15-16-------16-15-
Db|--------------|----------------------------14-------------------------
Ab|--------------|-------------------------------------------------------
Eb|--------------|-------------------------------------------------------


Eb|---------------------------------------------------------|-12-------
Bb|---------------------------------------------------------|----15p12-
Gb|-14-12-14-15-14-12----12---------------------------------|----------
Db|-------------------14----14-13-12-13-14-13-12------------|----------
Ab|----------------------------------------------14-13-12~--|----------
Eb|---------------------------------------------------------|----------


Eb|--------12--------------12--------------12--------------12-------------
Bb|-----------15p12-----------15p12-----------15p12-----------15p12-------
Gb|-14b16-----------14b16-----------14b16-----------14b16-----------14b16-
Db|-----------------------------------------------------------------------
Ab|-----------------------------------------------------------------------
Eb|-----------------------------------------------------------------------


Eb|--12--------------12---------------|-12-----------------------------
Bb|-----15p12-----------15p12---------|----15p12--------12-------------
Gb|-----------14b16-----------14b16---|----------14b16-----15p12-14p12-
Db|-----------------------------------|--------------------------------
Ab|-----------------------------------|--------------------------------
Eb|-----------------------------------|--------------------------------


Eb|----------------------------------------------------------------------
Bb|-------------------12-------------------------------------------------
Gb|----12h14-12-14-15----12-14-15p14-12----------------------------------
Db|-14----------------------------------14p12----12-14-14-14p12----12----
Ab|-------------------------------------------14----------------14----14-
Eb|----------------------------------------------------------------------


Eb|----------------|------------------24p22-19-19-19-19-24p22-19-19-19-
Bb|----------------|---------------------------------------------------
Gb|----------------|---------------------------------------------------
Db|----------------|---------------------------------------------------
Ab|-13-12-13-14-13-|-12------------------------------------------------
Eb|----------------|----15-12\-----------------------------------------
                           *  Tremolo pick all the way down slide to encompass all notes.

Eb|-19-24p22-19-19-19-19-24p22-19--------19-22-|-24p22-19--------19-22-
Bb|-------------------------------22b24--------|----------22b24--------
Gb|--------------------------------------------|-----------------------
Db|--------------------------------------------|-----------------------
Ab|--------------------------------------------|-----------------------
Eb|--------------------------------------------|-----------------------


Eb|-24p22-19--------19-22-24p22-19--------19-22-24p22-19--------19-19-24p
Bb|----------22b24-----------------22b24-----------------22b24-----------
Gb|----------------------------------------------------------------------
Db|----------------------------------------------------------------------
Ab|----------------------------------------------------------------------
Eb|----------------------------------------------------------------------


Eb|-22-19--------19-24p22-19-------|-19-24p22-19--------19-24p22-19-------
Bb|-------22b24--------------22b24-|-------------22b24--------------22b24-
Gb|--------------------------------|--------------------------------------
Db|--------------------------------|--------------------------------------
Ab|--------------------------------|--------------------------------------
Eb|--------------------------------|--------------------------------------


Eb|--19-24p22-19----19--24p22-19-----24p22-19-24p22-19-24p22-19-24p22-19-
Bb|--------------22--------------19--------------------------------------
Gb|----------------------------------------------------------------------
Db|----------------------------------------------------------------------
Ab|----------------------------------------------------------------------
Eb|----------------------------------------------------------------------


Eb-|-------------15p12----12-15p12-15p12-12-12-15p12-17p12----12-17p12-
Bb-|-17b19-------------12----------------------------------15----------
Gb-|-------------------------------------------------------------------
Db-|-------------------------------------------------------------------
Ab-|-------------------------------------------------------------------
Eb-|-------------------------------------------------------------------


Eb|-15p12-----------------------------------|----------------------------
Bb|-------15p12----15p12-15p12-------15p12--|-15p12----12-15p12-17p12----
Gb|-------------15-------------15-14--------|-------15----------------15-
Db|-----------------------------------------|----------------------------
Ab|-----------------------------------------|----------------------------
Eb|-----------------------------------------|----------------------------


Eb|-------------------------------12-12-15p12-15-17p15-12-18--------13h
Bb|-12-17p12-15p12----15p12-12-15----------------------------15/-17----
Gb|----------------15--------------------------------------------------
Db|--------------------------------------------------------------------
Ab|--------------------------------------------------------------------
Eb|--------------------------------------------------------------------


Eb|-15-17-18p17-|-15h17-15-------17-18-20-18-17-18--------r------------
Bb|-------------|----------15--r-------------------20b22---17-20-17-18-
Gb|-------------|------------------------------------------------------
Db|-------------|------------------------------------------------------
Ab|-------------|------------------------------------------------------
Eb|-------------|------------------------------------------------------


Eb|-20h22-20p18----18h22-22b24----22~-22--22--22--22-|-22---r-----24b26-
Bb|-------------20-----------------------------------|------------------
Gb|--------------------------------------------------|------------------
Db|--------------------------------------------------|------------------
Ab|--------------------------------------------------|------------------
Eb|--------------------------------------------------|------------------



                                            END: GUITAR 2

Eb|----24--24--24--24---r-----\----------*|-----------------------------
Bb|--------------------------------------*|-----------------------------
Gb|--------------------------------------*|-----------------------------
Db|--------------------------------------*|-----------------------------
Ab|--------------------------------------*|---7-5-7-5-7-5-7-5-7-5-7-5-7-
Eb|--------------------------------------*|---0---0---0---0---0---0---0-


Eb|-------------------------------------------|-------------------------
Bb|-------------------------------------------|-------------------------
Gb|-------------------------------------------|-------------------------
Db|---------------------------------7p5-------|-------------------------
Ab|-5---5---7-5-7-5-7-5-7-5---5-7p5-----7p5---|---7-5-7-5-7-5---5---7-5-
Eb|---7-----0---0---0---0---7-----------------|---0---0---0---7-----0---


Eb|----------------------------------*|-
Bb|----------------------------------*|-
Gb|-------------------------------9--*|-
Db|---------------5-------7---5---9--*|-
Ab|-7-5-7-5---5---3---5---5---3---7--*|-
Eb|-0---0---7---------3-----------0--*|-
                  "Yeah...!"

11.Train of Consequences 

Rhy.Fig.1
||-----------------------------------|
||-----------------------------------|
||*----------------------------------|
||*--x-x---x---x-x-x---x---x-2^0-----|
||---x-x---x---x-x-x---x---------2^0-|
||---x-x---x---x-x-x---x-------------|

|----------------------------------------|----------------------------|
|----------------------------------------|----------------------------|
|----------------------------------------|----------------------------|
|----x-x---x---x-x-x---x---x-x-x-x-x-x-x-|x-x---x---x-x-x---x-2^0-----|
|----x-x---x---x-x-x---x---x-x-x-x-x-x-x-|x-x---x---x-x-x---------2^0-|
|----x-x---x---x-x-x---x---x-x-x-x-x-x-x-|x-x---x---x-x-x-------------|

                         end Rhy.Fig.1
|------------------------------------||
|------------------------------------||
|-----------------------------------*||
|----x-x---x---x-x-x---x---x-8--(8)\*||
|----x-x---x---x-x-x---x---x-8--(8)\-||
|----x-x---x---x-x-x---x---x-6--(6)\-||
                                 I'm             
w/Rhy.Fig.1 (2 times)
                                  
doing you a favor as i'm taking all your money.                I
guess i should feel sorry, but i don't even trust me.  There's some
bad news creeping up, and you feel a sudden chill.   How do you do?
My name is trouble. I'm coming in for the kill.

Pre-chorus
    let ring.......|           let ring......|  P.M.....|
|-----------------------------|-----------------------------|
|-----------------------------|-----------------------------|
|-----------------------------|-----------------------------|
|-------------4---------------|---------4-------------------|
|---------4-------------------|-----4-----------------------|
|----2-------------2--3^2-0---|2----------2-----2-2-3-2-0---|
                   In for the     kill

    let ring.........|          let ring|
|---------------------------------|---------------------------|
|---------------------------------|---------------------------|
|--------------6------------------|----4----------------------|
|---------6-----------------------|----4-----------2----------|
|----4---------------4----5^4^0-2-|(2)---5-4-2-0---0--5-4-0---|
|---------------------------------|---------------------------|
               Ooh   and you know I will          ooh.


Chorus
Rhy.Fig.2
     let ring....................| let ring..................|
|----------------0--------------0-|------------0------------0--|
|--------------------3------------|----------------3-----------|
|----------1---------------1------|------2-------------2-------|
|----2----------------------------|0---------------------------|
|---------------------------------|----------------------------|
|---------------------------------|----------------------------|
     Set the ball arollin', I'll be clicking off the miles on the

                                              (end Rhy.Fig.2)
|-------------------------------|---------------------------|
|-------------------------------|---------------------------|
|-------------------------------|------------------------2--|
|--------2----5--------4----7---|-----2---5-----------------|
|---3-------------5-------------|3-----------0------4-------|
|-------------------------------|---------------------------|
    train of consequenses   my boxcar   life o' style.   My

=>w/Rhy.Fig.2

thinking is derailed, I'm tied up to the tracks.         The
train of consequences, there ain't no turning back,  oh!

=>Rhy.Fig.1

=>2.verse   w/Rhy.Fig.1 (2 times)

No horse ever ran fast as the money that you bet.
I'm blowing on my cards and I play them to my chest.
Life's fabric is corrupt, shot through with corroded thread.
As for me, I hocked my brains, packed my bags and headed west, ow!

=>2nd Pre-chorus

I hocked my brains,
headed west, oh!   

=> To chorus


Rhy.Fig.3
|--------------------------------|--------------------------------|
|--------------------------------|--------------------------------|
|--------------------------------|--------------------------------|
|---0^2-x-x-3^2^0-2--------0--2--|--------------7---7-7-7-7-6-5---|
|---------------------2~~~~------|3^5-------3/7-----------------7-|
|--------------------------------|----0^3^5-----------------------|

                                              
|--------------------------------|-----------------------------12-------|
|--------------------------------|12~~~~~~~~~~~15b17--(15)~~~~~---15-12-|
|--------------------------------|--------------------------------------|
|--------------------------------|--------------------------------------|
|--------------------------------|--------------------------------------|
|--------------------------------|--------------------------------------|
|                                                           
|                                                         (end Rhy.Fig.3)
|--------------------------------|--------------------------------------|
|--------------------------------|--------------------------------------|
|--------------------------------|--------------------------------------|
|------------------2-------------|5-------5--------------------2--------|
|----3---x-x-3^0---0---2----5-7--|3---x-x-3^0---0---------3-------------|
|----------------3-----0----3-5--|------------3-----3b5-----------------|


Guitar solo
w/Rhy.Fig.3 (3 times)
|----------------------12-------|------------------------------------------|
|----15b17~~~~~~~~~~~~~---14^12-|------------------------------14-12-------|
|-------------------------------|14b16--(16)r(14)^12-14~~~~~~~~------14-12-|      
|-------------------------------|------------------------------------------|
|-------------------------------|------------------------------------------|
|-------------------------------|------------------------------------------|

|--------------------------|------------------------------------0-0-|
|--------------------------|------------------------------------0-0-|
|--------------------------|----------------------------------------|
|---12^14~~~~~~~~~12\10----|----------------------------------------|
|--------------------------|12^10^12^10-12^13^12^10-----------------|
|--------------------------|------------------------12~~~(12)\------|

|---0---0-0-0---0-0-0---0-0-0---0-0-|0---10-----10-----10-10/12-10----------|
|---5---5-5-3---3-3-5---5-5/8---8-8/|10----10-----10---------------12-11-10-|
|-----------------------------------|---------------------------------------|
|-----------------------------------|---------------------------------------|
|-----------------------------------|---------------------------------------|
|-----------------------------------|---------------------------------------|

|----------------------------------------|
|----------------------------------------|
|---12/\/\/\/\/\(12)\x/12-14-15-16-15-14-|
|----------------------------------------|
|----------------------------------------|
|----------------------------------------|

|-------------------------------------------------------------------|
|-------------------------------------------------------------------|
|-12-14-15-16-15-14-12-----14b16r14^12----14-12~~~~~~~~~~~~12-14b16-|
|-----------------------14-------------14---------------------------|
|-------------------------------------------------------------------|
|-------------------------------------------------------------------|

|---------------------12----------------------12-------------------|
|------12-15-------12----------12-15-------12----------12-15-------|
|--(16)------14b16-------14b16-------14b16-------14b16-------14b16-|
|------------------------------------------------------------------|
|------------------------------------------------------------------|
|------------------------------------------------------------------|

|-------12----------------12-------------15b17~~~~~~~~~~15-14--|
|-12^15----15-12----12^15----15-12----12-----------------------|
|----------------14----------------14--------------------------|
|--------------------------------------------------------------|
|--------------------------------------------------------------|
|--------------------------------------------------------------|

|---15~~~~15~~~~~~(15)\---------|---------14-15--17^15-14--15--17--19^17-15-
|-------------------------------|------17-----------------------------------
|-------------------------------|---16--------------------------------------
|-------------------------14-16-|17-----------------------------------------
|-------------------------------|-------------------------------------------
|-------------------------------|-------------------------------------------

-17--19-20--22-|
---------------|
---------------|
---------------|
---------------|
---------------|

=>chorus
  w/Rhy.Fig.2 (4 times)


=>Outro

12.Wake Up Dead

||------------------------------------------------------------||
||------------------------------------------------------------||
||------------------------------------------------------------||
||-----------------------------------------3------------------||
||2-------5------------------------2-------1------------------||
||0--0000-3------------------------0--0000--------------------||
            I sneak in my own house         its 4 in the morning
     PM==                          PM==      PM==
||------------------------------------------------------------||
||------------------------------------------------------------||
||------------------------------------------------------------||
||--------5------------------------------7--------8/----------||
||2-------3-----------------------2------5-2------6/----------||
||0--0000-------------------------0--0000--0--0000------------||
      I had too much to drink,      Said I was out with the boys
                                                                 
w/ Rhy fig 1
I creep in my bedroom
I slip into bed
I know if I wake her
I'll Wake up


Guitar Solo (rhy fig 1)
    +
||------------------------------------------2-----------------||
||--------------------------------------------5p2-------------||
||--4^-----4>----------x---4--4^---------4^------4h5p4p2------||
||---------------------x--------------------------------------||
||------------------------------------------------------------||
||------------------------------------------------------------||
  dead...                                
                         +Semi Harmonic
||---------------------------------55-9p7p54------------------||
||------------------------------------------5--5/7-55---------||
||4p2--2--------------------------------------6------4--------||
||---4--4p2--2-4p2-----2-4~---------------------------4-44-6~-||
||---------4-------234----------------------------------------||
||------------------------------------------------------------||
                         +
||------------------------------------------------------------||
||------------------------------------------------------------||
||-----------------------4^---x---16>--(16)--------(16)-------||
||----6--6h7-77--9/---4-------x-------------------------------||
||------------------------------------------------------------||
||------------------------------------------------------------||
                                    Depress bar then raise
           
||------------------------------14h7p14-1719^--------14-------||
||-14h17p14141417p1419p141417p14------------------------------||
||------------------------------------------------------------||
||------------------------------------------------------------||
||------------------------------------------------------------||
||------------------------------------------------------------||
                                                                
||19p17p141419p17p14141417(14)14--19141917----1619--17p14-----||
||------------------------------14--------1417-----------17---||
||------------------------------------------------------------||
||------------------------------------------------------------||
||------------------------------------------------------------||
||------------------------------------------------------------||
                                                               
||19p17p14--14-19p17p14171419p17p14-17-19p17p14--||
||--------17-----------------------------------17||
||-----------------------------------------------||
||-----------------------------------------------||
||-----------------------------------------------||
||-----------------------------------------------||

||14-19p--17p14--19p-17p14-19p-17p14-19p1714-18p17--14--------||
||----------------------------------------------------17------||
||------------------------------------------------------16----||
||------------------------------------------------------------||
||------------------------------------------------------------||
||------------------------------------------------------------||
                                                          
||------------------------------------------------------------||
||-----17^-------------(17)-----------------------------------||
||-----16^-------------(16)-----------------------------------||
||------------------------------------------------------------||
||------------------------------------------------------------||
||------------------------------------------------------------||
||play 4 times         PM===================|                 ||
||------------------------------------------------------------||
||------------------------------------------------------------||
||------------------------------------------------------------||
||12-11----------12-11----------------------------------------||
||10--9-x-11-12--10--9-9-10-----------------------------------||
||------x--9-10-------------12-14-10-12-9-10------------------||

            PM====    PM==   PM   PM     PM     PM==========
||------------------------------------------------------------||
||------------------------------------------------------------||
||------------------------------------7-------7---------------||
||------------------------------------5-------5---------------||
||10--9---8--------7--------8----7------8---7-----------------||
||-8--7---6--0--0--5--0--0--6-0--5--0---6-0-5----0-0-0-0-0-0--||


||----------------------||
||----------------------||
||----------------------||
||-9------8-7-6---------||
||-7--10--6-5-4--7--10-9||
||-----8---------5---8-7||
                              
||------------------------------------------------------------||
||------------------------------------------------------------||
||------------------------------------------------------------||
||------------------------5\3---------------------------------||
||---8---3--3--3---5------3\1--5------------------------------||
||---6---1--1--1---3-----------3------------------------------||

                                   
RHY FIG 2
||------------------------------------------------------------||
||------------------------------------------------------------||
||------------------------------------------------------------||
||------------4---------------------7----6--4-----------------||
||6----6-6-6--2--4------5-6--6-6-6--5----4--2-----------------||
||4----4-4-4-----2------3-4--4-4-4----------------------------||


Guitar Solo II
w/ RHY FIG 2
||------------------------------------------------------------||
||------------------------------------------------------------||
||------6^%----------------6%-----6%------6%------------------||
||------------------------------------------------------------||
||------------------------------------------------------------||
||------------------------------------------------------------||
                                    
||------------------------------------------------------------||
||-----------------------------------4-----4-4----------------||
||--6-4-------4----------4-64---4-6^---6p4--------------------||
||-------6646---56--4-56------66------------------------------||
||-----------------4------------------------------------------||
||------------------------------------------------------------||

||------------------------------------------------------------||
||------7----7-------8-------9------10-------11------12-------||
||---/9--9/10--10/11---11/12--12/13----13/14---14/15---15-16--||
||------------------------------------------------------------||
||------------------------------------------------------------||
||------------------------------------------------------------||
                                                           
||------------------------------------------------------------||
||13------14------15-------15-16----16-17-------18-------19---||
||--16-17---16-17----17-18-------19-------20-21----19-21------||
||------------------------------------------------------------||
||------------------------------------------------------------||
||------------------------------------------------------------||
                                                          
||-16h19p16---1619p16--1621p1619p16---1621p16-----21^---------||
||---------19--------19------------19-------------------------||
||------------------------------------------------------------||
||------------------------------------------------------------||
||------------------------------------------------------------||
||------------------------------------------------------------||
||                                                            ||
||------------------------------------------------------------||
||------------------------------------------------------------||
||------------------------------------------------------------||
||------------------------------------------------------------||
||------------------------------------------------------------||
||------------------------------------------------/9----------||
                                                    
||----------------------------------------6h99^-(9)-p6--------||
||--------------------------------------6--------------9------||
||--------------------------6-------6h8-----------------------||
||----------6-------6h8p6h8---8p6h8---------------------------||
||-8-6h8p6h8--8p6h8-------------------------------------------||
||------------------------------------------------------------||
                                                        
||-------6----------------------------------------------------||
||--6h9^---9p6---6--------------------------------------------||
||-------------8---8^p6-6^------------------------------------||
||-------------------------8-6--------------------------------||
||------------------------------8-6-4----4--(4)-4^--2^--------||
||------------------------------------6-----------------------||
                                                      

||------------------------------------------------------------||
||------------------------------------------------------------||
||------------------------------------------------------------||
||--------6--------------------------------6------------------||
||------------------------6p4-----------------------------6p4-||
||4-4-4-4---4-4-4-4-4-4-4-----4-4-4-4-4-4-4--4-4-4-4-4-4-4----||
                                                             
||------------------------------------------------------------||
||------------------------------------------------------------||
||-----------------4---5--------------------------------------||
||-7--9---6--------4---5--5-----------------------------------||
||-7--9---6--------2---3--5-----------------------------------||
||-5--7---4---------------3-----------------------------------||

Riff A

||------------------------------------------------------------||
||------------------------------------------------------------||
||------------------------------------------------------------||
||--------4---------------------------------------------------||
||---------------------------4p2------------------------------||
||2-2-2-2---2-2-2-2-2-2-2-2------2-2-2-2-2-222-2-2-2-2-2-2-2-2||
||                                                            ||
||------------------------------------------------------------||
||------------------------------------------------------------||
||------------------------------------------------------------||
||-4p2---2------------------------6---------------------------||
||----4-2--4/2/1-4-32-0-2h3-----5--------5---5----------------||
||-------------------------23-4------------4------------------||

                                                                
Oh I wonder will she find out?
'bout the other, other lover diana
 
||------------------------------------------------------------||
||------------------------------------------------------------||
||--------------------------------------7\--------------------||
||4---3----2--------3--000--0h2-2--2----7\--------------------||
||4---3----2--------3-----2-----2--2----5\--------------------||
||2---1----0-----3--1-----------0--0--------------------------||
                                          

Guitar Solo III
||8p0h7p0h8p0h7p0h8p0h7p0h8p0h7p0h8p0h7p0-12/2424-------14151415
||------------------------------------------------------------||
||------------------------------------------------11121112----||
||------------------------------------------------------------||
||------------------------------------------------------------||
||------------------------------------------------------------||

||8p0h7p0h8p0h7p0h8p0h7p0h8p0h7p0h8p0h7-8/10-12-11-10-9-8/15--||
||------------------------------------------------------------||
||------------------------------------------------------------||
||------------------------------------------------------------||
||------------------------------------------------------------||
||------------------------------------------------------------||

13.Hangar 18

Riff 1
e|-1--1--1--1--1--1--1--1--1--1--1--1--1--1--1--1-|
B|-3--3--3--3--3--3--3--3--3--3--3--3--3--3--3--3-|
G|-2--2--2--2--2--2--2--2--2--2--2--2--2--2--2--2-|
D|-0--0--0--0--0--0--0--0--0--0--0--0--0--0--0--0-|
A|------------------------------------------------|
E|------------------------------------------------|

e|-1--1--1--1--1--1--1--1--1--1--1--1--1--1--1--1-|
B|-3--3--3--3--3--3--3--3--3--3--3--3--3--3--3--3-|
G|-3--3--3--3--3--3--3--3--3--3--3--3--3--3--3--3-|
D|-0--0--0--0--0--0--0--0--0--0--0--0--0--0--0--0-|
A|------------------------------------------------|
E|------------------------------------------------|

e|-1--1--1--1--1--1--1--1--1--1--1--1--1--1--1--1-|
B|-3--3--3--3--3--3--3--3--3--3--3--3--3--3--3--3-|
G|-4--4--4--4--4--4--4--4--4--4--4--4--4--4--4--4-|
D|-0--0--0--0--0--0--0--0--0--0--0--0--0--0--0--0-|
A|------------------------------------------------|
E|------------------------------------------------|

e|-5--5--5--5--5--5--5--5--5--5--5--5--5--5--5--5-|
B|-3--3--3--3--3--3--3--3--3--3--3--3--3--3--3--3-|
G|-5--5--5--5--5--5--5--5--5--5--5--5--5--5--5--5-|
D|-0--0--0--0--0--0--0--0--0--0--0--0--0--0--0--0-|
A|------------------------------------------------|
E|------------------------------------------------|

e|-5--5--5--5--5--5--5--5--5--5--5--5--5--5--5--5-|
B|-6--6--6--6--6--6--6--6--6--6--6--6--6--6--6--6-|
G|-7--7--7--7--7--7--7--7--7--7--7--7--7--7--7--7-|
D|------------------------------------------------|
A|------------------------------------------------|
E|------------------------------------------------|

e|-6--6--6--6--6--6--6--6--6--6--6--6--6--6--6--6-|
B|-6--6--6--6--6--6--6--6--6--6--6--6--6--6--6--6-|
G|-7--7--7--7--7--7--7--7--7--7--7--7--7--7--7--7-|
D|------------------------------------------------|
A|------------------------------------------------|
E|------------------------------------------------|

e|-7--7--7--7--7--7--7--7--7--7--7--7--7--7--7--7-|
B|-6--6--6--6--6--6--6--6--6--6--6--6--6--6--6--6-|
G|-7--7--7--7--7--7--7--7--7--7--7--7--7--7--7--7-|
D|------------------------------------------------|
A|------------------------------------------------|
E|------------------------------------------------|

e|-8--8--8--8--8--8--8--8--8--8--8--8--8--8--8--8-|
B|-8--8--8--8--8--8--8--8--8--8--8--8--8--8--8--8-|
G|-9--9--9--9--9--9--9--9--9--9--9--9--9--9--9--9-|
D|------------------------------------------------|
A|------------------------------------------------|
E|------------------------------------------------|


Riff 2
e|-----1-----5------------------1-----6-------|
B|---3---------6--------------3---------6-----|
G|-2-----2/------7----------3-----3/------7---| ----|
D|-----------------0------------------------0-|     |
A|--------------------------------------------|     |
E|--------------------------------------------|     |
                                                    |--> Play 2x
e|-----1-----7------------------5-----8-------|     |
B|---3---------6--------------3---------8-----|     |
G|-4-----4/------7----------5-----5/------9---|     |
D|-----------------0------------------------0-| ----|
A|--------------------------------------------|
E|--------------------------------------------|

Guitar 2
e|-------------------------------|
B|-------------------------------|
G|-------------------------------|
D|-2--------3--------4--------5--|
A|-0--------1--------2--------3--|
E|-------------------------------|

e|-----------------------------------|
B|-----------------------------------|
G|-----------------------------------|
D|-7----7----8----8----9----9----10--|
A|-5----5----5----5----5----5-----5--|
E|-----------------------------------|



Lead into next section:
Guitar 1
e|-----------------|
B|-6-5-3-----------|
G|-------5-3-2-----|
D|-------------5-3-|
A|-----------------|
E|-----------------|

Guitar 2
e|--------------------|
B|-10-8---------------|
G|------10-9-7--------|
D|-------------10-9-7-|
A|--------------------|
E|--------------------|


Riff 3
Guitar 1
e|-----------------------------------|
B|-----------------------------------|
G|-2-----/7~--------3-----/7~--------|
D|---0-0--------0-0---0-0--------0-0-|
A|-----------------------------------|
E|-----------------------------------|
     * *        * *   * *        * *
e|-----------------------------------|
B|-----------------------------------|
G|-4-----/7~--------5-----/7~--------|
D|---0-0--------0-0---0-0--------0-0-|
A|-----------------------------------|
E|-----------------------------------|
     * *        * *   * *        * *

Guitar 2
e|-----------------------------------|
B|-----------------------------------|
G|-7-----/10~-------7-----/10~-------|
D|---0-0--------0-0---0-0--------0-0-|
A|-----------------------------------|
E|-----------------------------------|
     * *        * *   * *        * *
e|-----------------------------------|
B|-----------------------------------|
G|-7-----/10~-------9-----/12~-------|
D|---0-0--------0-0---0-0--------0-0-|
A|-----------------------------------|
E|-----------------------------------|
     * *        * *   * *        * *


Riff 4
Guitar 1
e|---------------------------|
B|---------------------------|
G|-7\-2~--------7\-3~--------|
D|----------0-0----------0-0-|
A|---------------------------|
E|---------------------------|
            * *          * *
  "Possibly I've seen..."
e|-----------------------------|
B|-----------------------------|
G|-7\-4~--------7-5---5~--(5)\-|
D|----------0-0-----0----------|
A|-----------------------------|
E|-----------------------------|
            * *     *
  "Hangar 18..."

Guitar 2
e|---------------------------|
B|---------------------------|
G|-10\-7~--------10\-7~------|
D|----------0-0----------0-0-|
A|---------------------------|
E|---------------------------|
            * *          * *
e|-------------------------------|
B|-------------------------------|
G|-10\-7~--------10-9---9~--(9)\-|
D|----------0-0-------0----------|
A|-------------------------------|
E|-------------------------------|
            * *       *


Riff 5 (Solo Rhythm)
e|----------------------------------|
B|----------------------------------|
G|-----2-----2---2------3-----3---3-|
D|---0-----0----------0-----0-------|
A|-0-----0-----0----1-----1-----1---|
E|----------------------------------|
   * *   * *   *    * *   * *   *
e|----------------------------------|
B|----------------------------------|
G|-----4-----4---4------3-----3---3-|
D|---0-----0----------0-----0-------|
A|-2-----2-----2----1-----1-----1---|
E|----------------------------------|
   * *   * *   *    * *   * *   *
e|----------------------------------|
B|----------------------------------|
G|-----2-----2---2------3-----3---3-|
D|---0-----0----------0-----0-------|
A|-0-----0-----0----1-----1-----1---|
E|----------------------------------|
   * *   * *   *    * *   * *   *
e|----------------------------------|
B|----------------------------------|
G|-----4-----4---4------5-----5---5-|
D|---0-----0----------0-----0-------|
A|-2-----2-----2----3-----3-----3---|
E|----------------------------------|
   * *   * *   *    * *   * *   *
e|----------------------------------|
B|----------------------------------|
G|-----2-----2---2------3-----3---3-|
D|---0-----0----------0-----0-------|
A|-0-----0-----0----1-----1-----1---|
E|----------------------------------|
   * *   * *   *    * *   * *   *
e|----------------------------------|
B|----------------------------------|
G|-----4-----4---4------3-----3---3-|
D|---0-----0----------0-----0-------|
A|-2-----2-----2----1-----1-----1---|
E|----------------------------------|
   * *   * *   *    * *   * *   *
e|----------------------------------|
B|----------------------------------|
G|-----2-----2---2------3-----3---3-|
D|---0-----0----------0-----0-------|
A|-0-----0-----0----1-----1-----1---|
E|----------------------------------|
   * *   * *   *    * *   * *   *
e|-----------------|
B|-----------------|
G|-----4-----4---4-|
D|---0-----0-------|
A|-2-----2-----2---|
E|-----------------|
   * *   * *   *


Solo (Friedman)
e|-------------------------------------------|
B|-15b17~~----15b17--{16}----(17)r15---------|
G|-----------------------------------14-17~~-|
D|-------------------------------------------|
A|-------------------------------------------|
E|-------------------------------------------|

e|-------15-17-17/20-17h20p17---------------|
B|----13----------------------20--x-[20]22~-|
G|-14----------------------------x----------|
D|------------------------------------------|
A|------------------------------------------|
E|------------------------------------------|

e|-------------------------------|
B|-20b22r20p18-18b20r18----------|
G|-------------------------19~~--|
D|-------------------------------|
A|-------------------------------|
E|-------------------------------|

e|---------------------------------------------|
B|---------------------------------------------|
G|-----10-----10---10--------12-------12----12-|
D|---------------------------------------------|
A|-8-8----8-8----8-----10-10----10-10----10----|
E|---------------------------------------------|
   * *    * *    *      *  *     *  *     *
e|-------------------------------------|
B|-------------------------------------|
G|-----10-----10---10------9-----9---9-|
D|-------------------------------------|
A|-8-8----8-8----8-----7-7---7-7---7---|
E|-------------------------------------|
   * *    * *    *     * *   * *   *
e|-17p13----------13-17p13-17p13-17p13--13-|
B|------15------15--------------------15---|
G|--------14--14---------------------------|
D|----------15-----------------------------|
A|-----------------------------------------|
E|-----------------------------------------|

e|-18p13----------13-18p13-15p12-13-12-------17p13---16p13---16-16~~-|
B|------15------15---------------------15-13------15------15---------|
G|--------15--15-----------------------------------------------------|
D|----------15-------------------------------------------------------|
A|-------------------------------------------------------------------|
E|-------------------------------------------------------------------|

e|-x-20b22----20p17-22b25~~~-(25)r22\-|
B|-x----------------------------------|
G|------------------------------------|
D|------------------------------------|
A|------------------------------------|
E|------------------------------------|

e|---------------------------------------------|
B|---------------------------------------------|
G|-----10-----10---10--------12-------12----12-|
D|---------------------------------------------|
A|-8-8----8-8----8-----10-10----10-10----10----|
E|---------------------------------------------|
   * *    * *    *      *  *     *  *     *
e|---------------------|
B|---------------------|
G|-----10-----10---10--|
D|---------------------|
A|-8-8----8-8----8-----|
E|---------------------|
   * *    * *    *

End Solo

Lead into next riff:
Guitar 1
e|-5-3-1-0--3-1-0----1-0-----------------|
B|----------------3------3-1--5-3-1---3~-|
G|----------------------------------3----|
D|---------------------------------------|
A|---------------------------------------|
E|---------------------------------------|

Guitar 2
e|-------------------------------------------|
B|-------------------------------------------|
G|-10-9-7----9-7------7------------------7~~-|
D|--------10-----10-8---10-8-7-10-8-7--------|
A|------------------------------------10-----|
E|-------------------------------------------|


Play Riff 3
Play Riff 4  "Possibly..."
Play Riff 5  Solo Rhythm

Riff 5a (Solo Rhythm)
e|----------------------------------|
B|----------------------------------|
G|-----2-----2---2------3-----3---3-|
D|---0-----0----------0-----0-------|
A|-0-----0-----0----1-----1-----1---|
E|----------------------------------|
   * *   * *   *    * *   * *   *
e|----------------------------------|
B|----------------------------------|
G|-----4-----4---4------3-----3---3-|
D|---0-----0----------0-----0-------|
A|-2-----2-----2----1-----1-----1---|
E|----------------------------------|
   * *   * *   *    * *   * *   *
e|----------------------------------|
B|----------------------------------|
G|-----2-----2---2------3-----3---3-|
D|---0-----0----------0-----0-------|
A|-0-----0-----0----1-----1-----1---|
E|----------------------------------|
   * *   * *   *    * *   * *   *
e|----------------------------------|
B|----------------------------------|
G|-----4-----4---4------5-----5---5-|
D|---0-----0----------0-----0-------|
A|-2-----2-----2----3-----3-----3---|
E|----------------------------------|
   * *   * *   *    * *   * *   *
e|----------------------------------|
B|----------------------------------|
G|-----2-----2---2------3-----3---3-|
D|---0-----0----------0-----0-------|
A|-0-----0-----0----1-----1-----1---|
E|----------------------------------|
   * *   * *   *    * *   * *   *
e|----------------------------------|
B|----------------------------------|
G|-----4-----4---4------3-----3---3-|
D|---0-----0----------0-----0-------|
A|-2-----2-----2----1-----1-----1---|
E|----------------------------------|
   * *   * *   *    * *   * *   *
e|----------------------------------|
B|----------------------------------|
G|-----2-----2---2------3-----3---3-|
D|---0-----0----------0-----0-------|
A|-0-----0-----0----1-----1-----1---|
E|----------------------------------|
   * *   * *   *    * *   * *   *
e|----------------------------------|
B|----------------------------------|
G|-----4-----4---4------5-----5---5-|
D|---0-----0----------0-----0-------|
A|-2-----2-----2----3-----3-----3---|
E|----------------------------------|
   * *   * *   *    * *   * *   *
e|-----------------|
B|-----------------|
G|-----6-----6---6-|
D|---0-----0-------|
A|-4-----4-----4---|
E|-----------------|
   * *   * *  *


Solo (Friedman)
e|-------------------------------------------------------|
B|-----------x-15-17-[17]18r17b18--{17}-(18)r17-15-18b20-|
G|---17b19~--x-------------------------------------------|
D|-x-----------------------------------------------------|
A|-x-----------------------------------------------------|
E|-------------------------------------------------------|

e|--------------------------------|
B|-18p15-15h18p15-----------------|
G|----------------17b19--(17)~~~\-|
D|--------------------------------|
A|--------------------------------|
E|--------------------------------|

e|---------------------------------------------|
B|---------------------------------------------|
G|-----10-----10---10--------12-------12----12-|
D|---------------------------------------------|
A|-8-8----8-8----8-----10-10----10-10----10----|
E|---------------------------------------------|
   * *    * *    *      *  *     *  *     *
e|-------------------------------------|
B|-------------------------------------|
G|-----10-----10---10------9-----9---9-|
D|-------------------------------------|
A|-8-8----8-8----8-----7-7---7-7---7---|
E|-------------------------------------|
   * *    * *    *     * *   * *   *
e|-------------------17---18~~-----------------17-19-16---------|
B|-20b22~~--18-17--------x------------17-18-20---------18-15----|
G|---------------19-----x-------17-19------------------------16-|
D|-----------------19-------------------------------------------|
A|--------------------------------------------------------------|
E|--------------------------------------------------------------|

e|-----------16-20b22r20-20b22--20-22b22~~\-|
B|-----15--18-------------------------------|
G|---16--19---------------------------------|
D|-18---------------------------------------|
A|------------------------------------------|
E|------------------------------------------|

e|---------------------------------------------|
B|---------------------------------------------|
G|-----10-----10---10--------12-------12----12-|
D|---------------------------------------------|
A|-8-8----8-8----8-----10-10----10-10----10----|
E|---------------------------------------------|
   * *    * *    *      *  *     *  *     *
e|-------------------------------------|
B|-------------------------------------|
G|-----10-----10---10------9-----9---9-|
D|-------------------------------------|
A|-8-8----8-8----8-----7-7---7-7---7---|
E|-------------------------------------|
   * *    * *    *     * *   * *   *
e|----------------------9-13p9----|
B|-----------------9h12--------12-|
G|--------------10----------------|
D|---------9h11-------------------|
A|------11------------------------|
E|-9h13---------------------------|

End Solo


Riff 6 (Solo Rhythm)       x3
e|--------------------------|
B|--------------------------|
G|-7------------------------|
D|-------------------7-8----|
A|---5-5-5--5-8-5--5-5-6--5-|
E|--------------------------|

e|---------------------------|
B|---------------------------|
G|-7-------------------------|
D|-------------------6p5-----|
A|---5-5-5--5-8-5--5-----8p5-|
E|---------------------------|
                           x3
e|--------------------------|
B|--------------------------|
G|-7------------------------|
D|-------------------7-8----|
A|---5-5-5--5-8-5--5-5-6--5-|
E|--------------------------|

e|----------------------------|
B|----------------------------|
G|-7--------------------------|
D|------------6p5-----6p5-----|
A|---5-5-5--5-----8p5-----8p5-|
E|----------------------------|

Solo (Friedman)
e|-------------------------------------------|
B|-15-----------13--------12/15\12-----------|
G|--------------------------------10---------|
D|----12~----10----10~--9-----------12\10/12-|
A|-------------------------------------------|
E|-------------------------------------------|

e|--------------------14/17-14-------------------------------|
B|-10p7h8-7--------10----------16-13~~\-----15/20-16---------|
G|----------8-7~~------------------------11----------17------|
D|------------------------------------------------------19~~-|
A|-----------------------------------------------------------|
E|-----------------------------------------------------------|

e|--------------11-15-14----11-------------------|
B|-----------13----------13----15----13----------|
G|--------12----------------------14----17b19~~\-|
D|-/12-13----------------------------------------|
A|-----------------------------------------------|
E|-----------------------------------------------|

e|-/17-14-14-14-15-11-11-14-10-10-10-11-8-8-10-6-6-6-|
B|---------------------------------------------------|
G|---------------------------------------------------|
D|---------------------------------------------------|
A|---------------------------------------------------|
E|---------------------------------------------------|

e|-8-5-5-6-5h6p5---5-------------------------|
B|---------------8---8-[8]10r8-8b10~~-(10)r8-|
G|-------------------------------------------|
D|-------------------------------------------|
A|-------------------------------------------|
E|-------------------------------------------|

e|------------------------------------------------------|
B|-7h8h10p8p7---7h8p7~~----10h11h13p11p10----10h11p10~~-|
G|------------8---------------------------12------------|
D|------------------------------------------------------|
A|------------------------------------------------------|
E|------------------------------------------------------|

e|----------------------------------------14-15-17-18b20~~-|
B|-13h15h16p15p13----15p13----13-13-15-16------------------|
G|----------------15-------15------------------------------|
D|---------------------------------------------------------|
A|---------------------------------------------------------|
E|---------------------------------------------------------|

End Solo


Riff 7
e|---------------------------|
B|---------------------------|
G|---------------------------|
D|-------4-----------------5-|
A|-----------------------5---|
E|-0h1/2---2--2-5-2--2-3-----|
                       * *
e|-----------------------------|
B|-----------------------------|
G|-----------------------------|
D|-------4---------------------|
A|---------------------3p2-----|
E|-0h1/2---2--2-5-2--2-----5p2-|

e|---------------------------|
B|---------------------------|
G|---------------------------|
D|-------4-----------------5-|
A|-----------------------5---|
E|-0h1/2---2--2-5-2--2-3-----|
                       * *
e|------------------------------|
B|------------------------------|
G|--------------5p4-----6p5-----|
D|-------4----------7p4-----8p5-|
A|------------------------------|
E|-0h1/2---2--2-----------------|



Play Riff 6   Solo Rhythm


Solo (Friedman)
e|----------------------------------------14-15p14--10-------|
B|----------10-13-10-13/15-13-15-10-13-15--------------13p10-|
G|----11-12--------------------------------------------------|
D|-12--------------------------------------------------------|
A|-----------------------------------------------------------|
E|-----------------------------------------------------------|

e|------------------------------------------|
B|-/22--------------------------------------|
G|-----17p14-17p14\11-12-11h12p11\-7b8r7----|
D|---------------------------------------10-|
A|------------------------------------------|
E|------------------------------------------|

e|--------------------------/15-11-------------|
B|-----7-10-9-10-7-8-7-4-----------13----------|
G|-7/8-------------------7------------14-11/13-|
D|---------------------------------------------|
A|---------------------------------------------|
E|---------------------------------------------|

e|-----------------------------17------------------|
B|----13-16--------13-16-15/16----16\15-13---------|
G|-14-------13--14-------------------------16b17~~-|
D|-------------------------------------------------|
A|-------------------------------------------------|
E|-------------------------------------------------|

e|----------------------------------------------------|
B|-10-10/13-13-13-13\12-12-12-12/20-20-20-20\19-19-19-|
G|----------------------------------------------------|
D|----------------------------------------------------|
A|----------------------------------------------------|
E|----------------------------------------------------|

e|-------------------------------------------------------------|
B|-19\13-13-13-13h15p13-10h13-15-12h13p12-10-12-13-12-10h12p10-|
G|-------------------------------------------------------------|
D|-------------------------------------------------------------|
A|-------------------------------------------------------------|
E|-------------------------------------------------------------|

e|----------------------7-8-10-12p10-8-10p8-7-10p8-7--7-8-7-----|
B|-8-12-10-8h10p8-7-8-10----------------------------10-----10-8-|
G|--------------------------------------------------------------|
D|--------------------------------------------------------------|
A|--------------------------------------------------------------|
E|--------------------------------------------------------------|

e|------10-------------------------------|
B|-7h10----10p7---7---7------------------|
G|--------------9---9---9b11--(11)r9-7~~-|
D|---------------------------------------|
A|---------------------------------------|
E|---------------------------------------|

End Solo


Play Riff 7

Riff 8                        x4
e|-----------------------------|
B|-----------------------------|
G|-----------------------------|
D|-----------------------------|
A|-----------------4/5-4/5-4/5-|
E|-3-2-0-2-3-5-3-2-2/3-2/3-2/3-|
   * * * * * * * *


Play Riff 7   Solo Rhythm


Solo (Mustaine)
e|-17-17-17-17-17-16-14--17-17-17-17-17-16-14-|
B|--------------------------------------------|
G|--------------------------------------------|
D|--------------------------------------------|
A|--------------------------------------------|
E|--------------------------------------------|

e|-17-17-17-17-17-16-14--17-17-17-17-17-16-14-|
B|--------------------------------------------|
G|--------------------------------------------|
D|--------------------------------------------|
A|--------------------------------------------|
E|--------------------------------------------|

e|-17-17-17-17-17-16-14-----------------------|
B|-----------------------17-17-17-17-17-16-14-|
G|--------------------------------------------|
D|--------------------------------------------|
A|--------------------------------------------|
E|--------------------------------------------|

e|--------------------------------------------|
B|--------------------------------------------|
G|-16-16-15-15-14-14-----14-------------------|
D|-------------------16-----16-16-16-16-14----|
A|-----------------------------------------16-|
E|--------------------------------------------|

e|--------------------------------------------------------|
B|-----------------------------------------------16-------|
G|---14--14-14-----16-----14-----16--14-14h16/17----17h18-|
D|-14--14-----16-16--16-16--16-16--16---------------------|
A|--------------------------------------------------------|
E|--------------------------------------------------------|

e|----------------------------------x-|
B|-17-16-14-17-19p17p14-14-14-14-17-x-|
G|------------------------------------|
D|------------------------------------|
A|------------------------------------|
E|------------------------------------|

e|-14-17p14-14-17-14-19p17p14-14-14-19b21-19p17----19b21~~-|
B|----------------------------------------------19---------|
G|---------------------------------------------------------|
D|---------------------------------------------------------|
A|---------------------------------------------------------|
E|---------------------------------------------------------|

End Solo


Play Riff 8
Play Riff 7   Solo Rhythm

Solo (Friedman)
e|-------------------------------22b24r22--21p20----21~~\-|
B|-21b23r21--------------------------------------20-------|
G|-----------18-21b23~~----21-18--------------------------|
D|--------------------------------------------------------|
A|--------------------------------------------------------|
E|--------------------------------------------------------|

e|-------------14-15----------------------------------|
B|-------------------15-------------------------------|
G|-18p14----------------17-14----14-17-14h17p14h17p14-|
D|-------18-14----------------18----------------------|
A|----------------------------------------------------|
E|----------------------------------------------------|

e|---------------------------------------------------------------|
B|----14-17p14----17p14-----------14-17p14----17p14-------17b19\-|
G|-17----------17-------17-14--17----------17-------17-14--a-----|
D|---------------------------------------------------------------|
A|---------------------------------------------------------------|
E|---------------------------------------------------------------|

End Solo

Play Riff 8
Play Riff 7   Solo Rhythm


Solo (Mustaine)
e|-21-17-14-17-14-14-------------------|
B|-------------------21-17-14-17-14-14-|
G|-------------------------------------|
D|-------------------------------------|
A|-------------------------------------|
E|-------------------------------------|

e|-------------------------------------|
B|-21-17-14-17-14-14-------------------|
G|-------------------21-17-14-17-14-14-|
D|-------------------------------------|
A|-------------------------------------|
E|-------------------------------------|

e|-------------------------------------|
B|-21-17-14-17-14-14-------------------|
G|-------------------21-17-14-17-14-14-|
D|-------------------------------------|
A|-------------------------------------|
E|-------------------------------------|

e|-------------------------------------|
B|-------------------------------------|
G|-21-17-14-17-14-14-------------------|
D|-------------------21-17-14-17-14-14-|
A|-------------------------------------|
E|-------------------------------------|

e|-------------------------------------|
B|-------------------------------------|
G|-------------------------------------|
D|-21-17-14-17-14-14-------------------|
A|-------------------21-17-14-17-14-14-|
E|-------------------------------------|

e|---------------------------------------------|
B|---------------------------------------------|
G|---------------------------------------------|
D|------------------------------14h21-14h17h21-|
A|----------------14h21-14h17h21---------------|
E|-14h21-14h17h21------------------------------|

e|-------------------------------14h21p14\--------|
B|----------------14h21-14h17h21------------------|
G|-14h21-14h17h21---------------------------------|
D|------------------------------------------------|
A|-------------------------------------------/17~-|
E|------------------------------------------------|

End Solo

Play Riff 8
Play Riff 7   Solo Rhythm


Solo (Friedman)
e|------------------------10-9---------14p10-12----10-|
B|-9-12-10-9----10-9-----------12-10-9----------14----|
G|-----------11------11-9-----------------------------|
D|----------------------------------------------------|
A|----------------------------------------------------|
E|----------------------------------------------------|

e|---------------------12h14h18p14h18p14h18p14h18p14h18p14-------|
B|-13h14p10-14/15\14/15-----------------------------------17b19~-|
G|---------------------------------------------------------------|
D|---------------------------------------------------------------|
A|---------------------------------------------------------------|
E|---------------------------------------------------------------|

e|-14-------------14----------------------------------------|
B|---17p14------14--14-17p14-19-14-----------14-17-14-------|
G|--------16b18--------------------16b18r16-----------16b18-|
D|----------------------------------------------------------|
A|----------------------------------------------------------|
E|----------------------------------------------------------|

e|-14----------14----------------------14-------------|
B|----14h17--14---14-------------14-17----------------|
G|------------------16b18r16--14----------16-17b19~~\-|
D|----------------------------------------------------|
A|----------------------------------------------------|
E|----------------------------------------------------|

End Solo


Play Riff 8
Play Riff 7  Solo Rhythm

Solo (Mustaine)
e|-5-4-2-4-2---------------8-7-5-7-5---------------|
B|-----------5-5-4-2-2-4-5-----------8-8-7-5-5-7-8-|
G|-------------------------------------------------|
D|-------------------------------------------------|
A|-------------------------------------------------|
E|-------------------------------------------------|

e|-11-10-8-10-8--------------------|
B|--------------11-11-10-8-8-10-11-|
G|---------------------------------|
D|---------------------------------|
A|---------------------------------|
E|---------------------------------|

e|-14-13-11-13-11----------------------|
B|----------------14-14-13-11-11-13-14-|
G|-------------------------------------|
D|-------------------------------------|
A|-------------------------------------|
E|-------------------------------------|

e|-17-16-14-16-14----------------------|
B|----------------17-17-16-14-14-16-17-|
G|-------------------------------------|
D|-------------------------------------|
A|-------------------------------------|
E|-------------------------------------|

e|-20-19-17-19-17----------------------|
B|----------------20-20-19-17-17-19-20-|
G|-------------------------------------|
D|-------------------------------------|
A|-------------------------------------|
E|-------------------------------------|

e|-23-22-20-22-20--------------|
B|----------------23-23-22-20\-|
G|-----------------------------|
D|-----------------------------|
A|-----------------------------|
E|-----------------------------|

e|-/6/7/9/11/13/14/16/18/20/22/23/24b26-24b26-|
B|--------------------------------------------|
G|--------------------------------------------|
D|-[steady gliss, notes shown are random]-----|
A|--------------------------------------------|
E|--------------------------------------------|

e|-24b26----24b26----24b26----24b26-|
B|----------------------------------|
G|----------------------------------|
D|----------------------------------|
A|----------------------------------|
E|----------------------------------|

e|-24b26-24b26-24b26-24b26-24b26-24b26-24b26-24b26-|
B|-------------------------------------------------|
G|-------------------------------------------------|
D|-------------------------------------------------|
A|-------------------------------------------------|
E|-------------------------------------------------|

e|-24b26tm--------(24b26tm)--------(24b26tm)\-|
B|--------------------------------------------|
G|--------------------------------------------|
D|--------------------------------------------|
A|--------------------------------------------|
E|--------------------------------------------|

End Solo


Ending
e|--------------------------------------------------|
B|--------------------------------------------------|
G|--------------------------------------------------|
D|--------------------------------------------------|
A|--5-------(5)----------------------4/5-4/5-4/5-4\-|
E|--3-------(3)------3-2-0-2-3-5-3-2-2/3-2/3-2/3-2\-|
                     * * * * * * * *

14.Dread and the Fugitive Mind 

E||--------------------------|--------------------||-------------------------|
B||--------------------------|--------------------||-------------------------|
G||*-------------------------|-------------------*||-------------------------|
D||*----------------5-----4--|-------------------*||--7----------5--5--------|
A||---2-------------3-----2--|--2-----------------||--7----------7--7--------|
E||---0----0--2--3-----0-----|--0-----------------||-------0--0--------0--0--|


--------------------------|--------------------------|
--------------------------|--------------------------|
--------------------------|--------------------------|
--7--7--------5--5--------|--4--4--------5--5--------|
--7--7--------7--7--------|--5--5--------5--5--------|
--------0--0--------0--0--|--------0--0--------0--0--|


--------------------------|--------------------------|
--------------------------|--------------------------|
--------------------------|--------------------------|
--4--4--------5--5--------|--2--2--------0--0--------|
--5--5--------5--5--------|--3--3--------3--3--------|
--------0--0--------0--0--|--------0--0--------0--0--|


--------------------------|--------------------------|
--------------------------|--------------------------|
--------------------------|--------------------------|
--2--2--------0--0--------|--5--5--------4--4--------|
--3--3--------3--3--------|--5--5--------5--5--------|
--------0--0--------0--0--|--------0--0--------0--0--|


--------------------------||--------------------------|
--------------------------||--------------------------|
--------------------------||*-------------------------|
--7--7--------5--5--------||*----------9--------9-----|
--7--7--------7--7--------||---5----7-----5--7-----5--|
--------0--0--------0--0--||--------------------------|


--------------------------|-------------------------|--------------------------|
--------------------------|-------------------------|--------------------------|
--------------------------|-------------------------|--------------------------|
-----9--------9--------9--|----------9--------9-----|-----9--------9--------9--|
--7-----5--7-----5--7-----|-------7--------7--------|--7--------7--------7-----|
--------------------------|--8----------8--------8--|--------8--------8--------|


-------------------------|--------------------------|-------------------------|
-------------------------|--------------------------|-------------------------|
-------------------------|--------------------------|-------------------------|
----------9--------9-----|-----9--------9--------9--|----------4--------5-----|
-------7--------7--------|--7--------7--------7-----|-------6--------6--------|
--5----------5--------5--|--------5--------5--------|--7----------7--------7--|


---------------------------||-------------------------|
---------------------------||-------------------------|
--------------------------*||-------------------------|
-----4--------5-----4-----*||----------4--------5-----|
--6--------6-----------6---||-------6--------6--------|
--------7--------7---------||--7----------7--------7--|


                                                                           8x
--------------------------||--------------------------|--------------------||
--------------------------||--------------------------|--------------------||
--------------------------||*-------------------------|-------------------*||
-----4--------5-----4-----||*----------------5-----4--|-------------------*||
--6--------6-----------6--||---2-------------3-----2--|--2-----------------||
--------7--------7--------||---0----0--2--3-----0-----|--0-----------------||


-------------------------|--------------------------|--------------------------|
-------------------------|--------------------------|--------------------------|
-------------------------|--------------------------|--------------------------|
--7----------5--5--------|--7--7--------5--5--------|--4--4--------5--5--------|
--7----------7--7--------|--7--7--------7--7--------|--5--5--------5--5--------|
-------0--0--------0--0--|--------0--0--------0--0--|--------0--0--------0--0--|


--------------------------|--------------------------|
--------------------------|--------------------------|
--------------------------|--------------------------|
--4--4--------5--5--------|--2--2--------0--0--------|
--5--5--------5--5--------|--3--3--------3--3--------|
--------0--0--------0--0--|--------0--0--------0--0--|


--------------------------|--------------------------|
--------------------------|--------------------------|
--------------------------|--------------------------|
--2--2--------0--0--------|--5--5--------4--4--------|
--3--3--------3--3--------|--5--5--------5--5--------|
--------0--0--------0--0--|--------0--0--------0--0--|


--------------------------||--------------------------|
--------------------------||--------------------------|
--------------------------||*-------------------------|
--7--7--------5--5--------||*----------9--------9-----|
--6--6--------6--6--------||---5----7-----5--7-----5--|
--------0--0--------0--0--||--------------------------|


--------------------------|-------------------------|--------------------------|
--------------------------|-------------------------|--------------------------|
--------------------------|-------------------------|--------------------------|
-----9--------9--------9--|----------9--------9-----|-----9--------9--------9--|
--7-----5--7-----5--7-----|-------7--------7--------|--7--------7--------7-----|
--------------------------|--8----------8--------8--|--------8--------8--------|


-------------------------|--------------------------|-------------------------|
-------------------------|--------------------------|-------------------------|
-------------------------|--------------------------|-------------------------|
----------9--------9-----|-----9--------9--------9--|----------4--------5-----|
-------7--------7--------|--7--------7--------7-----|-------6--------6--------|
--5----------5--------5--|--------5--------5--------|--7----------7--------7--|


---------------------------||-------------------------|
---------------------------||-------------------------|
--------------------------*||-------------------------|
-----4--------5-----4-----*||----------4--------5-----|
--6--------6-----------6---||-------6--------6--------|
--------7--------7---------||--7----------7--------7--|


                                                         8x
--------------------------||-----------------------------||
--------------------------||-----------------------------||
--------------------------||*---------------------------*||
-----4--------5-----4-----||*---------------------------*||
--6--------6-----------6--||-------------------2---------||
--------7--------7--------||---0-0-0-0-2-2-3-3-0---------||


----------------------|-----------------------|---------------------|
----------------------|-----------------------|---------------------|
*---------------------|-----------------------|---------------------|
*----------------9----|--9/-10----9-----------|----------------9----|
---5------7-----------|------------------7----|---------7-----------|
----------------------|-----------------------|--8------------------|


-----------------------|---------------------|-----------------------|
-----------------------|---------------------|-----------------------|
-----------------------|---------------------|-----------------------|
--9/-10----9-----------|----------------9----|--9/-10----9-----------|
------------------7----|---------7-----------|------------------7----|
-----------------------|--5------------------|-----------------------|


---------------------|-----------------------||---------------------------|
---------------------|-----------------------||---------------------------|
---------------------|----------------------*||*--------------------------|
----------------4----|--4/-5----4-----------*||*--------9--------7--------|
---------6-----------|-----------------6-----||---5--7-----5--7-----5--7--|
--7------------------|-----------------------||---------------------------|


--------------------------|--------------------------|
--------------------------|--------------------------|
--------------------------|--------------------------|
--5--------7-----5-----5--|--------9--------7--------|
-----5--7-----7-----5-----|-----7--------7--------7--|
--------------------------|--8--------8--------8-----|


--------------------------|--------------------------|
--------------------------|--------------------------|
--------------------------|--------------------------|
--5--------7-----5-----5--|--------9--------7--------|
--------7-----7-----------|-----7--------7--------7--|
-----8--------------8-----|--5--------5--------5-----|


--------------------------|--------------------------|
--------------------------|--------------------------|
--------------------------|--------------------------|
--5--------7-----5-----5--|--------4--------5--------|
--------7-----7-----------|-----6--------6--------6--|
-----5--------------5-----|--7--------7--------7-----|


---------------------------||---------------------|----------------------|
---------------------------||---------------------|----------------------|
--------------------------*||---------------------|----------------------|
--4--------5-----4--------*||---------4------7/---|--10------9------7/---|
--------6--------------5---||--5------------------|----------------------|
-----7--------7-----7------||---------------------|----------------------|


-------------------|--------------------|--------------------|
-------------------|--------------------|--10b---------------|
-------------------|--------------------|--------------------|
--5~---------------|--5/-7~-------------|--------------------|
-------------------|--------------------|--------------------|
-------------------|--------------------|--------------------|


--------------------------|-----------------------|
------10r-----------------|--10--8/-10~-----------|
------------12--11---12---|-----------------------|
--------------------------|-----------------------|
--------------------------|-----------------------|
--------------------------|-----------------------|


--10h-8h-7~---------------------|------------------------------|
--------------------------------|--7--8--7h8h7-----------------|
----------------------------9---|--------------9--7------------|
------------------------9-------|--------------------9--7--10--|
--------------------------------|------------------------------|
--------------------------------|------------------------------|


------------------------------|----------------------|
------------------------------|----------------------|
------------------------------|----------------------|
--7--9--10h9h7------7---------|----------------------|
----------------10-----10--9--|--7--7~-----6--6~-----|
------------------------------|----------------------|


--------------------------------------------|--14~-----15--------------|
----------------12h11-12h11-----------------|--------------17----------|
----------12-14-------------14-12-11-12-14--|----------------------16--|
----12-14-----------------------------------|--------------------------|
--------------------------------------------|--------------------------|
--------------------------------------------|--------------------------|


--14~-----15----------17b-|--17~-----------20----|
--------------17----------|----------------------|
--------------------------|----------------------|
--------------------------|----------------------|
--------------------------|----------------------|
--------------------------|----------------------|


--17-15-17~-------14--15--17--|--15b-----19--15~-----14--|
------------------------------|--------------------------|
------------------------------|--------------------------|
------------------------------|--------------------------|
------------------------------|--------------------------|
------------------------------|--------------------------|


--15~-----14--12~-----14--|--11~---------------|
--------------------------|--------------------|
--------------------------|--------------------|
--------------------------|--------------------|
--------------------------|--------------------|
--------------------------|--------------------|


--12-17-12------------------------------------|--------------------|
-----------15-12-------15-12------------------|--17~---------------|
-----------------14-12-------14-12------------|--------------------|
-----------------------------------14-13-12---|--------------------|
----------------------------------------------|--------------------|
----------------------------------------------|--------------------|


--------------------------------------|
-----12-15-12-----12------------------|
--------------14-----14-12-14-14-12---|
--------------------------------------|
--------------------------------------|
--------------------------------------|


----------------------------------------12-14-|
-------------12----------------12-14-15-------|
----12-14-15----15-14-12-14-15----------------|
----------------------------------------------|
----------------------------------------------|
----------------------------------------------|


--15-12-14-12---------------------------|--------------------|
--------------15-12-15-12---------------|--17b---------------|
--------------------------14-12---------|--------------------|
--------------------------------14------|--------------------|
----------------------------------------|--------------------|
----------------------------------------|--------------------|


------------------------|--20~-------------20--|--19--19b---19b---19~-----|
--17~-------------------|----------------------|--------------------------|
----------------19--19--|----------------------|--------------------------|
------------------------|----------------------|--------------------------|
------------------------|----------------------|--------------------------|
------------------------|----------------------|--------------------------|


-----------------------------------|----------------------------------|
----8-10-7-8-7---------------------|----------------------------------|
---------------9-7-7-9-7-7----7----|--7-------------------------------|
---------------------------10---10-|----10-9-7-10-7-9-7---------------|
-----------------------------------|--------------------9-9-10-9-7----|
-----------------------------------|----------------------------------|


----------------------------------|--------------------------------|
----8-10-7-8-7--------------------|--------------------------------|
---------------9-7-7-9-7-7--------|-------------------7-8-7-7------|
---------------------------7-10-7-|--10-7------7-9-10--------------|
----------------------------------|-------9-10---------------------|
----------------------------------|--------------------------------|


-------------------------------------|---------------------------------------|
----8-10-8-7-10-7-8-10-8-7-10-7-8-10-|--8-7-10-7-8-10-8-7-10-7-8-10-8-7-10-7-|
-------------------------------------|---------------------------------------|
-------------------------------------|---------------------------------------|
-------------------------------------|---------------------------------------|
-------------------------------------|---------------------------------------|


--22--22b-------------|--22~---------------|
----------------------|--------------------|
----------------------|--------------------|
----------------------|--------------------|
----------------------|--------------------|
----------------------|--------------------|


----19--15------17--12------15--10------13-8-|
------------16----------13----------10-------|
---------------------------------------------|
---------------------------------------------|
---------------------------------------------|
---------------------------------------------|


-----10-10-8-7-8-7----7--------------|-------------------|------------------|
--8----------------10---10-7---7-----|-------------------|------------------|
-----------------------------9---9-7-|--9/---------------|------------------|
-------------------------------------|-------------------|------------------|
-------------------------------------|-------------------|------------------|
-------------------------------------|-------------------|------------------|


------------------|------------------|-----------------------|
------------------|------------------|-----------------------|
------------------|------------------|-----------------------|
------------------|------------------|-----------------------|
------------------|------------------|--2-------------2------|
------------------|------------------|--0----0--2--3--0------|


-------------------------|-------------------------|-------------------|
-------------------------|-------------------------|-------------------|
-------------------------|-------------------------|-------------------|
----------------5-----4--|----------------5-----4--|-------------------|
--2-------------3-----2--|--2-------------3-----2--|--2----------------|
--0----0--2--3-----0-----|--0----0--2--3-----0-----|--0----------------|


-----------------------|-------------------------|-------------------------|
-----------------------|-------------------------|-------------------------|
-----------------------|-------------------------|-------------------------|
-----------------------|----------------5-----4--|----------------5-----4--|
--2-------------2------|--2-------------3-----2--|--2-------------3-----2--|
--0----0--2--3--0------|--0----0--2--3-----0-----|--0----0--2--3-----0-----|


-------------------|-----------------------|-------------------------|
-------------------|-----------------------|-------------------------|
-------------------|-----------------------|-------------------------|
-------------------|-----------------------|----------------5-----4--|
--2----------------|--2-------------2------|--2-------------3-----2--|
--0----------------|--0----0--2--3--0------|--0----0--2--3-----0-----|


-------------------------|-------------------||
-------------------------|-------------------||
-------------------------|-------------------||
----------------5-----4--|-------------------||
--2-------------3-----2--|--2----------------||
--0----0--2--3-----0-----|--0----------------||


Rhythm Behind Solo -

||---------------------|---------------------|
||---------------------|---------------------|
||---------------------|---------------------|
||---------1------4/---|--7------5------4/---|
||--2------------------|---------------------|
||---------------------|---------------------|


-------------------|--------------------|-------------------------|
-------------------|--------------------|-------------------------|
-------------------|--------------------|-------------------------|
--2~---------------|--2/-4~-------------|--9----------------------|
-------------------|--------------------|--7----7--7--7--7--7--7--|
-------------------|--------------------|-------------------------|


--------------------------|--------------------------|
--------------------------|--------------------------|
--------------------------|--------------------------|
--------------------9-----|--------------------------|
--7--7--7--7--7--7--7-----|--10----------------------|
-----------------------0--|--8-----8--8--8--8--8--8--|


---------------------------|-------------------------|
---------------------------|-------------------------|
---------------------------|-------------------------|
---------------------------|-------------------------|
--------------------10-----|--7----------------------|
--8--8--8--8--8--8--8---0--|--5----5--5--5--5--5--5--|


--------------------------|-------------------------|------------------------|
--------------------------|-------------------------|------------------------|
--------------------------|-------------------------|------------------------|
--------------------------|-------------------------|--5---------------------|
--------------------7-----|--9----------------9-----|--3----3--3--9----------|
--5--5--5--5--5--5--5--0--|--7----7--7--7--7--7--0--|-------------7----7--7--|


-------------------------|--------------------------|--------------------------|
-------------------------|--------------------------|--------------------------|
-------------------------|--------------------------|--------------------------|
--9----------------------|--------------------9-----|--------------------------|
--7----7--7--7--7--7--7--|--7--7--7--7--7--7--7-----|--10----------------------|
-------------------------|-----------------------0--|--8-----8--8--8--8--8--8--|


---------------------------|-------------------------|
---------------------------|-------------------------|
---------------------------|-------------------------|
---------------------------|-------------------------|
--------------------10-----|--7----------------------|
--8--8--8--8--8--8--8---0--|--5----5--5--5--5--5--5--|


--------------------------|-------------------------|------------------------|
--------------------------|-------------------------|------------------------|
--------------------------|-------------------------|------------------------|
--------------------------|-------------------------|--5---------------------|
--------------------7-----|--9----------------9-----|--3----3--3--9----------|
--5--5--5--5--5--5--5--0--|--7----7--7--7--7--7--0--|-------------7----7--7--|


-------------------------|--------------------------|--------------------------|
-------------------------|--------------------------|--------------------------|
-------------------------|--------------------------|--------------------------|
--9----------------------|--------------------9-----|--------------------------|
--7----7--7--7--7--7--7--|--7--7--7--7--7--7--7-----|--10----------------------|
-------------------------|-----------------------0--|--8-----8--8--8--8--8--8--|


---------------------------|-------------------------|
---------------------------|-------------------------|
---------------------------|-------------------------|
---------------------------|-------------------------|
--------------------10-----|--7----------------------|
--8--8--8--8--8--8--8---0--|--5----5--5--5--5--5--5--|


--------------------------|-------------------------|------------------------|
--------------------------|-------------------------|------------------------|
--------------------------|-------------------------|------------------------|
--------------------------|-------------------------|--5---------------------|
--------------------7-----|--9----------------9-----|--3----3--3--9----------|
--5--5--5--5--5--5--5--0--|--7----7--7--7--7--7--0--|-------------7----7--7--|


-------------------------|--------------------------|--------------------------|
-------------------------|--------------------------|--------------------------|
-------------------------|--------------------------|--------------------------|
--9----------------------|--------------------9-----|--------------------------|
--7----7--7--7--7--7--7--|--7--7--7--7--7--7--7-----|--10----------------------|
-------------------------|-----------------------0--|--8-----8--8--8--8--8--8--|


---------------------------|-------------------------|
---------------------------|-------------------------|
---------------------------|-------------------------|
---------------------------|-------------------------|
--------------------10-----|--7----------------------|
--8--8--8--8--8--8--8---0--|--5----5--5--5--5--5--5--|


--------------------------|-------------------------|------------------------|
--------------------------|-------------------------|------------------------|
--------------------------|-------------------------|------------------------|
--------------------------|-------------------------|--5---------------------|
--------------------7-----|--9----------------9-----|--3----3--3--9----------|
--5--5--5--5--5--5--5--0--|--7----7--7--7--7--7--0--|-------------7----7--7--|


-------------------------|------------------------||
-------------------------|------------------------||
-------------------------|------------------------||
-------------------------|--5---------------------||
--9----------------9-----|--3----3--3--9----------||
--7----7--7--7--7--7--0--|-------------7----7--7--||

15.Skin O'My Teeth 

Intro

               A  Ab G  F# F  E  

e-----------|--------------------|
B-Mini------|--------------------|
G-Drum------|--------------------|
D-Solo------|--------------------|
A-----------|--7--6--5--4--3--2--|
E-----------|--5--4--3--2--1--0--|

  A
 (Play this two times)
e----------------------------------------------------------------|
B*--------------------------------------------------------------*|
G-----------------------------------------------5---7br---5------|
D-7-------------7-------------7-----------------5---7br---5------|
A*0----0---0----0----0---0----0-----0---0---0-----------------0-*|
E----------------------------------------------------------------|

  A
                                        I had

e--------------------------------------------|
B--------------------------------------------|
G--------------------------------------------|
D-7-------------7-------------7--------------|
A-0----0---0----0----0---0----0-----0--------|
E--------------------------------------------|

Verse

  A       C       D                        A       C       A

  wrists  donning   slits                  Flowing constantly                 My

     Pm-     Pm-                              Pm-       Pm

e----------------------------------------|-----------------------------------------|
B----------------------------------------|-----------------------------------------|
G---------5-------7---------5--7br--5----|---------5--------2--------5--7br---5----|
D-7-------5-------7------7--5--7br--5--7-|-7-------5--------2-----7--5--7br---5--7-|
A-0--0-0-----0-0---------7---------------|-0--0-0-----------0-----7----------------|
E----------------------------------------|---------------3-------------------------|


  A       C       D                        A       C       A

  brokren body     in    a wreck       I   wrapped around a   tree             A

     Pm-     Pm-                              Pm-        Pm

e----------------------------------------|------------------------------------------|
B----------------------------------------|------------------------------------------|
G---------5-------7---------5--7br--5----|---------5---------2--------5--7br---5----|
D-7-------5-------7------7--5--7br--5--7-|-7-------5---------2-----7--5--7br---5--7-|
A-0--0-0-----0-0---------7---------------|-0--0-0------------0-----7----------------|
E----------------------------------------|----------------3-------------------------|


  A       C       D                        A       C       A

  cross-walk        hit  and   run    the  finish  line  for me

     Pm-     Pm-                              Pm-       Pm

e----------------------------------------|-----------------------------------------|
B----------------------------------------|-----------------------------------------|
G---------5-------7---------5--7br--5----|---------5--------2--------5--7br---5----|
D-7-------5-------7------7--5--7br--5--7-|-7-------5--------2-----7--5--7br---5--7-|
A-0--0-0-----0-0---------7---------------|-0--0-0-----------0-----7----------------|
E----------------------------------------|---------------3-------------------------|

  A       C       D                        A       C       A

  People  clutter   in   the   gutter      take a  look and see

     Pm-     Pm-                              Pm-       Pm

e----------------------------------------|----------------------|
B----------------------------------------|----------------------|
G---------5-------7---------5--7br--5----|---------5--------2---|
D-7-------5-------7------7--5--7br--5--7-|-7-------5--------2---|
A-0--0-0-----0-0---------7---------------|-0--0-0-----------0---|
E----------------------------------------|---------------3------|


Chorus

  A                                      F

  No escaping pain                       You  belong to me

    Hold-----------                      Hold--------------
e--------------------------------------|---------------------------------------|
B--------------------------------------|---------------------------------------|
G-2-----2-----2-----------5--7br--5----|--------------------------5--7br--5----|
D---------------------7---5--7br--5--7-|-3------3------3------7---5--7br--5--7-|
A----0----------------7----------------|------------------5---7----------------|
E----------4------3--------------------|----1------0---------------------------|

  A                                      F

  Clinging on to life         by the     skin of my teeth

    Hold-----------                      Hold--------------
e--------------------------------------|---------------------------------------|
B--------------------------------------|---------------------------------------|
G-2-----2-----2-----------5--7br--5----|--------------------------5--7br--5----|
D---------------------7---5--7br--5--7-|-3------3------3------7---5--7br--5--7-|
A----0----------------7----------------|------------------5---7----------------|
E----------4------3--------------------|----1------0---------------------------|


  A                                      F

  No escaping pain                       You  belong to me

    Hold-----------                      Hold--------------
e--------------------------------------|---------------------------------------|
B--------------------------------------|---------------------------------------|
G-2-----2-----2-----------5--7br--5----|--------------------------5--7br--5----|
D---------------------7---5--7br--5--7-|-3------3------3------7---5--7br--5--7-|
A----0----------------7----------------|------------------5---7----------------|
E----------4------3--------------------|----1------0---------------------------|

  A                                      F

  Clinging on to life         by the     skin of my teeth           And my

    Hold-----------                      Hold--------------
e--------------------------------------|-----------------------------------|
B--------------------------------------|-----------------------------------|
G-2-----2-----2-----------5--7br--5----|-----------------------------------|
D---------------------7---5--7br--5--7-|-3------3------3-------------------|
A----0----------------7----------------|------------------5b(Gradual Bend)-|
E----------4------3--------------------|----1------0-----------------------|
  

2nd Verse 

  A       C       D                        A       C       A

  blood flows through the streets          Deluge from the wounds

     Pm-     Pm-                              Pm-       Pm

e----------------------------------------|-----------------------------------------|
B----------------------------------------|-----------------------------------------|
G---------5-------7---------5--7br--5----|---------5--------2--------5--7br---5----|
D-7-------5-------7------7--5--7br--5--7-|-7-------5--------2-----7--5--7br---5--7-|
A-0--0-0-----0-0---------7---------------|-0--0-0-----------0-----7----------------|
E----------------------------------------|---------------3-------------------------|




  A       C       D                        A       C       A

  Empty jar of sleeping pills              On the dresser in my room  

     Pm-     Pm-                              Pm-        Pm

e----------------------------------------|------------------------------------------|
B----------------------------------------|------------------------------------------|
G---------5-------7---------5--7br--5----|---------5---------2--------5--7br---5----|
D-7-------5-------7------7--5--7br--5--7-|-7-------5---------2-----7--5--7br---5--7-|
A-0--0-0-----0-0---------7---------------|-0--0-0------------0-----7----------------|
E----------------------------------------|----------------3-------------------------|



  A       C       D                        A       C       A

  My wet brain neighbour cranes            His neck to see in time

     Pm-     Pm-                              Pm-       Pm

e----------------------------------------|-----------------------------------------|
B----------------------------------------|-----------------------------------------|
G---------5-------7---------5--7br--5----|---------5--------2--------5--7br---5----|
D-7-------5-------7------7--5--7br--5--7-|-7-------5--------2-----7--5--7br---5--7-|
A-0--0-0-----0-0---------7---------------|-0--0-0-----------0-----7----------------|
E----------------------------------------|---------------3-------------------------|



  A       C       D                        A       C       A

  The white lights a train                 Bearing down on me

     Pm-     Pm-                              Pm-       Pm

e----------------------------------------|----------------------|
B----------------------------------------|----------------------|
G---------5-------7---------5--7br--5----|---------5--------2---|
D-7-------5-------7------7--5--7br--5--7-|-7-------5--------2---|
A-0--0-0-----0-0---------7---------------|-0--0-0-----------0---|
E----------------------------------------|---------------3------|




2nd Chorus



  A                                      F

  No escaping pain                       You  belong to me

    Hold-----------                      Hold--------------
e--------------------------------------|---------------------------------------|
B--------------------------------------|---------------------------------------|
G-2-----2-----2-----------5--7br--5----|--------------------------5--7br--5----|
D---------------------7---5--7br--5--7-|-3------3------3------7---5--7br--5--7-|
A----0----------------7----------------|------------------5---7----------------|
E----------4------3--------------------|----1------0---------------------------|



  A                                      F

  Clinging on to life         by the     skin of my teeth

    Hold-----------                      Hold--------------
e--------------------------------------|---------------------------------------|
B--------------------------------------|---------------------------------------|
G-2-----2-----2-----------5--7br--5----|--------------------------5--7br--5----|
D---------------------7---5--7br--5--7-|-3------3------3------7---5--7br--5--7-|
A----0----------------7----------------|------------------5---7----------------|
E----------4------3--------------------|----1------0---------------------------|



  A                                      F

  No escaping pain                       You  belong to me

    Hold-----------                      Hold--------------
e--------------------------------------|---------------------------------------|
B--------------------------------------|---------------------------------------|
G-2-----2-----2-----------5--7br--5----|--------------------------5--7br--5----|
D---------------------7---5--7br--5--7-|-3------3------3------7---5--7br--5--7-|
A----0----------------7----------------|------------------5---7----------------|
E----------4------3--------------------|----1------0---------------------------|



  A                                      F

  Clinging on to life         by the     skin of my teeth           And my

    Hold-----------                      Hold--------------
e--------------------------------------|-----------------------------------|
B--------------------------------------|-----------------------------------|
G-2-----2-----2-----------5--7br--5----|-----------------------------------|
D---------------------7---5--7br--5--7-|-3------3------3-------------------|
A----0----------------7----------------|------------------5b(Gradual Bend)-|
E----------4------3--------------------|----1------0-----------------------|
  

 

Solo



 Gtr 2(Marty)
e--------------------|-/12------------------------|------------------|
B---8b~~~~~~---------|-----13--12--13--12---------|-12b~~~~~~--------|
G--------------------|---------------------14-----|------------------|
D--------------------|-------------------------14-|------------------|
A--------------------|----------------------------|------------------|
E--------------------|----------------------------|------------------|
                                                                     |
 Pm------------        Pm----------------------------------------    |
 Gtr 1(Dave)                                                         |
E--------------------|----------------------------|------------------|
B--------------------|----------------------------|------------------|
G--------------------|----------------------------|------------------|
D--------------------|----------------------------|------------------|
A--0--------3-----0--|-3--0-----0-----------------|-0--------3-----0-|
E-----3--3-----3-----|-------3-----3--2--0--------|----3--0-----3----|



                        F#       G        A      D           C

e-15b-----------------|-15br-12-14br----12~~~-|------------------------------|
B--------15b~~~-------|--------------15-------|---13h15p13-15p13----13-------|
G---------------------|-----------------------|------------------14----14br--|
D---------------------|-----------------------|------------------------------|
A---------------------|-----------------------|------------------------------|
E---------------------|-----------------------|------------------------------|
                                                                             |
                                                                             |
  Pm------------------------------------                                     |
e---------------------|-----------------------|------------------------------|
B---------------------|-----------------------|------------------------------|
G---------------------|-------------------2---|--7--7--7--7--5---------------|
D---------------------|-------4--------5--2---|--7--7--7--7--5---------------|
A-3--0-----0----------|----4--------5-----0---|--5--5--5--5--3---------------|
E-------3-----3--2--0-|-2--------3------------|------------------------------|



                       G          A

e--------------------|----------------------------|-------------------------------------|
B-13-15-15br13-15br--|-13--------------------17---|-22p17-------17-20p19p17----17h20p17-|
G--------------------|----14~~~~-------17h18------|-------18h19-------------19----------|
D--------------------|----------------------------|-------------------------------------|
A--------------------|----------------------------|-------------------------------------|
E--------------------|----------------------------|-------------------------------------|
                                                                                        |
   Pm------------                                   Pm-----------                       |
                                                                                        |
E--------------------|----------------------------|-------------------------------------|
B--------------------|-8--8--8--8/10--10----------|-------------------------------------|
G--------------------|-7--7--7--7/9---9-----------|-------------------------------------|
D--------------------|-5--5--5--5/7---7-----------|-------------------------------------|
A--0--------3-----0--|-5--5--5--5/7---7-----------|-0--------3-----0--------------------|
E-----3--0-----3-----|----------------------------|----3--3-----3-----------------------|



e-19-------------------------------------|----------------------------------------------|
B----17----17----------------------------|----------------------------------------------|
G-------19----19p17----17-19-19-19-19p17-|----17--19-16h17p16----16---------------------|
D-------------------19-------------------|-19-----------------19----19--17-515h17p15----|
A----------------------------------------|-------------------------------------------19-|
E----------------------------------------|----------------------------------------------|
                                                                                        |
                                                                                        |
  Pm------------------------------------------------------                              |
e----------------------------------------|----------------------------------------------|
B----------------------------------------|----------------------------------------------|
G----------------------------------------|----------------------------------------------|
D----------------------------------------|----------------------------------------------|
A-3--0-----0-----------------------------|-0--------3-------0---------------------------|
E-------3-----3--2--0--------------------|----3--0-------3------------------------------|



                            F#       G                     D           C

e-------------------------|--------------------------|-------------------|
B-------------------------|-7--7--7--8--8--8--10--10-|-10----------------|
G-------------------------|--------------------------|-----9br~~~~-------|
D-\10--------(10)/19\-----|-4--4--4--5--5--5--7---7--|-7-----------------|
A-------------------------|--------------------------|-------------------|
E-------------------------|--------------------------|-------------------|
                                                                         |
                                                                         |
      Pm------------------------------------                             |
e-------------------------|--------------------------|-------------------|
B-------------------------|--------------------------|-------------------|
G-------------------------|-------------------2------|-----7--7--7--7--5-|
D-------------------------|-------2--------5--2------|-----7--7--7--7--5-|
A-----3--0-----0----------|----2--------5-----0------|-----5--5--5--5--3-|
E-----------3-----3--2--0-|-2--------3---------------|-------------------|



 
                          G          A

e--------------------|------------------------8-|-----------------7----------|
B--------------------|-----------------8--10----|-10b~~~--------7---10p7-----|
G-------7b-7pb--7--5-|-5--5--------/9-----------|------------------------9br-|
D--------------------|-------7~~~---------------|----------------------------|
A--------------------|--------------------------|----------------------------|
E--------------------|--------------------------|----------------------------|
                                                                             |
                                                                             |
  Pm-------------                                 Pm-------------            |
e--------------------|--------------------------|----------------------------|
B--------------------|----8--8--8--8/10--10-----|----------------------------|
G--------------------|----7--7--7--7/9----9-----|----------------------------|
D--------------------|----5--5--5--5/7----7-----|----------------------------|
A-0--------3-------0-|----5--5--5--5/7----7-----|-2--------5-------2---------|
E----3--0-------3----|--------------------------|----5--2-------5------------|




e-7-------------------|-----7--------------------|---------------------|
B---10p7----7-10---7--|-------10p7----7----------|---------------------|
G--------9b------9----|-9br--------10---10p9p7---|--9bf-----7---(7)/---|
D---------------------|------------------------9-|---------------------|
A---------------------|--------------------------|---------------------|
E---------------------|--------------------------|---------------------|
                                                                       |
                                                                       |
  Pm---------------------------------              Pm----------------- |
e---------------------|--------------------------|---------------------|
B---------------------|--------------------------|---------------------|
G---------------------|--------------------------|---------------------|
D---------------------|--------------------------|---------------------|
A-5--2-----2----------|-2--------5-----2---------|-5--2-----2----------|
E-------5-----5--4--2-|----5--2-----5------------|-------5-----5--4--2-|





e-10-12p10----0-12-9h10p9----9----7h9p7----|-7h9p7----7-----------------|
B----------12-------------12---12-------10-|-------10---10p9h10-7~~~-10-|
G------------------------------------------|----------------------------|
D------------------------------------------|----------------------------|
A------------------------------------------|----------------------------|
E------------------------------------------|----------------------------|
                                                                        |
                                                                        |
 Pm--------------                                Pm-----------------    |
e------------------------------------------|----------------------------|
B------------------------------------------|----------------------------|
G------------------------------------------|----------------------------|
D------------------------------------------|----------------------------|
A-2--------5-------2-----------------------|-----5--2-----2-------------|
E----5--2-------5--------------------------|-----------5-----5--4--2----|





                     B                  Bb          A       Ab
  
e---7-10-9-12-10-14-12-10-14-11----|-11-13-10----10-12-9----11-8---|
B-9-----------------------------12-|----------11---------10------9-|
G----------------------------------|-------------------------------|
D----------------------------------|-------------------------------|
A----------------------------------|-------------------------------|
E----------------------------------|-------------------------------|
                                                                   |
                                                                   |
  Pm-------------                                                  |            
e----------------------------------|-------------------------------|
B----------------------------------|-------------------------------|
G----------------------------------|-------------------------------|
D--------------------4-------------|----3-----------2--------------|
A-2--------5---------2-------------|----1-----------0-------6------|
E----5--2-------5------------------|------------------------4------|




e-------------------------------17----------|-----------14-----------------------|
B----------17----------------17----17-------|----13/14-----17p14-17p14-17b-------|
G----17-18----18-17----17-18----------18-17-|------------------------------14h17-|
D-19----------------19----------------------|-19---------------------------------|
A-------------------------------------------|------------------------------------|
E-------------------------------------------|------------------------------------|
                                                                                 |
                                                                                 |
 Pm---------------                            Pm-------------------              |
e-------------------------------------------|------------------------------------|
B-------------------------------------------|------------------------------------|
G-------------------------------------------|------------------------------------|
D-------------------------------------------|------------------------------------|
A-0--------3-------0------------------------|-3--0-------0-----------------------|
E----3--3-------3---------------------------|-------3-------3--2--0--------------|





e----------------------17--------------|----15-----------------17-------|
B-14-17p14----------14----14-15p14-16/-|-17----17-20p17-20b~~~----20p17-|
G----------17p14-17--------------------|--------------------------------|
D--------------------------------------|--------------------------------|
A--------------------------------------|--------------------------------|
E--------------------------------------|--------------------------------|


  Pm---------------------------            Pm------------------  
e--------------------------------------|---------------------------------|
B--------------------------------------|---------------------------------|
G--------------------------------------|---------------------------------|
D--------------------------------------|---------------------------------|
A-0--------3---------0-----------------|----3--0-----0-------------------|
E----3--0--------3---------------------|----------3-----3--2--0----------|




  B        G        A        D                              C
                   
e-----------------17-------|------------------------------17--|
B-20b-20b-20b-20b----20p17-|---------------------------17-----|
G--------------------------|---19br-17-19-17b-17br-19b--------|
D--------------------------|----------------------------------|
A--------------------------|----------------------------------|
E--------------------------|----------------------------------|
                                                              


e--------------------------|----------------------------------|
B--------------------------|----------------------------------|
G-------------------2------|-7---------7-------7------7-----5-|
D-------4--------5--2------|-7---------7-------7------7-----5-|
A----4--------5-----0------|-5---------5-------5------5-----3-|
E-2--------3---------------|----------------------------------|




                                   G           A    
  
e-20b-20-17------------------17-|----------------------------|
B-----------20p17-----17--------|----17----------------------|
G-----------------19b----19b----|-20----17-19b2-17-----------|
D-------------------------------|------------------19~~~~~~\-|
A-------------------------------|----------------------------|
E-------------------------------|----------------------------|
                                                             | 
                                                             |
  Pm-------------                                            |
e-------------------------------|----------------------------|
B-------------------------------|--8--8--8--8/-10--10--------|
G-------------------------------|--7--7--7--7/-9---9---------|
D-------------------------------|--5--5--5--5/-7---7---------|
A-0--------3-------0------------|--5--5--5--5/-7---7---------|
E----3--0-------3---------------|----------------------------|
    


Interlude



   A  Ab G  F# F  E

e--------------------|
B--------------------|
G--------------------|
D--7--6--5--4--3--2--|
A--------------------|
E--------------------|
                     |
                     |
                     |
e--------------------|
B--------------------|
G--------------------|
D--------------------|
A--7--6--5--4--3--2--|
E--5--4--3--2--1--0--|




Then play this



  A
 
e------------------------------------------------------------------|
B------------------------------------------------------------------|
G-----------------------------------------------5---7br-----5------|
D-7-------------7-------------7-----------------5---7br-----5------|
A-0----0---0----0----0---0----0-----0---0---0-------------------0--|
E------------------------------------------------------------------|



  A
 
e------------------------------------------------------------------|
B------------------------------------------------------------------|
G-----------------------------------------------5---7br-----5------|
D-7-------------7-------------7-----------------5---7br-----5------|
A-0----0---0----0----0---0----0-----0---0---0-------------------0--|
E------------------------------------------------------------------|



                  I

  Pick Slides
e-------------------|
B-------------------|
G-------------------|
D-------------------|
A-------------------|
E-x\-x\-x\-x\-x\-x\-|




3rd Verse




  A       C       D                        A       C       A

  won't feel the hurt                      I'm not trash any longer
     Pm-     Pm-                              Pm-       Pm

e----------------------------------------|-----------------------------------------|
B----------------------------------------|-----------------------------------------|
G---------5-------7---------5--7br--5----|---------5--------2--------5--7br---5----|
D-7-------5-------7------7--5--7br--5--7-|-7-------5--------2-----7--5--7br---5--7-|
A-0--0-0-----0-0---------7---------------|-0--0-0-----------0-----7----------------|
E----------------------------------------|---------------3-------------------------|




  A       C       D                        A       C       A

  That that doesn't kill me                Only makes me stronger

     Pm-     Pm-                              Pm-        Pm

e----------------------------------------|------------------------------------------|
B----------------------------------------|------------------------------------------|
G---------5-------7---------5--7br--5----|---------5---------2--------5--7br---5----|
D-7-------5-------7------7--5--7br--5--7-|-7-------5---------2-----7--5--7br---5--7-|
A-0--0-0-----0-0---------7---------------|-0--0-0------------0-----7----------------|
E----------------------------------------|----------------3-------------------------|



  A       C       D                        A       C       A

  I need a ride to the morgue              That's what 911 is for

     Pm-     Pm-                              Pm-       Pm

e----------------------------------------|-----------------------------------------|
B----------------------------------------|-----------------------------------------|
G---------5-------7---------5--7br--5----|---------5--------2--------5--7br---5----|
D-7-------5-------7------7--5--7br--5--7-|-7-------5--------2-----7--5--7br---5--7-|
A-0--0-0-----0-0---------7---------------|-0--0-0-----------0-----7----------------|
E----------------------------------------|---------------3-------------------------|



  A       C       D                        A       C       A

  So tag my toe and don't forget           Ooh, to close the door

     Pm-     Pm-                              Pm-       Pm

e----------------------------------------|-----------------------|
B----------------------------------------|-----------------------|
G---------5-------7---------5--7br--5----|---------5--------2----|
D-7-------5-------7------7--5--7br--5--7-|-7-------5--------2----|
A-0--0-0-----0-0---------7---------------|-0--0-0-----------0----|
E----------------------------------------|---------------3-------|




Chorus



  A                                      F

  No escaping pain                       You  belong to me

    Hold-----------                      Hold--------------
e--------------------------------------|---------------------------------------|
B--------------------------------------|---------------------------------------|
G-2-----2-----2-----------5--7br--5----|--------------------------5--7br--5----|
D---------------------7---5--7br--5--7-|-3------3------3------7---5--7br--5--7-|
A----0----------------7----------------|------------------5---7----------------|
E----------4------3--------------------|----1------0---------------------------|



  A                                      F

  Clinging on to life         by the     skin of my teeth

    Hold-----------                      Hold--------------
e--------------------------------------|---------------------------------------|
B--------------------------------------|---------------------------------------|
G-2-----2-----2-----------5--7br--5----|--------------------------5--7br--5----|
D---------------------7---5--7br--5--7-|-3------3------3------7---5--7br--5--7-|
A----0----------------7----------------|------------------5---7----------------|
E----------4------3--------------------|----1------0---------------------------|



  A                                      F

  No escaping pain                       You  belong to me

    Hold-----------                      Hold--------------
e--------------------------------------|---------------------------------------|
B--------------------------------------|---------------------------------------|
G-2-----2-----2-----------5--7br--5----|--------------------------5--7br--5----|
D---------------------7---5--7br--5--7-|-3------3------3------7---5--7br--5--7-|
A----0----------------7----------------|------------------5---7----------------|
E----------4------3--------------------|----1------0---------------------------|



  A                                      F

  Clinging on to life         by the     skin of my teeth           

    Hold-----------                      Hold--------------
e--------------------------------------|------------------------------------------|
B--------------------------------------|------------------------------------------|
G-2-----2-----2-----------5--7br--5----|------------------------------------------|
D---------------------7---5--7br--5--7-|-3------3------3--------------------------|
A----0----------------7----------------|------------------5b(Gradual Bend)--------|
E----------4------3--------------------|----1------0--------(Hold for a few bars)-|
  



Outro



   A

                           Pm--------------
e--------------------------------------------|
B--------------------------------------------|
G--2--5--5--5--7br--5------------------------|
D--2--5--5--5--7br--5--7---------------------|
A--0-----------------------0-----------3--0--|
E-----------------------------4--3--0--------|

16.She-Wolf 

Riff 1
Guitar 1
e|---------------------------------|
B|---------------------------------|
G|---------------------------------|
D|---------------------------------|
A|---------------------------------|
E|-0-000-0-000-0-000-0-000-000-000-|
   * *** * *** * *** * *** *** ***
  "The mother of all..."

Guitar 2 fill 1:
e|---------------------------------|
B|-14b15r14\-----------------------|
G|-14b15r14\-----------------------|
D|---------------------------------|
A|---------------------------------|
E|---------------------------------|


Riff 2
e|----------------------------------------------|
B|----------------------------------------------|
G|-----0-------0--------------------------------|
D|-5---5---5---5---5--3-4-5\--3-4-5\--3-4-5-3-4-|
A|-3---6---3---6---3--1-2-3\--1-2-3\--1-2-3-1-2-|
E|----------------------------------------------|
                      * *     * *     * *   * * 
  "Wicked temptress...."
e|---------------------------------|
B|---------------------------------|
G|---------------------------------|
D|-5-------------------------------|
A|-3-333-3-333-3-333-3-333-333-333-|
E|---------------------------------|
     *** * *** * *** * *** *** ***

Guitar 2 fill 1:
e|-------------------------|
B|-------------------------|
G|------------------7b8~~--|
D|-----5b8*--------(8)r5*--|
A|-------------------------|
E|-------------------------|

e|----------------------------------------------|
B|----------------------------------------------|
G|-----0-------0--------------------------------|
D|-5---5---5---5---5--3-4-5\--3-4-5\--3-4-5-4-3-|
A|-3---6---3---6---3--1-2-3\--1-2-3\--1-2-3-2-1-|
E|----------------------------------------------|
                      * *     * *     * *   *   
  "Priestess roars..."


Play Riff 1   "The rite of the..."
Guitar 2 fill 1:
e|--------------------------------|
B|-14b15r14-14b15[14-14-14-14]r14-|
G|-14b15r14-14b15[14-14-14-14]r14-|
D|--------------------------------|
A|--------------------------------|
E|--------------------------------|

e|-------------------------|
B|-------------------------|
G|-14h16p14--14------------|
D|---------17--17-14-------|
A|------------------17-15~-|
E|-------------------------|


Play Riff 2  "Spellbound..."
Guitar 2 fill 1:
e|--19b20~---19b20-19b20-19b20-19b20---------------|
B|-----------------------------------[16]18r16~~~--|
G|-------------------------------------------------|
D|-------------------------------------------------|
A|-------------------------------------------------|
E|-------------------------------------------------|

Guitar 2 fill 2:
e|-------------------------------|
B|-----------10b11r10p8-10p8-----|
G|---------8-10b11r10p8-10p8-----|
D|----8-10-------------------10\-|
A|-/8----------------------------|
E|-------------------------------|


Riff 3
Guitar 1
e|------------------------|
B|------------------------|
G|------------------------|
D|-----------------8------|
A|-5--------3------6------|
E|-3--------1------6------|
  "The fight...."

Guitar 2
e|------------------------------------------------------|
B|------------------------------------------------------|
G|------------------------------------------------------|
D|--------------------3-----3---5p3~---5--6-5~--6--8-10-|
A|------------3---4h5---4h5---5-------------------------|
E|-3~~--3-6-3---3---------------------------------------|
        * * * * * 

Riff 4
Guitar 1
e|--------------------------------------------------|
B|--------------------------------------------------|
G|--------------------------------------------------|
D|-5----3---------8----5----3-----------------------|
A|-3----1----3----6----3----1----3----5---5-6-5-3---|
E|-----------1----6--------------1----3-----------6-|
  "One look in her..."

Guitar 2
e|-----------------------------------|
B|-----------------------------------|
G|-----------------------------------|
D|-10-10p8----10-8~~-----------------|
A|---------10----------8-8p6---8-6~~-|
E|---------------------------8-------|

e|----------------------------------|
B|----------------------------------|
G|----------------------------------|
D|-10-10p8----10-8~~----------------|
A|---------10----------8-8p6-8-/10~-|
E|----------------------------------|

Guitar 1
e|----------------------------------------------------|
B|----------------------------------------------------|
G|----------------------------------------------------|
D|-5----3---------8----5----3-------------------------|
A|-3----1----3----6----3----1----3----5---5-6-5p3-5p3-|
E|-----------1----6--------------1----3---------------|
  "One look in her..."

Guitar 2
e|-----------------------------------|
B|-----------------------------------|
G|-----------------------------------|
D|-10-10p8----10-8~~-----------------|
A|---------10----------8-8p6---8-6~~-|
E|---------------------------8-------|

e|----------------------------------|
B|----------------------------------|
G|----------------------------------|
D|-10-10p8----10-8~~----------------|
A|---------10----------8-8p6-8-/10~-|
E|----------------------------------|



Play Riff 1   "My desires of flesh..."

Play Riff 2   "Another heartbeat..."
Guitar 2 fill 1:
e|---------------------------------------------------|
B|---------------------------------------------------|
G|----[wah pedal]--------[long hold]-----------------|
D|-10p8--10p8--10p8-------/12b13r12--10p8------------|
A|-----10----10----10-...----------------10-9-8------|
E|---------------------------------------------10-8~-|

Guitar 2 fill 2:
e|-------[wah pedal]---|
B|-19~\\--10b12r10~~~--|
G|--a------------------|
D|---------------------|
A|---------------------|
E|---------------------|


Play Riff 3   "I'm stoned...."
Play Riff 4   "One look..."

Riff 5
e|---------------------------------------|
B|---------------------------------------|
G|---------------------------------------|
D|-5------------------3------------------|
A|-3----3-3-3-3-3-3-3-1----1-1-1-1-1-1-1-|
E|---------------------------------------|
        * * * * * * *      * * * * * * * 
  "Beware what stalks you in the night..."

e|---------------------------------------|
B|---------------------------------------|
G|---------------------------------------|
D|-------------------------------3-----4-|
A|-6------------------5----------1---x-2-|
E|-4----4-4-4-4-4-4-4-3----3-3-3---------|
        * * * * * * *      * * * 
  "Her mystic lips...."

Play Riff 5 again
Guitar 2 fill (very quiet)
e|-8~~~---10~~~~----11~~~~---13~~~--15~~--20~~---|
B|-----------------------------------------------|
G|-----------------------------------------------|
D|-----------------------------------------------|
A|-----------------------------------------------|
E|-----------------------------------------------|


Ending rhythm:

Riff 6  (Play 2x)
e|--------------------------------|
B|--------------------------------|
G|--------------------------------|
D|-5------------------------------|
A|-3--3-3-3-3-3-3-3-3-3-3-3-3-3-3-|
E|--------------------------------|
      * * * * * * * * * * * * * * 
e|----------------------------------|
B|----------------------------------|
G|----------------------------------|
D|-3--------------------------------|
A|-1--1-1-1-1-1-1-1-1-1-1-1-1-1-1-1-|
E|----------------------------------|
      * * * * * * * * * * * * * * * 
e|------------------------------|
B|------------------------------|
G|------------------------------|
D|------------------------------|
A|-6----------------------------|
E|-4--4-4-4-4-4-4-4-4-4-4-4-4-4-|
      * * * * * * * * * * * * * 
e|------------------------------|
B|------------------------------|
G|------------------------------|
D|----------------3----------4--|
A|-5--------------1--1-1-1-1-2--|
E|-3--3-3-3-3-3-3---------------|
      * * * * * *    * * * * 

Riff 7  (Play 4x)
e|-------------------------------|
B|-------------------------------|
G|-------------------------------|
D|-5--------------3--------------|
A|-3--3-3-3-3-3-3-1--1-1-1-1-1-1-|
E|-------------------------------|
      * * * * * *    * * * * * * 
e|-----------------------------|
B|-----------------------------|
G|-----------------------------|
D|------------------------3--4-|
A|-6--------------5-------1--2-|
E|-4--4-4-4-4-4-4-3-3-3-3------|
      * * * * * *   * * * *

Riff 8  (Play 2x)
e|-------------------------------|
B|-------------------------------|
G|-------------------------------|
D|-5--------------3--------------|
A|-3--------------1--------------|
E|-------------------------------|
 
e|-----------------------------|
B|-----------------------------|
G|-----------------------------|
D|------------------------3--4-|
A|-6--------------5-------1--2-|
E|-4--------------3-3-3-3------|
                    * * * * 


Ending leads:

Solo 1 (Play 2x)

Guitar 1
e|--------------------------------|
B|--------------------------------|
G|------7-8-10~--8-7-8~--7--------|
D|-10~---------------------10-8~~-|
A|--------------------------------|
E|--------------------------------|

e|-6---------------------------------|
B|----9-8-6-9-8-6--------------------|
G|----------------8------------------|
D|------------------6~~-----8------6-|
A|----------------------6h8----6h8---|
E|-----------------------------------|

e|-----------------------------------|
B|-----------------------------------|
G|-----------------------------------|
D|-----5~----6---5-6---8~----6---8-9-|
A|-6h8-----8---8-----8-----8---8-----|
E|-----------------------------------|

Guitar 2  (Comes in the second time)
e|--------------------------------|
B|--------------------------------|
G|--8~----------------------------|
D|--------------------------------|
A|--------------------------------|
E|--------------------------------|

e|-----------------------------------------------|
B|-----------------------------------------------|
G|-----------------------------------------------|
D|-----------------------------------------------|
A|-----------------------------------------------|
E|-----------------------------------------------|

e|-----------------------------------|
B|-----------------------------------|
G|-----------------------------------|
D|-----------------------------------|
A|-----------------------------------|
E|-----------------------------------|


Solo 2  (Play 4x)

Guitar 1
e|------------------------------|
B|------------------------------|
G|-8-7----7-8-----8-7----7-8----|
D|-----10------8------10------6-|
A|------------------------------|
E|------------------------------|

e|-------------------------------|
B|-------------------------------|
G|-8-7----7-8-----8-7----7-8-----|
D|-----10------5------10------10-|
A|-------------------------------|
E|-------------------------------|

Guitar 2
e|-----------------------------|
B|-8-6---6-8-----8-6---6-8-----|
G|-----8------7------8------5--|
D|-----------------------------|
A|-----------------------------|
E|-----------------------------|

e|-----------------------------|
B|-8-6---6-8-----8-6---6-8-----|
G|-----8------4------8------8--|
D|-----------------------------|
A|-----------------------------|
E|-----------------------------|

Guitar 3 (only the 3rd and 4th time)
e|-11-10----10-11------11-10----10-11-----|
B|-------13--------11--------13-----------|
G|-------------------------------------13-|
D|----------------------------------------|
A|----------------------------------------|
E|----------------------------------------|

e|-11-10----10-11------11-10----10-11-----|
B|-------13------------------13--------13-|
G|-----------------12---------------------|
D|----------------------------------------|
A|----------------------------------------|
E|----------------------------------------|


Solo 3  (Play 2x)
Guitar 1
e|----------------------------------------|
B|----------------------------------------|
G|-8-8-8-7h8p7---8-----8-8-8-7h8p7---8----|
D|------------10----8-------------10----6-|
A|----------------------------------------|
E|----------------------------------------|

e|----------------------------------------|
B|----------------------------------------|
G|-8-8-8-7h8p7---8-----8-8-8-7h8p7---8----|
D|------------10----5-------------10---10-|
A|----------------------------------------|
E|----------------------------------------|

Guitar 2
e|----------------------------------------|
B|-8-8-8-6h8p6---8-----8-8-8-6h8p6---8----|
G|-------------8----7--------------8----5-|
D|----------------------------------------|
A|----------------------------------------|
E|----------------------------------------|

e|----------------------------------------|
B|-8-8-8-6h8p6---8-----8-8-8-6h8p6---8----|
G|-------------8----4--------------8----8-|
D|----------------------------------------|
A|----------------------------------------|
E|----------------------------------------|

17.Prince of Darkness

Intro (Clean with sound effects)

d|--2-------------------------------|
A|----2-----------------------------|
F|------4--(4)b5r4-(4)b5r4--(4)b5r4-|
C|----------------------------------|
G|----------------------------------|
D|----------------------------------|
         "My victims..."

d|------9--|
A|----8----|
F|--9------|
C|---------|
G|---------|
D|---------|
  "...bones..."

d|-----------------------|
A|-----------------------|
F|-----------------------|
C|-----------------------|
G|--7--------(7)^r-(7)^r-|
D|--0--------------------|
  "...am insidious..."

d|-----|
A|-----|
F|-----|
C|--9--|
G|--7--|
D|--0--|
  "...love..."


Riff 1
Guitar 1 (Clean)
d|---------------------------------|
A|------------3-------5-------8----|
F|----9------4-------6-------6-----| ---|
C|---9------5-------7-------8------|    |
G|--7------5-------7-------7-------|    |
D|-0-------------------------------|    |
   "I strip you of pride..."            |
                                        |--> Play 3x
Guitar 2 (Clean)                        |
d|---------------------------------|    |
A|---------------------------------|    |
F|---------------------------------|    |
C|---------------------------------| ---|
G|-7-------6-------5-------4-------|
D|---------------------------------|

d|----------------|
A|----------------|
F|----------------|
C|----------------|
G|----------------|
D|--0--------0----|
    "More than evil..."


Riff 1a (Distortion)
d|--------------------------|
A|--------------------------|
F|--------------------------|
C|--------------------------|
G|-2-2--2--2--2--2--2--2--2-|
D|-0-0--0--0--0--0--0--0--0-|
   "I am more powerful..."
d|------------------------|
A|------------------------|
F|------------------------|
C|------------------------| --> Play 3x
G|-2--2--2--2--2--2--2--2-|
D|-0--0--0--0--0--0--0--0-|
   "I am more violent..."


Riff 2
d|--------------------------|
A|--------------------------|
F|--------------------------|
C|---------------------0----|
G|-2-2--2--2--2--2--2--0-3--|
D|-0-0--0--0--0--0--0----1--|

d|---------------------------|
A|---------------------------|
F|---------------------------|
C|------------------7--------|
G|-2-2--2--2--2--2--5--8-7-5-|
D|-0-0--0--0--0--0-----6-5-3-|


Riff 2a
d|--------------------------|
A|--------------------------|
F|--------------------------|
C|---------------------0----|
G|-2-2--2--2--2--2--2--0-3--|
D|-0-0--0--0--0--0--0----1--|
   "Yeah, yeah, I'm evil..."
d|-----------------------------------------|
A|-----------------------------------------|
F|-----------------------------------------|
C|---------------1010-101010-101010-101010-|
G|-2-2--2--2--2---8-8--8-8-8--8-8-8--8-8-8-|
D|-0-0--0--0--0----------------------------|
   "...I am..."
d|-------------------------------|
A|-------------------------------|
F|-------------------------------|
C|-101010-101010-101010-10101010-|
G|--8-8-8--8-8-8--8-8-8--8-8-8-8-|
D|-------------------------------|


Riff 3
Guitar 1
d|---------------------------------|
A|---------------------------------|
F|---------------------------------|
C|---2---2---2---2---2---2---2---2-|
G|---------------------------------|
D|-0---0---0---0---3---3---3---3---|
   "My kingdom..."
d|---------------------------------|
A|---------------------------------|
F|---------------------------------|
C|---2---2---2---2---2---2---------|
G|-0---0---0---0---1---1---0-1-2---|
D|-------------------------------3-|
   "Your sins erupt..."


Guitar 2 (Comes in later)
d|-----12----------12--------|
A|-----15b17-------15b17-----|
F|---------------------------|
C|-14--------14----------14--|
G|---------------------------|
D|---------------------------|
  "...darkness..."
d|-12----------12--------|
A|-15b17-------15b17-----|
F|-----------------------|
C|-------14----------14--|
G|-----------------------|
D|-----------------------|


Riff 4                        x3
d|-----------------------------|
A|-----------------------------|
F|-----------------------------|
C|-----------------------------|
G|------2---------2---------2--|
D|-0000-0----0000-0----0000-0--|
   ****      ****      ****
   "...darkness..."
d|---------------------------------|
A|---------------------------------|
F|---------------------------------|
C|---------------------------------|
G|------2---------2-------5--4--3--|
D|-0000-0----0000-0----0--3--2--1--|
   ****      ****      *


Play Riff 2   "I take what you love..."


Guitar fills over Riff 2:
#1
d|--------------------|
A|--------------------|
F|--6b7~~~----6b7~~~--|
C|--------------------|
G|--------------------|
D|--------------------|
   "...games, [your hopes...]"

#2
d|--15^--15^--15b16~~~~~*--|
A|-------------------------|
F|-------------------------|
C|-------------------------|
G|-------------------------|
D|-------------------------|
  "...While you burn..."



Play Riff 2a   "While you burn..."
Play Riff 3    "My kingdom..."


Interlude: (12-string guitar)
d|-------------------------------------|
A|-------------------------------------|
F|-------------------------------------|
C|----2--1-----2--1-----2--1-----2--1--|
G|-------------------------------------|
D|-0--------3--------2--------3--------|

d|----------------------------|
A|----------------------------|
F|----2--------2--------2-----|
C|-------4--------4--------4--|
G|-2--------3--------2--------|
D|----------------------------|

d|-------------------------------|
A|-------------------------------|
F|----3--------3------3--------3-|
C|-------3---------------3-------|
G|-------------------------------|
D|-3--------2------3--------2----|

d|----------------------------------|
A|----------------------4--------2--|
F|----6--------6-----------3--------|
C|-------6--------6-----------------|
G|----------------------------------|
D|-6--------5--------4--------2-----|

d|-------------------------------------|
A|----2--------2--------2--------2-----|
F|-------2--------2--------2--------2--|
C|-------------------------------------|
G|-------------------------------------|
D|-2--------1--------2--------1--------|

(Distortion)
d|---------------------------|
A|---------------------------|
F|---------------------------|
C|-1010-101010-101010-101010-|
G|--8-8--8-8-8--8-8-8--8-8-8-|
D|---------------------------|

d|-------------------------------|
A|-------------------------------|
F|-------------------------------|
C|-101010-101010-101010-10101010-|
G|--8-8-8--8-8-8--8-8-8--8-8-8-8-|
D|-------------------------------|


Riff 4a (Play 2x)
Guitar 1
d|-----------------------------|
A|-----------------------------|
F|-----------------------------|
C|-----------------------------|
G|------2---------2---------2--|
D|-0000-0----0000-0----0000-0--|
   ****      ****      ****
d|---------------------------------|
A|---------------------------------|
F|---------------------------------|
C|---------------------------------|
G|------2---------2-------5--4--3--|
D|-0000-0----0000-0----0--3--2--1--|
   ****      ****      *

Guitar 2
d|---------------|
A|---------17~~--|
F|-15--16--------|
C|---------------|
G|---------------|
D|---------------|


Riff 4b (Solo Rhythm)             x3
d|---------------------------------|
A|---------------------------------|
F|---------------------------------|
C|---------------------------------|
G|------2---------2-------5--4--3--|
D|-0000-0----0000-0----0--3--2--1--|
   ****      ****      *
d|---------------------------|
A|---------------------------|
F|---------------------------|
C|---------------------------|
G|----5--4--3-------5--4--3--|
D|-0--3--2--1----0--3--2--1--|
   *             *

Solo
d|------------------------------------------|
A|------------------------------------------|
F|------------------------------------------|
C|-------9--8--(8)b9r8-(8)b9r8-8~~----5b6r5-|
G|----7-------------------------------------|
D|-7----------------------------------------|

d|-----------------[12]13r10--------------------------|
A|----------------------------------12-11--(11)b12r10-|
F|---------[9]10r9-------------9~~--------------------|
C|---------------------------9------------------------|
G|-7b8r7----------------------------------------------|
D|----------------------------------------------------|

d|------------------------------------------------|
A|-/15-14--(14)b15r14--15-14~~--17-15~~--18-17~~~-|
F|------------------------------------------------|
C|------------------------------------------------|
G|------------------------------------------------|
D|------------------------------------------------|

d|--------------------|
A|-15h7p15------------|
F|---------17--16~~*--|
C|--------------------|
G|--------------------|
D|--------------------|

d|-17-15--------18-17-15-----------------------------|
A|-------17-15-----------17-15-15-14-13-12-----------|
F|-----------------------------------------14-12~~~--|
C|---------------------------------------------------|
G|---------------------------------------------------|
D|---------------------------------------------------|

End Solo


Riff 3
Guitar 1
d|---------------------------------|
A|---------------------------------|
F|---------------------------------|
C|---2---2---2---2---2---2---2---2-|
G|---------------------------------|
D|-0---0---0---0---3---3---3---3---|
   "...darkness..."
d|---------------------------------|
A|---------------------------------|
F|---------------------------------|
C|---2---2---2---2---2---2---------|
G|-0---0---0---0---1---1---0-1-2---|
D|-------------------------------3-|
   "Your satanic..."

Guitar 2
d|-----12----------12--------|
A|-----15b17-------15b17-----|
F|---------------------------|
C|-14--------14----------14--|
G|---------------------------|
D|---------------------------|

d|-12----------12--------|
A|-15b17-------15b17-----|
F|-----------------------|
C|-------14----------14--|
G|-----------------------|
D|-----------------------|


Ending Rhythm
d|-----------------------------|
A|-----------------------------|
F|-----------------------------|
C|-----------------------------|  ---------------|
G|------2---------2---------2--|                 |
D|-0000-0----0000-0----0000-0--|                 |
   ****      ****      ****                      |
d|-------------------------------------------|   |--> Play 2x
A|-------------------------------------------|   |
F|-------------------------------------------|   |
C|-------------------------------------------| --|
G|------2---------2---------2-------5--4--3--|
D|-0000-0----0000-0----0000-0----0--3--2--1--|
   ****      ****      ****      *

d|-----------------------------|
A|-----------------------------|
F|-----------------------------|
C|-----------------------------| --> Play 3x
G|-2--5--4--3----2--6--5--4--3-|
D|-0--3--2--1----0--4--3--2--1-|


d|-------------------------------------------|
A|-------------------------------------------|
F|-------------------------------------------|
C|-------------------------------------------|
G|-2--5--4--3----------------2--6--5--4--3-2-|
D|-0--3--2--1----------------0--4--3--2--1-0-|


Ending Solo
NOTE: Some effect is used so the following two bars are
an octave lower than the actual notes.
d|-/19----/18----/17----/18----/17----/17----/16----/17----|
A|-----19-----19-----19-----17-----17-----16-----16-----17-|
F|---------------------------------------------------------|
C|---------------------------------------------------------|
G|---------------------------------------------------------|
D|---------------------------------------------------------|

d|-16\-15\-14\--12----12----12----\10------|
A|-----------------12----12----12-----10---|
F|-----------------------------------------|
C|-----------------------------------------|
G|---------------------------------------x-|
D|-----------------------------------------|


d|---------------------------------------------------|
A|----12----12^-------14--(14)b16------------(16)r14-|
F|----12----12^-------14--(14)b16------------(16)r14-|
C|-12--------------14--------\----------------/------|
G|----------------------------\--[long hold]-/-------|
D|---------------------------------------------------|

d|-------------------------------------------------------|
A|-12h15p12-12-12-12-12-12-12-12h15p12-12-12-12-12-12-12-|
F|-------------------------------------------------------|
C|-------------------------------------------------------|
G|-------------------------------------------------------|
D|-------------------------------------------------------|

d|-------------------------------------------------------|
A|-12h17p12-12-12-12-12-12-12-12h17p12-12-12-12-12-12-12-|
F|-------------------------------------------------------|
C|-------------------------------------------------------|
G|-------------------------------------------------------|
D|-------------------------------------------------------|

d|------------------------------------------------------------------|
A|-12h15p12------12-12h15p12------12-12h17p12------12-12h17p12------|
F|---------14b16------------14b16------------14b16------------14b16-|
C|------------------------------------------------------------------|
G|------------------------------------------------------------------|
D|------------------------------------------------------------------|

d|------------------------------------------------------------------|
A|-12h15p12------12-12h15p12------12-12h17p12------12-12h17p12------|
F|---------14b16------------14b16------------14b16------------14b16-|
C|------------------------------------------------------------------|
G|------------------------------------------------------------------|
D|------------------------------------------------------------------|

d|-17p15p12------17p15p12------18p16p13------18p16p13------|
A|---------15p12---------15p12---------16p13---------16p13-|
F|---------------------------------------------------------|
C|---------------------------------------------------------|
G|---------------------------------------------------------|
D|---------------------------------------------------------|

d|-19p17p14------19p17p14------20p18p15------20p18p15------|
A|---------17p14---------17p14---------18p15---------18p15-|
F|---------------------------------------------------------|
C|---------------------------------------------------------|
G|---------------------------------------------------------|
D|---------------------------------------------------------|

d|-21p19p16------22p20p17------23p21p18------24p22p19------|
A|---------19p16---------20p17---------21p18---------22p19-|
F|---------------------------------------------------------|
C|---------------------------------------------------------|
G|---------------------------------------------------------|
D|---------------------------------------------------------|

NOTE: Again, some effect is used so here are the notes an octave lower.
d|-12//17//24tm----(24)\--|
A|-12//17//24tm----(24)\--|
F|------------------------|
C|-[steady gliss]---------|
G|------------------------|
D|------------------------|

d|--------------------------------------|
A|--------12-----12-----12--------------|
F|-15b16-----15-----14-----12h14-12~~~\-|
C|--------------------------------------|
G|--------------------------------------|
D|--------------------------------------|

End Solo

Thats it i'mma gonna sleep now, please rate and say stuff about it.
comments
print report bad tab
9 comments total. Showing first comments.
+1 reply
I was here wrote on November 14 2006, 08:32 pm

Holy crap don't bother printing this tab out it's 158 pages long, trust me i know

+1 reply
Oasis-fanatic wrote on January 13 2007, 06:56 am

good tab mate

0 reply
jimmyj123 wrote on January 17 2007, 02:41 am

a tout le mondes tuning is wrong eb it should be

I want to post or [tab]
guest
You may want to rate the tab now too:
select rating
Please do not post tabs as comments. Select "correction" instead!