Oops, an error
Loading. Please wait.

Hangar 18 Bass Tab

ver3
ver3
More versions @911Tabs.com
1,732 views 30 this week
no commentswrite comment
1 2 3 4 5
excellent!
x 1
Autoscroll
+/-
esc
set tempo
stop
Contributor
Difficulty
advanced
Hey! There's an official Ultimate Guitar app which is ideal
for learning songs when you're away from computer. Get the app
WARNING: You are trying to view
                                    content from Ultimate-Guitar.com
                                    in an unauthorized application,
                                    which is prohibited.

                                    Please use an official Ultimate
                                    Guitar Tabs application for iPhone,
                                    iPad or Android to access legitimate
                                    chords, guitar, bass, and drum tabs
                                    from Ultimate-Guitar.com database.

                                    Type "ultimate guitar tabs" in Apple
                                    App Store's or Android Market's
                                    search to find the application.
-------------------------------------------------------------------------------
                                         HANGAR 18 - MegadetH
-------------------------------------------------------------------------------

Tabbed By: MetalFrancis
e-mail: ---
Album: Rust In Peace

Ok, Dave E. (Megadeth's bassist) actually plays this song using a 5-Strings bass
both live and studio. You could always play this on a 4-Strings bass by tuning it
in Drop D (DADG) but will be very hard to play the "Solos part". Anyway, enjoy, 
rate and comment!

Tuning: Standard BEADG

Intro (0:00)
     E  E  E  E  E  E  E  E     E  E  E  E  E  E  E  E   
G||--------------------------|--------------------------|
D||--------------------------|--------------------------|
A||--------------------------|--------------------------|
E||--5-----------------------|--------------------------|
B||-----3--3--3--3--3--3--3--|--3--3--3--3--3--3--3--3--|


  E  E  E  E  E  E  E  E     E  E  E  E  E  E  E  E   
--------------------------|--------------------------|
--------------------------|--------------------------|
--------------------------|--------------------------|
--6-----------------------|--------------------------|
-----3--3--3--3--3--3--3--|--3--3--3--3--3--3--3--3--|


  E  E  E  E  E  E  E  E     E  E  E  E  E  E  E  E   
--------------------------|--------------------------|
--------------------------|--------------------------|
--2-----------------------|--------------------------|
--------------------------|--------------------------|
-----3--3--3--3--3--3--3--|--3--3--3--3--3--3--3--3--|


  E  E  E  E  E  E  E  E     E  E  E  E  E  E  E  E   
--------------------------|--------------------------|
--------------------------|--------------------------|
--3-----------------------|--------------------------|
--------------------------|--------------------------|
-----3--3--3--3--3--3--3--|--3--3--3--3--3--3--3--3--|


  E  E  E  E  E  E  E  E     E  E  E  E  E  E  E  E   
--------------------------|--------------------------|
--------------------------|--------------------------|
--5-----------------------|--------------------------|
--------------------------|--------------------------|
-----3--3--3--3--3--3--3--|--3--3--3--3--3--3--3--3--|


  E  E  E  E  E  E  E  E     E  E  E  E  E  E  E  E   
--------------------------|--------------------------|
--------------------------|--------------------------|
--5-----------------------|--------------------------|
--------------------------|--------------------------|
-----3--3--3--3--3--3--3--|--3--3--3--3--3--3--3--3--|


  E  E  E  E  E  E  E  E     E  E  E  E  E  E  E  E   
--------------------------|--------------------------|
--------------------------|--------------------------|
--5-----------------------|--------------------------|
--------------------------|--------------------------|
-----3--3--3--3--3--3--3--|--3--3--3--3--3--3--3--3--|


  E  E  E  E  E  E  E    E      E   E   E   E   E   E   Q      
----------------------------|---------------------------------|
----------------------------|---------------------------------|
--5-------------------------|---------------------------------|
--------------------5/--16--|--17--17--17--17--17--17---------|
-----3--3--3--3--3----------|--------------------------19\----|

Bridge (0:24)
  W                   W                   W                   W                 
-------------------|-------------------|-------------------|-------------------|
-------------------|--L----------------|-------------------|--L----------------|
--0----------------|--L----------------|--1----------------|--L----------------|
-------------------|-------------------|-------------------|-------------------|
-------------------|-------------------|-------------------|-------------------|


  W                   W                   W                   W                 
-------------------|-------------------|-------------------|-------------------|
-------------------|--L----------------|-------------------|--L----------------|
--2----------------|--L----------------|--3----------------|--L----------------|
-------------------|-------------------|-------------------|-------------------|
-------------------|-------------------|-------------------|-------------------|


  Q.     E    E   E   E  E     W                   Q.     E    E   E   E  E   
----------------------------|-------------------|----------------------------|
----------------------------|-------------------|----------------------------|
----------------------------|-------------------|----------------------------|
--5------5/--10--10--10-----|-------------------|--6------6/--10--10--10-----|
-------------------------3--|--L----------------|-------------------------3--|


  W                   Q.     E    E   E   E  E     W                 
-------------------|----------------------------|-------------------|
-------------------|----------------------------|-------------------|
-------------------|----------------------------|-------------------|
-------------------|--7------7/--10--10--10-----|-------------------|
--L----------------|-------------------------3--|--L----------------|


  Q.     E    E   E   E  E     E  E  E  E  E  E  E  E   
----------------------------|--------------------------|
----------------------------|--3--2--0-----------------|
----------------------------|-----------3--1--0--------|
--8------8/--10--10--10-----|--------------------3--1--|
-------------------------3--|--------------------------|

Verse 1 (0:48)
  E  E  E  E  E  E  E  E     E  E  E  E  E  E  E  E   
--------------------------|--------------------------|
--------------------------|--------------------------|
-----------5--------------|--------------------------|
--5-----------------------|--------------------------|
-----3--3-----3--3--3--3--|--3--3--3--3--3--3--3--3--|


  E  E  E  E  E  E  E  E     E  E  E  E  E  E  E  E   
--------------------------|--------------------------|
--------------------------|--------------------------|
--------------------------|--------------------------|
--------------------------|--------------------------|
--3--3--3--3--3--3--3--3--|--3--3--3--3--3--3--3--3--|


  E  E  E  E  E  E  E  E     E  E  E  E  E  E  E  E   
--------------------------|--------------------------|
--------------------------|--------------------------|
-----------5--------------|--------------------------|
--5-----------------------|--------------------------|
-----3--3-----3--3--3--3--|--3--3--3--3--3--3--3--3--|


  E  E  E  E  E  E  E  E     E  E  E  E  E  E  E  E   
--------------------------|--------------------------|
--------------------------|--------------------------|
--2--------5--------------|--------------------------|
--------------------------|--------------------------|
-----3--3-----3--3--3--3--|--3--3--3--3--3--3--3--3--|


  E  E  E  E  E  E  E  E     E  E  E  E  E  E  E  E   
--------------------------|--------------------------|
--------------------------|--------------------------|
-----------5--------------|--------------------------|
--5-----------------------|--------------------------|
-----3--3-----3--3--3--3--|--3--3--3--3--3--3--3--3--|


  E  E  E  E  E  E  E  E     E  E  E  E  E  E  E  E   
--------------------------|--------------------------|
--------------------------|--------------------------|
--------------------------|--------------------------|
--------------------------|--------------------------|
--3--3--3--3--3--3--3--3--|--3--3--3--3--3--3--3--3--|


  E  E  E  E  E  E  E  E     E  E  E  E  E  E  E  E   
--------------------------|--------------------------|
--------------------------|--------------------------|
-----------5--------------|--------------------------|
--5-----------------------|--------------------------|
-----3--3-----3--3--3--3--|--3--3--3--3--3--3--3--3--|


  E  E  E  E  E  E  E  E     E  E  E  E  E  E  E  E   
--------------------------|--------------------------|
--------------------------|--------------------------|
--2--------5--------------|--------------------------|
--------------------------|--------------------------|
-----3--3-----3--3--3--3--|--3--3--3--3--3--3--3--3--|


  E  E  E  E  E  E  E  E     E  E  E  E  E  E  E  E   
--------------------------|--------------------------|
--------------------------|--------------------------|
-----------5--------------|-----------5--------------|
--5-----------------------|--6-----------------------|
-----3--3-----3--3--3--3--|-----3--3-----3--3--3--3--|

                                                     
  E  E  E  E  E  E  E  E     E  E  E  E  E  E  E  E     Q.      Q    E  E  E   
--------------------------|--------------------------|------------------------|
--------------------------|--------------------------|------------------------|
--2--------5--------------|--3--------5--------------|--5/------0----L--------|
--------------------------|--------------------------|------------------------|
-----3--3-----3--3--3--3--|-----3--3-----3--3--3--3--|------------------3--3--|


  Q.      Q    E  E  E     Q.      Q    E  E  E     E  E  E  Q      E   Q      
------------------------|------------------------|----------------------------|
------------------------|------------------------|----------------------------|
--5/------1----L--------|--5/------2----L--------|--5--3-----3/----10---------|
------------------------|------------------------|---------------------10\----|
------------------3--3--|------------------3--3--|--------3-------------------|

First solo (1:24)
  E  E  E  E  E  E  E  E     E  E  E  E  E  E  E  E   
--------------------------|--------------------------|
--------------------------|--------------------------|
--0--0--0--0--0--0--0--0--|--1--1--1--1--1--1--1--1--|
--------------------------|--------------------------|
--------------------------|--------------------------|


  E  E  E  E  E  E  E  E     E  E  E  E  E  E  E  E   
--------------------------|--------------------------|
--------------------------|--------------------------|
--2--2--2--2--2--2--2--2--|--1--1--1--1--1--1--1--1--|
--------------------------|--------------------------|
--------------------------|--------------------------|


  E  E  E  E  E  E  E  E     E  E  E  E  E  E  E  E   
--------------------------|--------------------------|
--------------------------|--------------------------|
--0--0--0--0--0--0--0--1--|--1--1--1--1--1--1--1--1--|
--------------------------|--------------------------|
--------------------------|--------------------------|


  E  E  E  E  E  E  E  E     E  E  E  E  E  E  E  E   
--------------------------|--------------------------|
--------------------------|--------------------------|
--2--2--2--2--2--2--2--2--|--3--3--3--3--3--3--3--3--|
--------------------------|--------------------------|
--------------------------|--------------------------|


  E  E  E  E  E  E  E  E     E  E  E  E  E  E  E  E   
--------------------------|--------------------------|
--------------------------|--------------------------|
--0--0--0--0--0--0--0--0--|--1--1--1--1--1--1--1--1--|
--------------------------|--------------------------|
--------------------------|--------------------------|


  E  E  E  E  E  E  E  E     E  E  E  E  E  E  E  E   
--------------------------|--------------------------|
--------------------------|--------------------------|
--2--2--2--2--2--2--2--2--|--1--1--1--1--1--1--1--1--|
--------------------------|--------------------------|
--------------------------|--------------------------|


  E  E  E  E   E  E  E  E      E  E  E  E  E  E  E  E   
----------------------------|--------------------------|
--3--3--2--3/--7--5--3------|--------------------------|
------------------------5\--|--1--1--1--1--1--1--1--1--|
----------------------------|--------------------------|
----------------------------|--------------------------|

                                                 Verse 2 (1:48)
  E  E  E  E  E  E  E  E     E  E  Q    H           E  E  E  E  E  E  E  E   
--------------------------|----------------------|--------------------------|
--3--2--0-----------------|----------------------|--------------------------|
-----------3--2--0-----2--|--3-------------------|-----------5--------------|
--------------------3-----|----------------------|--5-----------------------|
--------------------------|----------------------|-----3--3-----3--3--3--3--|


  E  E  E  E  E  E  E  E     E  E  E  E  E  E  E  E   
--------------------------|--------------------------|
--------------------------|--------------------------|
--------------------------|--------------------------|
--------------------------|--------------------------|
--3--3--3--3--3--3--3--3--|--3--3--3--3--3--3--3--3--|


  E  E  E  E  E  E  E  E     E  E  E  E  E  E  E  E   
--------------------------|--------------------------|
--------------------------|--------------------------|
--------------------------|-----------5--------------|
--------------------------|--5-----------------------|
--3--3--3--3--3--3--3--3--|-----3--3-----3--3--3--3--|


  E  E  E  E  E  E  E  E     E  E  E  E  E  E  E  E   
--------------------------|--------------------------|
--------------------------|--------------------------|
--------------------------|--2--------5--------------|
--------------------------|--------------------------|
--3--3--3--3--3--3--3--3--|-----3--3-----3--3--3--3--|


  E  E  E  E  E  E  E  E     E  E  E  E  E  E  E  E   
--------------------------|--------------------------|
--------------------------|--------------------------|
--------------------------|-----------5--------------|
--------------------------|--5-----------------------|
--3--3--3--3--3--3--3--3--|-----3--3-----3--3--3--3--|


  E  E  E  E  E  E  E  E     E  E  E  E  E  E  E  E   
--------------------------|--------------------------|
--------------------------|--------------------------|
--------------------------|--------------------------|
--------------------------|--------------------------|
--3--3--3--3--3--3--3--3--|--3--3--3--3--3--3--3--3--|


  E  E  E  E  E  E  E  E     E  E  E  E  E  E  E  E   
--------------------------|--------------------------|
--------------------------|--------------------------|
--------------------------|-----------5--------------|
--------------------------|--5-----------------------|
--3--3--3--3--3--3--3--3--|-----3--3-----3--3--3--3--|


  E  E  E  E  E  E  E  E     E  E  E  E  E  E  E  E   
--------------------------|--------------------------|
--------------------------|--------------------------|
--------------------------|--2--------5--------------|
--------------------------|--------------------------|
--3--3--3--3--3--3--3--3--|-----3--3-----3--3--3--3--|


  E  E  E  E  E  E  E  E     E  E  E  E  E  E  E  E   
--------------------------|--------------------------|
--------------------------|--------------------------|
--------------------------|-----------5--------------|
--------------------------|--5-----------------------|
--3--3--3--3--3--3--3--3--|-----3--3-----3--3--3--3--|


  E  E  E  E  E  E  E  E     E  E  E  E  E  E  E  E   
--------------------------|--------------------------|
--------------------------|--------------------------|
-----------5--------------|--2--------5--------------|
--6-----------------------|--------------------------|
-----3--3-----3--3--3--3--|-----3--3-----3--3--3--3--|


  E  E  E  E  E  E  E  E     Q.      Q    E  E  E     Q.      Q    E  E  E   
--------------------------|------------------------|------------------------|
--------------------------|------------------------|------------------------|
--3--------5--------------|--5/------0----L--------|--5/------1----L--------|
--------------------------|------------------------|------------------------|
-----3--3-----3--3--3--3--|------------------3--3--|------------------3--3--|


  Q.      Q    E  E  E     E  E  E  Q      E   Q      
------------------------|----------------------------|
------------------------|----------------------------|
--5/------2----L--------|--5--3-----3/----10---------|
------------------------|---------------------10\----|
------------------3--3--|--------3-------------------|

2nd solo (2:24)
  E  E  E  E  E  E  E  E     E  E  E  E  E  E  E  E   
--------------------------|--------------------------|
--------------------------|--------------------------|
--0--0--0--0--0--0--0--0--|--1--1--1--1--1--1--1--1--|
--------------------------|--------------------------|
--------------------------|--------------------------|


  E  E  E  E  E  E  E  E     E  E  E  E  E  E  E  E   
--------------------------|--------------------------|
--------------------------|--------------------------|
--2--2--2--2--2--2--2--2--|--1--1--1--1--1--1--1--1--|
--------------------------|--------------------------|
--------------------------|--------------------------|


  E  E  E  E  E  E  E  E     E  E  E  E  E  E  E  E   
--------------------------|--------------------------|
--------------------------|--------------------------|
--0--0--0--0--0--0--0--1--|--1--1--1--1--1--1--1--1--|
--------------------------|--------------------------|
--------------------------|--------------------------|


  E  E  E  E  E  E  E  E     E  E  E  E  E  E  E  E   
--------------------------|--------------------------|
--------------------------|--------------------------|
--2--2--2--2--2--2--2--2--|--3--3--3--3--3--3--3--3--|
--------------------------|--------------------------|
--------------------------|--------------------------|


  E  E  E  E  E  E  E  E     E  E  E  E  E  E  E  E   
--------------------------|--------------------------|
--------------------------|--------------------------|
--0--0--0--0--0--0--0--0--|--1--1--1--1--1--1--1--1--|
--------------------------|--------------------------|
--------------------------|--------------------------|


  E  E  E  E  E  E  E  E     E  E  E  E  E  E  E  E   
--------------------------|--------------------------|
--------------------------|--------------------------|
--2--2--2--2--2--2--2--2--|--1--1--1--1--1--1--1--1--|
--------------------------|--------------------------|
--------------------------|--------------------------|


  E  E  E  E  E  E  E   E     E  E  E  E  E  E  E  E   
-----------------1---------|--------------------------|
--------2--3--3-----3/--0--|--------------------------|
--0--0---------------------|--1--1--1--1--1--1--1--1--|
---------------------------|--------------------------|
---------------------------|--------------------------|


  E  E  E  E  E  E  E  E     E  E  E  E  E  E  E  E   
--------------------------|--------------------------|
--3--2--0-----------------|--------------------------|
-----------2--1--0--1--2--|--3--3--3--3--3--3--3--3--|
--------------------------|--------------------------|
--------------------------|--------------------------|

                           Solos (2:50)
  E  E  E  E  E  E  E  E     S S S S S S S S S S S S S E  S  
--------------------------|--7------------------------------|
--------------------------|---------------------------------|
--4--4--4--4--4--4--4--4--|----5---5---5---5-8-5---5-5-6--5-|
--------------------------|---------------------------------|
--------------------------|---------------------------------|


  S S S S S S S S S S S S S E  S    S S S S S S S S S S S S S E  S  
--7------------------------------|--7------------------------------|
---------------------------------|---------------------------------|
----5---5---5---5-8-5---5-5-6--5-|----5---5---5---5-8-5---5-5-6--5-|
---------------------------------|---------------------------------|
---------------------------------|---------------------------------|


  S S S S S S S S S S S S S  S S S    S S S S S S S S S S S S S E  S  
--7--------------------------------|--7------------------------------|
--------------------------6p-5-----|---------------------------------|
----5---5---5---5-8-5---5------8-5-|----5---5---5---5-8-5---5-5-6--5-|
-----------------------------------|---------------------------------|
-----------------------------------|---------------------------------|


  S S S S S S S S S S S S S E  S    S S S S S S S S S S S S S E  S  
--7------------------------------|--7------------------------------|
---------------------------------|---------------------------------|
----5---5---5---5-8-5---5-5-6--5-|----5---5---5---5-8-5---5-5-6--5-|
---------------------------------|---------------------------------|
---------------------------------|---------------------------------|


  S S S S S S S S S  S S S S  S S S    S  S S S S S S S S S S S S S E   
--7---------------------------------|-------------------------------0--|
------------------6p-5-----6p-5-----|---------4-------------------0----|
----5---5---5---5------8-5------8-5-|-------------------0--------------|
------------------------------------|--0/-1-2-----2---2---2---2-3------|
------------------------------------|----------------------------------|


  S  S S S S S S S S S S S S  S S S    S  S S S S S S S S S S S S S E   
------------------------------------|-------------------------------0--|
---------4--------------------------|---------4-------------------0----|
-------------------0-------3p-2-0---|-------------------0--------------|
--0/-1-2-----2---2---2---0--------0-|--0/-1-2-----2---2---2---2-3------|
------------------------------------|----------------------------------|


  S  S S S S S S S S  S S S S  S S S    S S S S S S S S S S S S S E  S  
-------------------------------------|--7------------------------------|
---------4---------------------------|---------------------------------|
-------------------3p-2-0---4p-3-1---|----5---5---5---5-8-5---5-5-6--5-|
--0/-1-2-----2---2--------2--------3-|---------------------------------|
-------------------------------------|---------------------------------|


  S S S S S S S S S S S S S E  S    S S S S S S S S S S S S S E  S  
--7------------------------------|--7------------------------------|
---------------------------------|---------------------------------|
----5---5---5---5-8-5---5-5-6--5-|----5---5---5---5-8-5---5-5-6--5-|
---------------------------------|---------------------------------|
---------------------------------|---------------------------------|


  S S S S S S S S S S S S S  S S S    S S S S S S S S S S S S S E  S  
--7--------------------------------|--7------------------------------|
--------------------------6p-5-----|---------------------------------|
----5---5---5---5-8-5---5------8-5-|----5---5---5---5-8-5---5-5-6--5-|
-----------------------------------|---------------------------------|
-----------------------------------|---------------------------------|


  S S S S S S S S S S S S S E  S    S S S S S S S S S S S S S E  S  
--7------------------------------|--7------------------------------|
---------------------------------|---------------------------------|
----5---5---5---5-8-5---5-5-6--5-|----5---5---5---5-8-5---5-5-6--5-|
---------------------------------|---------------------------------|
---------------------------------|---------------------------------|


  S S S S S S S S S  S S S S  S S S    S  S S S S S S S S S S S S S E   
--7---------------------------------|-------------------------------0--|
------------------6p-5-----6p-5-----|---------4-------------------0----|
----5---5---5---5------8-5------8-5-|-------------------0--------------|
------------------------------------|--0/-1-2-----2---2---2---2-3------|
------------------------------------|----------------------------------|


  S  S S S S S S S S S S S S  S  S S    S  S S S S S S S S S S S S S E   
-------------------------------------|-------------------------------0--|
---------4---------------------------|---------4-------------------0----|
-------------------0-------3p-2p-0---|-------------------0--------------|
--0/-1-2-----2---2---2---0---------0-|--0/-1-2-----2---2---2---2-3------|
-------------------------------------|----------------------------------|

                                      "TuRuTuRuTuRu Tuu Tuu" (3:41)
  S  S S S S S S S S  S S S S  S S S    S S S S S S S S E.  S E  E   
-------------------------------------|------------------------------|
---------4---------------------------|------------------------------|
-------------------3p-2-0---4p-3-1---|------------0-----------------|
--0/-1-2-----2---2--------2--------3-|--3-2-0-2-3---3-2-3---3-L--3--|
-------------------------------------|------------------------------|


  S S S S S S S S E.  S E  E     S S S S S S S S E.  S E  E   
------------------------------|------------------------------|
------------------------------|------------------------------|
------------0-----------------|------------0-----------------|
--3-2-0-2-3---3-2-3---3-L--3--|--3-2-0-2-3---3-2-3---3-L--3--|
------------------------------|------------------------------|


  S S S S S S S S E.  S E  E     S  S S S S S S S S S S S S S E   
------------------------------|-------------------------------0--|
------------------------------|---------4-------------------0----|
------------0-----------------|-------------------0--------------|
--3-2-0-2-3---3-2-3---3-L--3--|--0/-1-2-----2---2---2---2-3------|
------------------------------|----------------------------------|


  S  S S S S S S S S S S S S  S  S S    S  S S S S S S S S S S S S S E   
-------------------------------------|-------------------------------0--|
---------4---------------------------|---------4-------------------0----|
-------------------0-------3p-2p-0---|-------------------0--------------|
--0/-1-2-----2---2---2---0---------0-|--0/-1-2-----2---2---2---2-3------|
-------------------------------------|----------------------------------|

                                     "TuRuTuRuTuRu Tuu Tuu" (3:57)
  S  S S S S S S S S  S S S S  S S S    S S S S S S S S E.  S E  E   
-------------------------------------|------------------------------|
---------4---------------------------|------------------------------|
-------------------3p-2-0---4p-3-1---|------------0-----------------|
--0/-1-2-----2---2--------2--------3-|--3-2-0-2-3---3-2-3---3-L--3--|
-------------------------------------|------------------------------|


  S S S S S S S S E.  S E  E     S S S S S S S S E.  S E  E   
------------------------------|------------------------------|
------------------------------|------------------------------|
------------0-----------------|------------0-----------------|
--3-2-0-2-3---3-2-3---3-L--3--|--3-2-0-2-3---3-2-3---3-L--3--|
------------------------------|------------------------------|


  S S S S S S S S E.  S E  E     S  S S S S S S S S S S S S S E   
------------------------------|-------------------------------0--|
------------------------------|---------4-------------------0----|
------------0-----------------|-------------------0--------------|
--3-2-0-2-3---3-2-3---3-L--3--|--0/-1-2-----2---2---2---2-3------|
------------------------------|----------------------------------|


  S  S S S S S S S S S S S S  S  S S    S  S S S S S S S S S S S S S E   
-------------------------------------|-------------------------------0--|
---------4---------------------------|---------4-------------------0----|
-------------------0-------3p-2p-0---|-------------------0--------------|
--0/-1-2-----2---2---2---0---------0-|--0/-1-2-----2---2---2---2-3------|
-------------------------------------|----------------------------------|

                                      "TuRuTuRuTuRu Tuu Tuu" (4:12)
  S  S S S S S S S S  S S S S  S S S    S S S S S S S S E.  S E  E   
-------------------------------------|------------------------------|
---------4---------------------------|------------------------------|
-------------------3p-2-0---4p-3-1---|------------0-----------------|
--0S-1-2-----2---2--------2--------3-|--3-2-0-2-3---3-2-3---3-L--3--|
-------------------------------------|------------------------------|


  S S S S S S S S E.  S E  E     S S S S S S S S E.  S E  E   
------------------------------|------------------------------|
------------------------------|------------------------------|
------------0-----------------|------------0-----------------|
--3-2-0-2-3---3-2-3---3-L--3--|--3-2-0-2-3---3-2-3---3-L--3--|
------------------------------|------------------------------|


  S S S S S S S S E.  S E  E     S  S S S S S S S S S S S S S E   
------------------------------|-------------------------------0--|
------------------------------|---------4-------------------0----|
------------0-----------------|-------------------0--------------|
--3-2-0-2-3---3-2-3---3-L--3--|--0/-1-2-----2---2---2---2-3------|
------------------------------|----------------------------------|


  S  S S S S S S S S S S S S  S  S S    S  S S S S S S S S S S S S S E   
-------------------------------------|-------------------------------0--|
---------4---------------------------|---------4-------------------0----|
-------------------0-------3p-2p-0---|-------------------0--------------|
--0/-1-2-----2---2---2---0---------0-|--0/-1-2-----2---2---2---2-3------|
-------------------------------------|----------------------------------|

                                      "TuRuTuRuTuRu Tuu Tuu" (4:27)
  S  S S S S S S S S  S S S S  S S S    S S S S S S S S E.  S E  E   
-------------------------------------|------------------------------|
---------4---------------------------|------------------------------|
-------------------3p-2-0---4p-3-1---|------------0-----------------|
--0/-1-2-----2---2--------2--------3-|--3-2-0-2-3---3-2-3---3-L--3--|
-------------------------------------|------------------------------|


  S S S S S S S S E.  S E  E     S S S S S S S S E.  S E  E   
------------------------------|------------------------------|
------------------------------|------------------------------|
------------0-----------------|------------0-----------------|
--3-2-0-2-3---3-2-3---3-L--3--|--3-2-0-2-3---3-2-3---3-L--3--|
------------------------------|------------------------------|


  S S S S S S S S E.  S E  E     S  S S S S S S S S S S S S S E   
------------------------------|-------------------------------0--|
------------------------------|---------4-------------------0----|
------------0-----------------|-------------------0--------------|
--3-2-0-2-3---3-2-3---3-L--3--|--0/-1-2-----2---2---2---2-3------|
------------------------------|----------------------------------|


  S  S S S S S S S S S S S S  S  S S    S  S S S S S S S S S S S S S E   
-------------------------------------|-------------------------------0--|
---------4---------------------------|---------4-------------------0----|
-------------------0-------3p-2p-0---|-------------------0--------------|
--0/-1-2-----2---2---2---0---------0-|--0/-1-2-----2---2---2---2-3------|
-------------------------------------|----------------------------------|

                                      "TuRuTuRuTuRu Tuu Tuu" (4:42)
  S  S S S S S S S S  S S S S  S S S    S S S S S S S S E.  S E  E   
-------------------------------------|------------------------------|
---------4---------------------------|------------------------------|
-------------------3p-2-0---4p-3-1---|------------0-----------------|
--0/-1-2-----2---2--------2--------3-|--3-2-0-2-3---3-2-3---3-L--3--|
-------------------------------------|------------------------------|


  S S S S S S S S E.  S E  E     S S S S S S S S E.  S E  E   
------------------------------|------------------------------|
------------------------------|------------------------------|
------------0-----------------|------------0-----------------|
--3-2-0-2-3---3-2-3---3-L--3--|--3-2-0-2-3---3-2-3---3-L--3--|
------------------------------|------------------------------|


  S S S S S S S S E.  S E  E     S  S S S S S S S S S S S S S E   
------------------------------|-------------------------------0--|
------------------------------|---------4-------------------0----|
------------0-----------------|-------------------0--------------|
--3-2-0-2-3---3-2-3---3-L--3--|--0/-1-2-----2---2---2---2-3------|
------------------------------|----------------------------------|


  S  S S S S S S S S S S S S  S  S S    S  S S S S S S S S S S S S S E   
-------------------------------------|-------------------------------0--|
---------4---------------------------|---------4-------------------0----|
-------------------0-------3p-2p-0---|-------------------0--------------|
--0/-1-2-----2---2---2---0---------0-|--0/-1-2-----2---2---2---2-3------|
-------------------------------------|----------------------------------|

                                      Outro (4:56)
  S  S S S S S S S S  S S S S  S S S    S  S S S S S S S S S S S S S E   
-------------------------------------|-------------------------------0--|
---------4---------------------------|---------4-------------------0----|
-------------------3p-2-0---4p-3-1---|-------------------0--------------|
--0/-1-2-----2---2--------2--------3-|--0/-1-2-----2---2---2---2-3------|
-------------------------------------|----------------------------------|


  S  S S S S S S S S S S S S  S  S S    S  S S S S S S S S S S S S S E   
-------------------------------------|-------------------------------0--|
---------4---------------------------|---------4-------------------0----|
-------------------0-------3p-2p-0---|-------------------0--------------|
--0/-1-2-----2---2---2---0---------0-|--0/-1-2-----2---2---2---2-3------|
-------------------------------------|----------------------------------|


  S  S S S S S S S S  S S S S  S S S    W                   H         
-------------------------------------|-------------------|-----------|
---------4---------------------------|-------------------|-----------|
-------------------3p-2-0---4p-3-1---|-------------------|-----------|
--0/-1-2-----2---2--------2--------3-|--3----------------|--L--------|
-------------------------------------|-------------------|-----------|


  S S S S S S S S E.  S E  E     E  S S Q    H                      
------------------------------|-----------------------|-----------||
------------------------------|-----------------------|-----------||
------------0-----------------|-----------------------|-----------||
--3-2-0-2-3---3-2-3---3-L--3--|--2--L-----------------|-----------||
------------------------------|-----------------------|-----------||




Duration Legend
---------------
W - whole
H - half
Q - quarter
E - 8th
S - 16th
. - note dotted


Tablature Legend
----------------
L - tied note
p - pull off
/ -  slide to the the next note
\ -  slide out
comments
We did not receive enough feedback on this tab! Please rate:
print report bad tab
1 2 3 4 5
I want to post or [tab]
guest
You may want to rate the tab now too:
select rating
Please do not post tabs as comments. Select "correction" instead!