Oops, an error
Loading. Please wait.

Hidden Treasures Tab

6,239 views 1 this week
no commentswrite comment
1 2 3 4 5
excellent!
x 2
Autoscroll
+/-
esc
set tempo
stop
Contributor
Hey! There's an official Ultimate Guitar app which is ideal
for learning songs when you're away from computer. Get the app
WARNING: You are trying to view
                                    content from Ultimate-Guitar.com
                                    in an unauthorized application,
                                    which is prohibited.

                                    Please use an official Ultimate
                                    Guitar Tabs application for iPhone,
                                    iPad or Android to access legitimate
                                    chords, guitar, bass, and drum tabs
                                    from Ultimate-Guitar.com database.

                                    Type "ultimate guitar tabs" in Apple
                                    App Store's or Android Market's
                                    search to find the application.
Band- Megadeth
Album- Hidden Treasures

1.NEW WORLD ORDER

Tuning: Standard

Intro

Guitar 1                              x4
e|-------------------------------------|
B|-------------------------------------|
G|-------------------------------------|
D|--------2-----0--------------7-------|
A|-2--0h2---0h2---5----4-5-4---5---5-4-|
E|-0--------------3--0-2-3-2-0-----3-2-|
                     * * * * *     * *
Guitar 2
e|-------------------------------------|
B|-------------------------------------|
G|-------------------------------------|
D|-------------------------------------|
A|-2-------------------------------5-4-|
E|-0-------------------------------3-2-|

e|-------------------------------------|
B|-------------------------------------|
G|-------------------------------------|
D|-------------------------------------|
A|-2-------------------------------5-4-|
E|-0-------------------------------3-2-|

e|-------------------------------------|
B|-------------------------------------|
G|-------------------------------------|
D|-------------------------------------|
A|-2-------------------------------5-4-|
E|-0-[let ring]--------------------3-2-|

e|-------------------------------------|
B|-------------------------------------|
G|-------------------------------------|
D|--------2-----0--------------7-------|
A|-2--0h2---0h2---5----4-5-4---5---5-4-|
E|-0--------------3--0-2-3-2-0-----3-2-|


End intro


Riff 1
Guitar 1                              x3
e|-------------------------------------|
B|-------------------------------------|
G|-------------------------------------|
D|--------2-----0--------------7-------|
A|-2--0h2---0h2---5----4-5-4---5---5-4-|
E|-0--------------3--0-2-3-2-0-----3-2-|
                     * * * * *     * *
e|---------------------------------------|
B|---------------------------------------|
G|---------------------------------------|
D|--------2-----0------------------------|
A|-2--0h2---0h2---5----4-2-1-0---------2-|
E|-0--------------3--0-2-------4-3-2-1-0-|
                     * * * * * * * * *

Guitar 2                              x3
e|-------------------------------------|
B|-------------------------------------|
G|-------------------------------------|
D|--------2-----0--------------7-------|
A|-2--0h2---0h2---5----4-5-4---5---5-4-|
E|-0--------------3--0-2-3-2-0-----3-2-|

e|---------------------------------------|
B|---------------------------------------|
G|---------------------------------------|
D|--------2-----0--------------7---------|
A|-2--0h2---0h2---5----4-5-4---5---5-4-2-|
E|-0--------------3--0-2-3-2-0-----3-2-0-|



Riff 2
Guitar 1 (clean)               x3
e|------------------------------|
B|---0-----2-----0------2---1---|
G|-----0-----0-----0------0---0-|
D|-2-----2-----2-----2----------|
A|------------------------------|
E|------------------------------|
   "Where have the..."
e|------------------------------|
B|---0-----2--------------------|
G|-----0-----0------------------|
D|-2-----2--------3-2---3---2-3-|
A|------------------------------|
E|--------------1-----1---1-----|
   "New world order..."


Guitar 2 (Distortion)          x3
e|------------------------------|
B|------------------------------|
G|------------------------------|
D|------------------------------|
A|-/7-------------------4--3----|
E|----------------------------0-|

e|------------------------------|
B|------------------------------|
G|------------------------------|
D|----------------3-2---3---2-3-|
A|------------------------------|
E|-(0)----------1-----1---1-----|
                *     *   *

Guitar 3 (Distortion)          x3
e|------------------------------|
B|------------------------------|
G|-----------0------------------|
D|-----0-----------0------------|
A|---2-----4-----2-----4-5-3-4--|
E|-0-----0-----0-----0----------|
   * *   * *   * *   * * * * *
e|------------------------------|
B|------------------------------|
G|-----------0------------------|
D|-----0----------3-2---3---2-3-|
A|---2-----4--------------------|
E|-0-----0------1-----1---1-----|
   * *   * *    *     *   *


Riff 3
Guitar 1
e|----------------------------------|
B|----------------------------------|
G|----------------------------------|
D|-----2---------0------2---------0-|
A|---2-------0--------2-------0-----|
E|-0-----0-3---5----0-----0-3---2---|
   * *   * * * *    * *   * * * *
e|----------------------------------|
B|----------------------------------|
G|----------------------------------|
D|-----2---------0------2-----------|
A|---2-------0--------3-----/4--5-5-|
E|-0-----0-3---5----3-----3-/5--3-2-|
   * *   * * * *    * *

Guitar 2
e|-------------------12----------------------------|
B|-------12----15----------------12----15-13-12----|
G|----12----------12----14----12----------------14-|
D|-14-------14-------------14-------14-------------|
A|-------------------------------------------------|
E|-------------------------------------------------|

e|-------------------12----15~--15b17-15-14-|
B|-------12----15---------------------------|
G|----12----------12----14------------------|
D|-14-------14------------------------------|
A|------------------------------------------|
E|------------------------------------------|

e|-------------------12----------------------------|
B|-------12----15----------------12----15-13-12----|
G|----12----------12----14----12----------------14-|
D|-14-------14-------------14-------14-------------|
A|-------------------------------------------------|
E|-------------------------------------------------|

e|-------------------12----15~--/17--15-17-17b19~~-|
B|-------12----15----------------------------------|
G|----12----------12----14-------------------------|
D|-14-------14-------------------------------------|
A|-------------------------------------------------|
E|-------------------------------------------------|


Play Riff 1   "No confession..."
Play Riff 2   "Monitoring..."
Play Riff 3
Play Riff 1   "No confession..."


Riff 4  (Solo Rhythm)                 x2
e|-------------------------------------|
B|-------------------------------------|
G|-------------------------------------|
D|--------4-----2-2------------7---6-9-|
A|-4--2h4---2h4---0--4-6-7-6-4-5---4-7-|
E|-2-----------------2-4-5-4-2---------|
                     * * * * *

e|-------------------------------------|
B|-------------------------------------|
G|-------------------------------------|
D|--------6-----4--------------9---8-7-|
A|-6--4h6---4h6---9--6-8-9-8-6-7---6-5-|
E|-4--------------7--4-6-7-6-4---------|

e|---------------------------------------|
B|---------------------------------------|
G|---------------------------------------|
D|--------6-----4------------------------|
A|-6--4h6---4h6---9--6-8-9-8-7-6-5-4-3-2-|
E|-4--------------7--4-6-7-6-5-4-3-2-1-0-|
                     * * * * * * * * * *

Solo (Friedman)
e|-------------------------------------|
B|-------------------------------------|
G|-------------------------------------|
D|-------------------------------------|
A|-------------------------------------|
E|-------------------------------------|

e|-------------------------------------|
B|-------------------------------------|
G|-------------------------------------|
D|-------------------------------------|
A|-------------------------------------|
E|-------------------------------------|

e|-------------------------------------|
B|-------------------------------------|
G|-------------------------------------|
D|-------------------------------------|
A|-------------------------------------|
E|-------------------------------------|

e|-------------------------------------|
B|-------------------------------------|
G|-------------------------------------|
D|-------------------------------------|
A|-------------------------------------|
E|-------------------------------------|

e|-------------------------------------|
B|-------------------------------------|
G|-------------------------------------|
D|-------------------------------------|
A|-------------------------------------|
E|-------------------------------------|

e|-------------------------------------|
B|-------------------------------------|
G|-------------------------------------|
D|-------------------------------------|
A|-------------------------------------|
E|-------------------------------------|

End Solo


Play Riff 2   "Where have the..."


Riff 2a
e|-----------------|
B|-----------------|
G|-----------------|
D|---4-3-----------|
A|---------4-3-2---|
E|-2-----2-------5-|
   *     * * * * *


Riff 5 (Play 2x)                           x3
e|------------------------------------------|
B|------------------------------------------|
G|------------------------------------------|
D|------------------------------------------|
A|---4-4----4-4----4---7--------------------|
E|-0h2-2--0-2-2--0-2-0-5--56565656-78787878-|
          * * *  * * *    ******** ********
e|-----------------------------------------------|
B|-----------------------------------------------|
G|-----------------------------------------------|
D|-12\11-11--11\10-10--10\9--9\8-8\7-7\6-6\5-5\4-|
A|-10\-9--9---9\-8--8---8\7--7\6-6\5-5\4-4\3-3\2-|
E|-----------------------------------------------|

e|---------------------------------|
B|---------------------------------|
G|---------------------------------|
D|-2h4p2---2-----------------------|
A|-------4---4-3-2-0h2p0---0-------|
E|-----------------------2---2-1-0-|


Lead into next section:
e|------------|
B|------------|
G|------------|
D|------------|
A|-4----2--5--|
E|-2----0--3--|


Riff 6  (Solo Rhythm)
e|----------------------------------------------|
B|----------------------------------------------|
G|----------------------------------------------|
D|----------------------------------------------|
A|---4-4----4-4----4---7----4-4----4-4----4---9-|
E|-0h2-2--0-2-2--0-2-0-5--0h2-2--0-2-2--0-2-0-7-|
          * * *  * * *           * * *  * * *
e|----------------------------------------------|
B|----------------------------------------------|
G|----------------------------------------------|
D|----------------------------------------------|
A|---4-4----4-4----4---5----4-4----4-4----4---4-|
E|-0h2-2--0-2-2--0-2-0-3--0h2-2--0-2-2--0-2-0-2-|
          * * *  * * *           * * *  * * *
e|----------------------------------------------|
B|----------------------------------------------|
G|----------------------------------------------|
D|----------------------------------------------|
A|---4-4----4-4----4---7----4-4----4-4----4---6-|
E|-0h2-2--0-2-2--0-2-0-5--0h2-2--0-2-2--0-2-0-4-|
          * * *  * * *           * * *  * * *
e|----------------------------------------------|
B|----------------------------------------------|
G|----------------------------------------------|
D|----------------------------------------------|
A|---4-4----4-4----4---5----4-4----4-4----4---4-|
E|-0h2-2--0-2-2--0-2-0-3--0h2-2--0-2-2--0-2-0-2-|
          * * *  * * *           * * *  * * *

Solo (Mustaine)
e|-------------------------------------|
B|-------------------------------------|
G|-------------------------------------|
D|-------------------------------------|
A|-------------------------------------|
E|-------------------------------------|

e|-------------------------------------|
B|-------------------------------------|
G|-------------------------------------|
D|-------------------------------------|
A|-------------------------------------|
E|-------------------------------------|

e|-------------------------------------|
B|-------------------------------------|
G|-------------------------------------|
D|-------------------------------------|
A|-------------------------------------|
E|-------------------------------------|

e|-------------------------------------|
B|-------------------------------------|
G|-------------------------------------|
D|-------------------------------------|
A|-------------------------------------|
E|-------------------------------------|

e|-------------------------------------|
B|-------------------------------------|
G|-------------------------------------|
D|-------------------------------------|
A|-------------------------------------|
E|-------------------------------------|

e|-------------------------------------|
B|-------------------------------------|
G|-------------------------------------|
D|-------------------------------------|
A|-------------------------------------|
E|-------------------------------------|

End Solo


Play Riff 5


Ending:
Guitar 1
e|-----------------|
B|-----------------|
G|-----------------|
D|-----------------|
A|-4----2--------4-|
E|-2----0--------2-|

Guitar 2
e|-----------------|
B|-----------------|
G|-----------------|
D|--------------11-|
A|-4----2--------9-|
E|-2----0----------|

2.NO MORE MR NICE GUY

Tuning: Standard

Riff 1
e|-5--5--3----3--3----------------|
B|-5--5--5----3--3--------3-------|
G|------------------0-2/4---4p2p0-|
D|--------------------------------|
A|--------------------------------|
E|--------------------------------|

e|------------------------------|
B|------------------------------|
G|-2--2--0----0--0--------------|
D|-2--2--2----0--0--------------|
A|--------------------2-5-2p0---|
E|------------------3---------3-|


Riff 2
Guitar 1                    x2
e|---------------------------|
B|---------------------------|
G|---------------------------|
D|-4------4-3-2--------------|
A|-2--2-2-2-1-0-2------------|
E|--------------0--0-0-0-0-0-|
      * *          * * * * *
e|-----------------------------|
B|-----------------------------|
G|-----------------------------|
D|-4------4-3-2----------------|
A|-2--2-2-2-1-0-2--------------|
E|--------------0--0-0-0-0-0-0-|
      * *          * * * * * *

Guitar 2
e|------------------------|
B|-----------------10b12~-|
G|-9b11--9b11r9-7---------|
D|------------------------|
A|------------------------|
E|------------------------|

e|--------------------------------10--------|
B|--------------------------10b12----10b12~-|
G|-9b11--9b11-9b11-9b11r9-7-----------------|
D|------------a-----------------------------|
A|------------------------------------------|
E|------------------------------------------|

e|---------------------------------------|
B|-----------------10b12-----------------|
G|-9b11--9b11r9-7--------9b11r9-7-9b11r9-|
D|---------------------------------------|
A|---------------------------------------|
E|---------------------------------------|



Riff 3
Guitar 1
e|-------------------------------------------|
B|-------------------------------------------|
G|-9------------9-------------7--------------|
D|-7------------6-------------5--------------|
A|----0-0-0-0-0----0-0-0-0-0-----0-0-0-0-0-0-|
E|-------------------------------------------|
      * * * * *    * * * * *     * * * * * *
   "I used to be such..."
e|-------------|
B|-------------|
G|-------------|
D|--4-4--7--9--|
A|--2-2--5--7--|
E|-------------|
   "...me..."

Guitar 2                                         x2
e|------------------------------------------------|
B|------------------------------------------------|
G|------------------------------------------------|
D|-7~-----------6~-------------5~-------------4~--|
A|------------------------------------------------|
E|------------------------------------------------|

Guitar 3
e|--------------------------------------------------------|
B|--------------------------------------------------------|
G|-----------------------------------------4-4--7--9b11r9-|
D|-7~-----------6~-----------5~---------------------------|
A|--------------------------------------------------------|
E|--------------------------------------------------------|

e|-----------------------------------------------------------|
B|-----------------------------------------------------------|
G|-------9b11r9-------9b11r9-------9b11r9--4-4--7--9--9b11~~-|
D|-7~-----------6~-----------5~------------------------------|
A|-----------------------------------------------------------|
E|-----------------------------------------------------------|



Riff 4
Guitar 1
e|------------------------------------|
B|------------------------------------|
G|------------------------------------|
D|-11-11---11-10-9---------------7--7-|
A|--9--9----9--8-7-9--9----9-8-7-5--5-|
E|-----------------7--7----7-6-5------|
   "But I got no friends..."
e|-----------------------|
B|-----------------------|
G|---------------------9-|
D|-7-6-7-9--9----9-7-9-7-|
A|-5-4-5-7--7----7-5-7---|
E|-----------------------|
   "...they can't be seen..."

Guitar 2
e|--------------------------------------|
B|--------------------------------------|
G|------------------------------9-11-9~-|
D|---------------------------12---------|
A|--------------------------------------|
E|--------------------------------------|

e|-----------------------------------------|
B|-----------------------------------12b14-|
G|------------------------------9-11-------|
D|---------------------------12------------|
A|-----------------------------------------|
E|-----------------------------------------|


Riff 5
Guitar 1
e|-----------------------------|
B|-------------------10--10-9--|
G|--------------------9---9-9--|
D|-11-11--7-7--9-9-------------|
A|--9--9--5-5--7-7-------------|
E|-----------------------------|

e|---------------------------|
B|---------------------------|
G|--------------------9--13--|
D|-11-11--7-7--9--11--7--11--|
A|--9--9--5-5--7---9---------|
E|---------------------------|

Guitar 2
e|----------------------------|
B|----------------------------|
G|----------------------------|
D|-11-11--7-7--9-9------------|
A|--9--9--5-5--7-7----------7-|
E|------------------10-9-10---|

e|---------------------------|
B|---------------------------|
G|--------------------9--13--|
D|-11-11--7-7--9--11--7--11--|
A|--9--9--5-5--7---9---------|
E|---------------------------|

Guitar 3
e|-------------------------------|
B|-(14)r12-10-9------------------|
G|--------------11-9--------9-11-|
D|-----------------------12------|
A|-------------------------------|
E|-------------------------------|

e|----------------------------|
B|-10-10-10-9---------10--14~-|
G|------------11-9-11---------|
D|----------------------------|
A|----------------------------|
E|----------------------------|

e|-----------------------------|
B|-10-10-10-9------------------|
G|------------11-9--------9-11-|
D|---------------------12------|
A|-----------------------------|
E|-----------------------------|

e|----------------------------|
B|-10-10-10-9---------10--14~-|
G|------------11-9-11---------|
D|----------------------------|
A|----------------------------|
E|----------------------------|


Next section:  "I'm not hard to get along with..."

Guitar 1 plays Riff 1
Guitar 2 plays:
e|------------------------------------|
B|-(14~~~)---------------------(14)\--|
G|----[last note from chorus]---------|
D|------------------------------------|
A|------------------------------------|
E|------------------------------------|

e|----------------------------------|
B|-17b19r17-------------------------|
G|----------15b17r15----------------|
D|-------------------16~~----(16)\--|
A|----------------------------------|
E|----------------------------------|


Play Riff 4  "But I got no friends..."
Play Riff 5  "No more Mr. nice guy..."


Riff 6 (Solo Rhythm)
e|-----------------------------|
B|-----------------------------|
G|-----------------------------|
D|-----------------------------|
A|-5------------5--------------|
E|-3--0---0-0-0-3--0-0-0-0-0-0-|
          * * *    * * * * * *
                                x2
e|-------------------------------|
B|-------------------------------|
G|-------------------------------|
D|-------------------------------|
A|-5--------------5--------------|
E|-3--0-0-0-0-0-0-3--0-0-0-0-0-0-|
      * * * * * *    * * * * * *
e|-------------------------------|
B|-------------------------------|
G|-------------------------------|
D|-----------------------------2-|
A|-5------5------5------5------0-|
E|-3--0-0-3--0-0-3--0-0-3--0-0---|
      * *    * *    * *    * *


Solo (Mustaine)
e|-17p12--12------17p12--12-----17p12--12------|
B|------15-------------15------------15--------|
G|----------15p14----------15p14---------15p14-|
D|---------------------------------------------|
A|---------------------------------------------|
E|---------------------------------------------|

e|-17p12--12------17p12--------|
B|------15-------------15------|
G|----------15p14------14b15~~-|
D|-----------------------------|
A|-----------------------------|
E|-----------------------------|

e|----------------------------------------|
B|----------------------------------------|
G|-12h14p12---12h14p12---12h14-12h14p12---|
D|---------14---------14--a-----a------14-|
A|----------------------------------------|
E|----------------------------------------|

e|-------------------------------------------------|
B|-------------------------------------------------|
G|-12----------------------------------------------|
D|----15-14-12----12-14p13p12-13p12----------------|
A|-------------14------------------14-13-14p13-----|
E|---------------------------------------------14\-|

e|-------------------------------------|
B|-------------------------------------|
G|-------------------------------------|
D|-------------------------------------|
A|-------------------------------------|
E|-------------------------------------|

e|-------------------------------------|
B|-------------------------------------|
G|-------------------------------------|
D|-------------------------------------|
A|-------------------------------------|
E|-------------------------------------|

e|-------------------------------------|
B|-------------------------------------|
G|-------------------------------------|
D|-------------------------------------|
A|-------------------------------------|
E|-------------------------------------|

e|-------------------------------------|
B|-------------------------------------|
G|-------------------------------------|
D|-------------------------------------|
A|-------------------------------------|
E|-------------------------------------|

End Solo


Riff 7
Guitar 1 (Clean)
e|--9--------9--------7--------7--------|
B|-10--------9--------8--------7--------|
G|--9--------9--------7--------7--------|
D|--------------------------------------|
A|--------------------------------------|
E|--------------------------------------|
   "My dog bit me..."

Guitar 2 (Acoustic)
e|--0--0--0--0-----0-0-0-0-----0-0-0-0-----0-0-0-0-----|
B|-10-10-10-10-----9-9-9-9-----8-8-8-8-----7-7-7-7-----|
G|--9--9--9--9-...-9-9-9-9-...-7-7-7-7-...-7-7-7-7-...-|
D|-----------------------------------------------------|
A|-----------------------------------------------------|
E|-----------------------------------------------------|
   "Mom's been thrown out..."

Guitar 3 (Distortion, comes in later)
e|------------|
B|------------|
G|------------|
D|-4-4--7--9--|
A|-2-2--5--7--|
E|------------|
   "...rose..."
e|---------------------------------|
B|---------------------------------|
G|-9-9-9-9-9-9-9-9-9-9-9-9-9-9-9-9-|
D|-7-7-7-7-7-7-7-7-6-6-6-6-6-6-6-6-|
A|---------------------------------|
E|---------------------------------|
   * * * * * * * * * * * * * * * *
   "Reverend Smith..."
e|-----------------------------|
B|-----------------------------|
G|-7-7-7-7-7-7-7-7-------------|
D|-5-5-5-5-5-5-5-5--4-4--7--9--|
A|------------------2-2--5--7--|
E|-----------------------------|
   * * * * * * * *
   "...punched me in the nose..."

Lead into next section:
Guitar 1
e|----------|
B|----------|
G|----------|
D|----------|
A|--7----4--|
E|--5----2--|
 "...nice guy!"

Guitar 2
e|-----------------------------------|
B|-10-9-7-9-10-9-7-9-10-9-7-9-10-...-|
G|-----------------------------------|
D|-----------------------------------|
A|-----------------------------------|
E|-----------------------------------|
   "No more, nice guy!"


Riff 5a
Guitar 1
e|---------------------------|
B|------------------10--10-9-|
G|-------------------9---9-9-|  ----|
D|-------7-7--9-9------------|      |
A|-7--4--5-5--7-7------------|      |
E|-5--2----------------------|      |
                                    |
e|---------------------------|      |--- Play 1x
B|---------------------------|      |
G|--------------------9--13--|      |
D|-11-11--7-7--9--11--7--11--|  ----|
A|--9--9--5-5--7---9---------|
E|---------------------------|

Play this the rest of the time:
e|----------------------------|
B|-------------------10--10-9-|
G|--------------------9---9-9-|
D|-11-11--7-7--9-9------------|
A|--9--9--5-5--7-7------------|
E|----------------------------|

e|---------------------------|
B|---------------------------|
G|--------------------9--13--|
D|-11-11--7-7--9--11--7--11--|
A|--9--9--5-5--7---9---------|
E|---------------------------|


Guitar 2
e|---------------------------|
B|---------------------------|
G|---------------------------|  ----|
D|-------7-7--9-9------------|      |
A|-7--4--5-5--7-7----------7-|      |
E|-5--2------------10-9-10---|      |
                                    |
e|---------------------------|      |--- Play 1x
B|---------------------------|      |
G|--------------------9--13--|      |
D|-11-11--7-7--9--11--7--11--|  ----|
A|--9--9--5-5--7---9---------|
E|---------------------------|

Play this the rest of the time:
e|----------------------------|
B|----------------------------|
G|----------------------------|
D|-11-11--7-7--9-9------------|
A|--9--9--5-5--7-7----------7-|
E|------------------10-9-10---|

e|---------------------------|
B|---------------------------|
G|--------------------9--13--|
D|-11-11--7-7--9--11--7--11--|
A|--9--9--5-5--7---9---------|
E|---------------------------|


Guitar 3
e|-----------------------------|
B|-10-10-10-9------------------|
G|------------11-9--------9-11-|
D|---------------------12------|
A|-----------------------------|
E|-----------------------------|

e|----------------------------|
B|-10-10-10-9---------10--14~-|
G|------------11-9-11---------|
D|----------------------------|
A|----------------------------|
E|----------------------------|


Ending:
Guitar 1
e|-----------------------------|
B|-----------------------------|
G|--------9--13----------9--13-|
D|-9--11--7--11---9--11--7--11-|
A|-7---9----------7---9--------|
E|-----------------------------|

e|-------------------------------------|
B|-------------------------------------|
G|--------9--13------------------------|
D|-9--11--7--11------------------------|
A|-7---9-----------7----------------7--|
E|-----------------5----------------5--|

Guitar 2
e|-------------------------------------------------|
B|------10--14~-------10--14~-------10--14--14b17~-|
G|-9-11----------9-11----------9-11----------------|
D|-------------------------------------------------|
A|-------------------------------------------------|
E|-------------------------------------------------|

Guitar 3 (comes in with last note of guitar 2)
e|-------------------------------------|
B|-------------------------------------|
G|-------------------------------------|
D|-------------------------------------|
A|-------------------------------------|
E|-------------------------------------|

e|-------------------------------------|
B|-------------------------------------|
G|-------------------------------------|
D|-------------------------------------|
A|-------------------------------------|
E|-------------------------------------|

e|-------------------------------------|
B|-------------------------------------|
G|-------------------------------------|
D|-------------------------------------|
A|-------------------------------------|
E|-------------------------------------|

3.BREAKPOINT

Tuning: Standard

Riff 1                x7
e|---------------------|----------|
B|---------------------|----------|
G|---------------------|----------|
D|---------------------|-11--9-11-|
A|---------------------|--9--7--9-|
E|-2-2232-2--2-5-3-2-0-|----------|
   * ****    * * * * *


Riff 1a
Guitar 1             x11
e|---------------------|-----------|
B|---------------------|-----------|
G|---------------------|-----------|
D|---------------------|-11--9-11--|
A|---------------------|--9--7--9--|
E|-2-2232-2--2-5-3-2-0-|-----------|
   * ****    * * * * *

Guitar 2
e|----------------------|
B|----------------------|
G|----------------------|
D|-11----7---11----7----|
A|--9----5----9----5----|
E|----------------------|

e|-------------------------------------------|
B|-------------------------------------------|
G|-------------------------------------------|
D|-11----9----7----6----2----------11--9-11--|
A|--9----7----5----4----0--4--------9--7--9--|
E|-------------------------2-----------------|



Riff 2                x4
e|---------------------|------------|
B|---------------------|------------|
G|---------------------|------------|
D|---------------------|------------|
A|---------------------|--5----2--5-|
E|-2-2232-2--2-5-3-2-0-|--3----0--3-|
   * ****    * * * * *
  "Make the rules..."
                      x2
e|---------------------|---------------------|
B|---------------------|---------------------|
G|---------------------|---------------------|
D|---------------------|---------------------|
A|---------------------|--5-----2-2-2--5-5-5-|
E|-2-2232-2--2-5-3-2-0-|--3-----0-0-0--3-3-3-|
   * ****    * * * * *          * * *  * * *
                       "Be as great as..."

Solo (Friedman)
e|-18-18-18-18-18-18------|
B|-17-17-17-17-17-17-17\--|
G|-18-18-18-18-18-18-18\--|
D|------------------------|
A|------------------------|
E|------------------------|

e|-----------------------------------------------|
B|-17b19-----------------------------------------|
G|-------[16]18r16-14b16r14----------------------|
D|--------------------------16--------------12~~-|
A|-----------------------------15b16r15\-12------|
E|-----------------------------------------------|

End Solo



Riff 3
e|--------------------------------|
B|--------------------------------|
G|-------------------2------------|
D|-----4-----5-5-4-------5--2-----|
A|---1-----1-----------1------1-4-|
E|-2-----2---------0--------------|
   * *   * *       *   *      *
  "Hyprocrit, the word that fits..."
e|------------------------|
B|------------------------|
G|------------------------|
D|-----4-----5---4--------|
A|---1-----1---------2--4-|
E|-2-----2-----0---x-0--2-|
   * *   * *   *
  "Do as you say..."


Riff 4
e|----------------------------------------------|
B|----------------------------------------------|
G|------------------------------5-4-2-0---------|
D|-5---8-----7--4-3-2-0-----------------5-4-2-0-|
A|-3-5-6-8-7-5----------4-3-2-0-----------------|
E|---3---6-5------------------------------------|
     *   * *
  "You're pushing me..."
e|----------------------------------------------|
B|----------------------------------------------|
G|--------------5-4-2-0-5-4-2-0-----------------|
D|-5---8-----7------------------5-4-2-0---------|
A|-3-5-6-8-7-5--------------------------5-4-2-0-|
E|---3---6-5------------------------------------|
     *   * *
  "You're pushing me..."
e|----------------------------------------------|
B|----------------------------------------------|
G|------------------------------5-4-2-0---------|
D|-5---8-----7--4-3-2-0-----------------5-4-2-0-|
A|-3-5-6-8-7-5----------4-3-2-0-----------------|
E|---3---6-5------------------------------------|
     *   * *
  "You're pushing me..."
e|------------------------|
B|------------------------|
G|------------------------|
D|-5---8------5---8-----7-|
A|-3-5-6-8----3-5-6-8-7-5-|
E|---3---6------3---6-5---|
     *   *      *   * *
  "Pushing me, pushing me to a..."


Play Riff 1a  Solo Rhythm

Solo (Friedman)
e|-------------2------------------|
B|---------------2-5p2------------|
G|-4b6r4b6-4b6---------5p4p2---2~-|
D|---------------------------4----|
A|--------------------------------|
E|--------------------------------|

e|------------------------------|
B|------------------------6b7r6-|
G|-/4-4b6r4/6h9--6--(6)\4-------|
D|------------------------------|
A|------------------------------|
E|------------------------------|

e|-------------------------------------|
B|-7-6---------------------------------|
G|-----9-8-7-6---7-6-------------------|
D|-------------9-----9\8-7-6-5\4-0-----|
A|---------------------------------4~~-|
E|-------------------------------------|

e|--------------------------------------------14-16-|
B|-14-15-17-15b17r15b17--15-14-17b19r17b19r17-------|
G|--------------------------------------------------|
D|--------------------------------------------------|
A|--------------------------------------------------|
E|--------------------------------------------------|

e|-[16]17r16-[16]17~----------14------------14----------|
B|------------------------------------------------------|
G|-------------------14h16h17----17p16p14------17p16p14-|
D|----------------------------------------16------------|
A|------------------------------------------------------|
E|------------------------------------------------------|

e|------------|
B|------------|
G|-16b18-14~~-|
D|------------|
A|------------|
E|------------|

End solo


Play Riff 2  "Self-esteem you seem to lack..."


Solo (Friedman)
e|-18-18-18-18-18-18-18\--|
B|-17-17-17-17-17-17-17\--|
G|-18-18-18-18-18-18-18\--|
D|------------------------|
A|------------------------|
E|------------------------|

e|---------------14---------------|
B|-17p14-17b19------17-14---------|
G|------------------------16-14~--|
D|--------------------------------|
A|--------------------------------|
E|--------------------------------|

End solo


Play Riff 3   "Criticist, the word that fits..."
Play Riff 4   "You're pushing me..."
Play Riff 1a  Solo Rhythm

Solo (Friedman)
e|--------------------------------------------------------|
B|--------------------------------------------------------|
G|-16b18r16b18r16b18r16-16b18-14h16-------13-14--13-14-16-|
D|----------------------------------16~~-------16---------|
A|--------------------------------------------------------|
E|--------------------------------------------------------|

e|---------------------------------------------------|
B|-------------------------------------17b19r17b19~~-|
G|-16b18-16b18-16b18-16b18--(18)r16-14---------------|
D|---------------------------------------------------|
A|---------------------------------------------------|
E|---------------------------------------------------|

e|-------------------------------------------------|
B|----------------------------------15-17p15----15-|
G|-------14-16-18p16-14h16-14h16-18----------18----|
D|-16h18-------------------------------------------|
A|-------------------------------------------------|
E|-------------------------------------------------|

e|-------------16h17/19h21-21b24--(24)r21-|
B|----15-17h19----------------------------|
G|-18-------------------------------------|
D|----------------------------------------|
A|----------------------------------------|
E|----------------------------------------|

e|-19h20p19----19-------------------------------------------|
B|----------22----22-19----22p19\18-21p18----21p18\17h20p17-|
G|----------------------21----------------20----------------|
D|----------------------------------------------------------|
A|----------------------------------------------------------|
E|----------------------------------------------------------|

e|--------------------------------------------|
B|----20-17\14h17p14--------------------------|
G|-19----------------17p16p14-16p14-----------|
D|----------------------------------16-14-16~-|
A|--------------------------------------------|
E|--------------------------------------------|

End solo


Play Riff 2   "Watching pain..."

Solo (Friedman)
e|-18-18-18-18-18-18------|
B|-17-17-17-17-17-17-17\--|
G|-18-18-18-18-18-18-18\--|
D|------------------------|
A|------------------------|
E|------------------------|

e|-----------------------------------------------|
B|-17b19-----------------------------------------|
G|-------[16]18r16-14b16r14----------------------|
D|--------------------------16--------------12~~-|
A|-----------------------------15b16r15\-12------|
E|-----------------------------------------------|

End solo


Play Riff 3   "Misery, the word that fits..."

Riff 4a
e|----------------------------------------------|
B|----------------------------------------------|
G|------------------------------5-4-2-0---------|
D|-5---8-----7--4-3-2-0-----------------5-4-2-0-|
A|-3-5-6-8-7-5----------4-3-2-0-----------------|
E|---3---6-5------------------------------------|
     *   * *
  "You're pushing me..."
e|----------------------------------------------|
B|----------------------------------------------|
G|--------------5-4-2-0-5-4-2-0-----------------|
D|-5---8-----7------------------5-4-2-0---------|
A|-3-5-6-8-7-5--------------------------5-4-2-0-|
E|---3---6-5------------------------------------|
     *   * *
  "You're pushing me..."
e|----------------------------------------------|
B|----------------------------------------------|
G|------------------------------5-4-2-0---------|
D|-5---8-----7--4-3-2-0-----------------5-4-2-0-|
A|-3-5-6-8-7-5----------4-3-2-0-----------------|
E|---3---6-5------------------------------------|
     *   * *
e|--------------------------------------|
B|--------------------------------------|
G|--------------------------------------|
D|-5---8----5---8----5---8----5---8-----|
A|-3-5-6-8--3-5-6-8--3-5-6-8--3-5-6-8\--|
E|---3---6----3---6----3---6----3---6\--|
     *   *    *   *    *   *    *
   "Pushing me, pushing me..."


Riff 5
e|------------------------------|
B|-------2--------------2-------|
G|----------4--------------4----|
D|-----4--------------4---------|
A|---2--------------2-----------|
E|-2------------2-3-----------3-|
  "...a breakpoint..."

e|------------------------------|
B|-------2--------------2-------|
G|----------4--------------4----|
D|-----4--------------4---------|
A|---2--------------2-----------|
E|-4------------4-3-----------3-|

e|------------------------------|
B|-------2--------------2-------|
G|----------4--------------4----|
D|-----4--------------4---------|
A|---2--------------2-----------|
E|-2------------2-3-----------3-|

e|------------------------------|
B|-------2--------------2--4----|
G|----------4---------4---------|
D|-----4------------4-----------|
A|---2------------0-----------0-|
E|-4------------4---------------|

e|------------------------------|
B|-------2--------------2-------|
G|----------4--------------4----|
D|-----4--------------4---------|
A|---2--------------2-----------|
E|-2------------2-3-----------3-|

e|---------------|
B|-------2-------|
G|----------4----|
D|-----4---------|
A|---2-----------|
E|-4-----------4-|


Riff 6
e|---------------------|
B|---------------------|
G|---------------------|
D|---------------------|
A|---2--2--2---4--4--4-|
E|-3---------3---------|
  "Sedate me?..."

e|----------------------------------|
B|----------------------------------|
G|----------------------------------|
D|----------------------------------|
A|-4-4-4-4-4-4-4-4--5-5-5-5-5-5-5-5-|
E|-2-2-2-2-2-2-2-2--3-3-3-3-3-3-3-3-|
   * * * * * * * *  * * * * * * * *
  "Straight jacket?..."

e|----------------------------------|
B|----------------------------------|
G|----------------------------------|
D|----------------------------------|
A|-6-6-6-6-6-6-6-6--7-7-7-7-7-7-7-7-|
E|-4-4-4-4-4-4-4-4--5-5-5-5-5-5-5-5-|
   * * * * * * * *  * * * * * * * *


Ending:
Guitar 1             x11
e|---------------------|---------|
B|---------------------|---------|
G|---------------------|---------|
D|---------------------|--4-2-4--|
A|---------------------|--4-2-4--|
E|-2-2232-2--2-5-3-2-0-|--2-0-2--|
   * ****    * * * * *
   "Breakpoint..."

Guitar 2
e|----------------------|
B|----------------------|
G|----------------------|
D|-11----7---11----7----|
A|--9----5----9----5----|
E|----------------------|

e|----------------------------------------|
B|----------------------------------------|
G|----------------------------------------|
D|-11----9----7----6----2-----------4-2-4-|
A|--9----7----5----4----0--4--------4-2-4-|
E|-------------------------2--------2-0-2-|

4.GO TO HELL

Tuning: Standard


Riff 1
Guitar 1
e|----------------------------|
B|----------------------------|
G|----------------------------|
D|----------------------------|
A|-2-------/7~----2-------/6~-|
E|---3-2-1----------3-2-1-----|
   * * * *        * * * *
e|----------------------------|
B|----------------------------|
G|----------------------------|
D|----------------------------|
A|-2-------/5~----2-------/4~-|
E|---3-2-1----------3-2-1-----|
   * * * *        * * * *
e|--------------------|
B|--------------------|
G|--------------------|
D|---------5--------4-|
A|-2-------3--------2-|
E|---3-2-1------------|
   * * * *
e|-----------------|
B|-----------------|
G|-----------------|
D|-4-4-4-4-4-------|
A|-2-2-2-2-2-------|
E|-----------3-2-1-|
   * * * * * * * *

Guitar 2
e|----------------------------|
B|----------------------------|
G|----------------------------|
D|------------------------/4~-|
A|-2-------/7~----2-----------|
E|---3-2-1----------3-2-1-----|
   * * * *        * * * *
e|----------------------------|
B|----------------------------|
G|----------------------------|
D|---------/5~------------/7~-|
A|-2--------------2-----------|
E|---3-2-1----------3-2-1-----|
   * * * *        * * * *
e|---------------------3-6-7-6-7-6-7-6--|
B|-------------------5------------------|
G|---------------3-5--------------------|
D|-----------2-5------------------------|
A|-2-------3----------------------------|
E|---3-2-1------------------------------|
   * * * * * * * * * * *
e|-7-5------------------|
B|-----7-4--------------|
G|---------4------------|
D|-----------5-4-3------|
A|------------------7~--|
E|----------------------|
           * * * *


Riff 2
e|---------------------------------|
B|---------------------------------|
G|-------0---------------0---------|
D|-----4-----4-2-------4-----4-2---|
A|---2-----3-----3---4-----5-----3-|
E|-0---------------0---------------|

e|---------------------------------|
B|---------------------------------|
G|-------0---------------0---------|
D|-----4-----4-2-------4---4-------|
A|---2-----3-----3---1-----2-------|
E|-0---------------2---------3-2-1-|


Riff 3
e|-----------------------|
B|-----------------------|
G|-----------------------|
D|-2------------2---2-3--|
A|-2------------2---2-3--|
E|----0-0-0-0-0---0------|
      * * * * *   *
   "Now I lay me..."
e|-----------------------|
B|-----------------------|
G|-----------------------|
D|-2------------2---2-1--|
A|-2------------2---2-1--|
E|----0-0-0-0-0---0------|
      * * * * *   *
   "I pray the Lord..."


Riff 1a
Guitar 1
e|----------------------------|
B|----------------------------|
G|----------------------------|
D|----------------------------|
A|-2-------/7~----2-------/6~-|
E|---3-2-1----------3-2-1-----|
   * * * *        * * * *
e|----------------------------|
B|----------------------------|
G|----------------------------|
D|----------------------------|
A|-2-------/5~----2-------/4~-|
E|---3-2-1----------3-2-1-----|
   * * * *        * * * *
e|-----------------------------|
B|-----------------------------|
G|-----------------------------|
D|---------5--------4----------|
A|-2-------3--------2--------3-|
E|---3-2-1-------------------1-|
   * * * *

Guitar 2
e|----------------------------|
B|----------------------------|
G|----------------------------|
D|------------------------/4~-|
A|-2-------/7~----2-----------|
E|---3-2-1----------3-2-1-----|
   * * * *        * * * *
e|----------------------------|
B|----------------------------|
G|----------------------------|
D|---------/5~------------/7~-|
A|-2--------------2-----------|
E|---3-2-1----------3-2-1-----|
   * * * *        * * * *
e|---------------------------------|
B|---------------------------------|
G|---------2b3-2b3-2b3-2b3-2b3~~---|
D|---------------------------------|
A|-2-----------------------------3-|
E|---3-2-1-----------------------1-|
   * * * *


Riff 4 (Guitar 2 does a pick slide before verse)
e|-----------------------|
B|-----------------------|
G|-----------------------|
D|---------2----------3--|
A|---------2----------3--|
E|-0-0-0-0----0-0-0-0----|
   * * * *    * * * *
e|--------------------------|
B|--------------------------|
G|--------------------------|
D|---------0----------5-4-3-|
A|---------0----------5-4-3-|
E|-0-0-0-0----0-0-0-0-------|
   * * * *    * * * *


Riff 4a
e|-----------------------|
B|-----------------------|
G|-----------------------|
D|---------2----------3--| -------|
A|---------2----------3--|        |
E|-0-0-0-0----0-0-0-0----|        |
   * * * *    * * * *             |
   "Not going to..."              |--> Play 3x
e|--------------------------|     |
B|--------------------------|     |
G|--------------------------|     |
D|---------0----------5-4-3-| ----|
A|---------0----------5-4-3-|
E|-0-0-0-0----0-0-0-0-------|
   * * * *    * * * *
   "...they pull my plug..."

e|---------------------------|
B|---------------------------|
G|---------------------------|
D|---------2----------3----6-|
A|---------2----------3----6-|
E|-0-0-0-0----0-0-0-0----0---|
   * * * *    * * * *    *
   "...lays..."
e|--------------------------|
B|--------------------------|
G|--------------------------|
D|-----------------------3--|
A|-1-0-3-2---2-1-------3-3--|
E|---------4-----1-0-1------|
   * * * * * * * * * * *
                    "Go to hell!"



Riff 5 (Solo Rhythm)             x3
e|--------------------------------|
B|--------------------------------|
G|--------------------------------|
D|-2-----3-----0-----7-6-5--5-4-3-|
A|-2-----3-----0-----7-6-5--5-4-3-|
E|---0-0---0-0---0-0--------------|
     * *   * *   * *
e|---------------|
B|---------------|
G|---------------|
D|-2-----3-----0-|
A|-2-----3-----0-|
E|---0-0---0-0---|
     * *   * *


Solo (Friedman)
e|-----------------7-------------------|
B|-------------5h6---6p5-------5-------|
G|-7b9--7b9~~------------7-6h7---7p6p4-|
D|-------------------------------------|
A|-------------------------------------|
E|-------------------------------------|

e|------------------------------------------|
B|------------------------------------------|
G|-6/9\6p4---4-6p4---4----------------------|
D|---------5-------5---5p4------------------|
A|-------------------------7b9r7~~----------|
E|-------------------------------------//\\-|

e|-------------15h19-21p19p15----------|
B|----------17----------------17-------|
G|----16h18----------------------18p16-|
D|-17----------------------------------|
A|-------------------------------------|
E|-------------------------------------|

e|-------------15-17-18p17-15----------|
B|----------17----------------17-15-15-|
G|----16h18----------------------------|
D|-17----------------------------------|
A|-------------------------------------|
E|-------------------------------------|

e|-17b19r17-17-15-----------|
B|----------------17b20r17\-|
G|--------------------------|
D|--------------------------|
A|--------------------------|
E|--------------------------|

End Solo


Play Riff 4a   "I saw my funeral..."
Play Riff 5    Solo Rhythm


Solo (Friedman)
e|----------------------------------------------------|
B|---------------------------------------------8b12r9-|
G|-------------9-8-7----------------------------------|
D|-----8~--5~--------9-8-7--7-5-7-7b9r7-5-7-5---------|
A|-7~-------------------------------------------------|
E|----------------------------------------------------|

e|----------------------5-7-8-5-8h10p8p7-8-5-|
B|-----------------7-8-----------------------|
G|-x-7--x-8--8/9-9---------------------------|
D|-------------------------------------------|
A|-------------------------------------------|
E|-------------------------------------------|

e|-12p10p8-------10p8p7---------|
B|--------12p10p8------10p8p7---|
G|----------------------------9-|
D|------------------------------|
A|------------------------------|
E|------------------------------|

End Solo


Riff 6
e|-----------------------------|
B|-----------------------------|
G|-----------------------------|
D|-2-----2-----/5----0-2-0-2/3-|
A|-2-----2-----/5----0-2-0-2/3-|
E|---0-0---0-0-----------------|
     * *   * *         * *
e|----------------------------|
B|----------------------------|
G|----------------------------|
D|-2-----2-----5h7-5--0-2-0-3-|
A|-2-----2-----5h7-5--0-2-0-3-|
E|---0-0---0-0----------------|
     * *   * *          * *


Riff 7 (Solo Rhythm)
e|-----------------------------|
B|-----------------------------|
G|-----------------------------|
D|-----------------------------|
A|-4-----4-----/7------4---4/5-|
E|-2-0-0-2-0-0-/5----0-2-0-2/3-|
     * *   * *         * *
e|----------------------------|
B|----------------------------|
G|----------------------------|
D|----------------------------|
A|-4-----4-----7/9-7----4---5-|
E|-2-0-0-2-0-0-5/7-5--0-2-0-3-|
     * *   * *          * *
e|-----------------------------|
B|-----------------------------|
G|-----------------------------|
D|-2-----2-----/5----0-2-0-2/3-|
A|-2-----2-----/5----0-2-0-2/3-|
E|---0-0---0-0-----------------|
     * *   * *         * *
e|----------------------------|
B|----------------------------|
G|----------------------------|
D|-2-----2-----5h7-5--0-2-0-3-|
A|-2-----2-----5h7-5--0-2-0-3-|
E|---0-0---0-0----------------|
     * *   * *          * *


Solo (Mustaine)
e|-----2-----------14-----------2--------|
B|-------5p2---------17p14--------5p2----|
G|-4b6--------16b18---------4b6-------2^-|
D|---------------------------------------|
A|---------------------------------------|
E|---------------------------------------|

e|------------------------------------|
B|------------------------------------|
G|-------2--------4--------2----------|
D|-4p2---2--4p2---4--4p2---2--4p2---2-|
A|-----4--------4--------4--------4-2-|
E|------------------------------------|

e|--------------------------------------------------|
B|--------------------------------------------------|
G|-2b4-{2}{2}{2}{2}{2}-(4)r3-{2}{2}{2}-(3)r2-{2}{2}-|
D|-a----a--a--a--a--a---------a--a--a---------a--a--|
A|--------------------------------------------------|
E|--------------------------------------------------|

e|------------------------|
B|------------------------|
G|-0tr2-------------------|
D|-------0tr2-------------|
A|-------------0tr2-------|
E|-------------------0tr3-|

End Solo


Riff 8 (Solo Rhythm)
e|------------------------|
B|------------------------|
G|--------0-------0-------|
D|------4---4-------4-2---|
A|-0h2--------2h3-------3-|
E|------------------------|

e|------------------------|
B|------------------------|
G|--------0-------0-------|
D|------4---4-------4-2---|
A|-3/4--------4/5-------3-|
E|------------------------|

e|------------------------|
B|------------------------|
G|--------0-------0-------|
D|------4---4-------4-2---|
A|-0h2--------2h3-------3-|
E|------------------------|

e|------------------------|
B|------------------------|
G|--------0-------0-------|
D|------4---4-------4-2---|
A|----------------------2-|
E|-0h2--------2h3---------|


Solo (Friedman)
e|-----------------------------12-15p12---15p12---16b18-16b18~-|
B|---------------------------12--------12------12--------------|
G|------9-11-11b12r11~~--4/12----------------------------------|
D|-9~-9--------------------------------------------------------|
A|-------------------------------------------------------------|
E|-------------------------------------------------------------|

e|-------------------------------------|
B|-17p12-15p12-17p12-15p12-------------|
G|-------------------------14b16r14-12-|
D|-------------------------------------|
A|-------------------------------------|
E|-------------------------------------|

e|--------------15-16-17-----------------17-15-------|
B|------17-18-19--------20b22--[20]22r21-------17b19-|
G|-14/16---------------------------------------------|
D|---------------------------------------------------|
A|---------------------------------------------------|
E|---------------------------------------------------|

e|-----------------------------------15---13---14---|
B|-[17]18p15-17p15----14b15--(15)r14---14---15---13-|
G|-----------------16-------------------------------|
D|--------------------------------------------------|
A|--------------------------------------------------|
E|--------------------------------------------------|

e|-----------12----------12----------12--12-15-|
B|-12-15b17----12-15b17----12-15b17----15------|
G|---------------------------------------------|
D|---------------------------------------------|
A|---------------------------------------------|
E|---------------------------------------------|

e|-17p12-----------------15p12------------------------|
B|------15p12--12--12-15------12----------------------|
G|-----------14--14-------------14--12\11--(11)b12~~\-|
D|----------------------------------------------------|
A|----------------------------------------------------|
E|----------------------------------------------------|

e|------------------------------------------|
B|------------------------------------------|
G|--7/9-9-9-9/12-12-12-12/16-16-16-16/19-19-|
D|------------------------------------------|
A|------------------------------------------|
E|------------------------------------------|

e|-----------------------------15-17-19-20-22b24~~-|
B|---------------------------17--------------------|
G|-19\18-(18)b21r18p16--16-19----------------------|
D|--------------------19---------------------------|
A|-------------------------------------------------|
E|-------------------------------------------------|

End Solo


Riff 9 (Solo Rhythm)
e|-------------------------------|
B|-------------------------------|
G|-------------------------------|
D|-2-------5-4-3--3-------5-4-3--|
A|-2-------5-4-3--3-------5-4-3--|
E|---0-0-0----------0-0-0--------|
     * * *          * * *
e|-----------------------------|
B|-----------------------------|
G|-----------------------------|
D|-0-------5-4-3--7-6-5--5-4-3-|
A|-0-------5-4-3--7-6-5--5-4-3-|
E|---0-0-0---------------------|
     * * *


Solo (Mustaine)
e|------------------------------------|
B|------------------------------------|
G|-4p2p0----4p2p0----5p2p0----5p2p0---|
D|-------4--------2--------4--------2-|
A|------------------------------------|
E|------------------------------------|

e|----------------------------------------|
B|-------------------3p1p0----------------|
G|-6p4p0----6p4p0---------4p2p0-----------|
D|-------4--------2------------4p2p0------|
A|----------------------------------3p2p0-|
E|----------------------------------------|

e|------------------------------------|
B|------------------------------------|
G|-4p2p0----4p2p0----5p2p0----5p2p0---|
D|-------4--------2--------4--------2-|
A|------------------------------------|
E|------------------------------------|

e|----------------------------------------|
B|-------------------3p1p0----------------|
G|-6p4p0----6p4p0---------4p2p0-----------|
D|-------4--------2------------4p2p0------|
A|----------------------------------3p2p0-|
E|----------------------------------------|

End Solo


Riff 8a (Solo Rhythm)
e|------------------------|
B|------------------------|
G|--------0-------0-------|
D|------4---4-------4-2---|
A|-0h2--------2h3-------3-|
E|------------------------|

e|------------------------|
B|------------------------|
G|--------0-------0-------|
D|------4---4-------4-2---|
A|-3/4--------4/5-------3-|
E|------------------------|

e|------------------------|
B|------------------------|
G|--------0-------0-------|
D|------4---4-------4-2---|
A|-0h2--------2h3-------3-|
E|------------------------|

e|-----------------------|
B|-----------------------|
G|--------0-------0------|
D|------4---4-------4-2--|
A|-----------------------|
E|-0h2--------2h3--------|


Solo (Friedman)
e|----------------------------------17-19-22p19p17------|
B|-------------17-19-18b20~~--17-20---------------20-17-|
G|-15b16~-{15}------------------------------------------|
D|------------------------------------------------------|
A|------------------------------------------------------|
E|------------------------------------------------------|

e|-22p19p17---21b22r21b22~~--22b24~~-|
B|---------20------------------------|
G|-----------------------------------|
D|-----------------------------------|
A|-----------------------------------|
E|-----------------------------------|

e|-22-21-17--21-19-17--19\-17-14--17\-15-12--15\-14-10--14-|
B|---------------------------------------------------------|
G|---------------------------------------------------------|
D|---------------------------------------------------------|
A|---------------------------------------------------------|
E|---------------------------------------------------------|

e|-18-15------------14-13-12--------------------------|
B|-------17-15---------------16-15-14-----------------|
G|-------------16\--------------------16-x-16b18r16~~-|
D|----------------------------------------------------|
A|----------------------------------------------------|
E|----------------------------------------------------|

End Solo


Play Riff 7   Solo Rhythm

Riff 5a (Solo Rhythm)            x3
e|--------------------------------|
B|--------------------------------|
G|--------------------------------|
D|-2-----3-----0-----7-6-5--5-4-3-|
A|-2-----3-----0-----7-6-5--5-4-3-|
E|---0-0---0-0---0-0--------------|
     * *   * *   * *
e|-------------------------|
B|-------------------------|
G|-------------------------|
D|-2-----3-----0-----------|
A|-2-----3-----0---2-------|
E|---0-0---0-0---0---3-2-1-|
     * *   * *   *   * * *


Solo (Mustaine)
e|-19b21-19b21--19b21-19b21--19b21-19b21--19b21-19b21-|
B|----------------------------------------------------|
G|----------------------------------------------------|
D|----------------------------------------------------|
A|----------------------------------------------------|
E|----------------------------------------------------|

e|----------------------------------------------|
B|----------------------------------------------|
G|-18t17p16p15p14-18t17p16p15p14-18t17p16p15p14-|
D|----------------------------------------------|
A|----------------------------------------------|
E|----------------------------------------------|

e|----------------------------------------------|
B|----------------------------------------------|
G|-18t17p16p15p14-18t17p16p15p14-18t17p16p15p14-|
D|----------------------------------------------|
A|----------------------------------------------|
E|----------------------------------------------|

e|-17p12-----------------------------|
B|------15-12h17p12-15p12---12h15p12-|
G|-----------------------15----------|
D|-----------------------------------|
A|-----------------------------------|
E|-----------------------------------|

e|-17p12-----------------------------|
B|------15-12h17p12-15p12---12h15p12-|
G|-----------------------15----------|
D|-----------------------------------|
A|-----------------------------------|
E|-----------------------------------|

e|-17p12-----------------------------|
B|------15-12h17p12-15p12---12h15p12-|
G|-----------------------15----------|
D|-----------------------------------|
A|-----------------------------------|
E|-----------------------------------|

e|-17p12-----------------------------|
B|------15-12h17p12-15p12---12h15p12-|
G|-----------------------15----------|
D|-----------------------------------|
A|-----------------------------------|
E|-----------------------------------|

[the next part is tremolo picked, just glide your hand up
the e string using this pattern]
e|-5-4-3-3-6-5-4-4-7-6-5-5-8-7-6-6-9-8-7-10-9-8-|
B|----------------------------------------------|
G|----------------------------------------------|
D|----------------------------------------------|
A|----------------------------------------------|
E|----------------------------------------------|

e|-9-8-7-7-10-9-8-8-11-10-9-9-12-11-10-10-13-12-11-14-13-12-|
B|----------------------------------------------------------|
G|----------------------------------------------------------|
D|----------------------------------------------------------|
A|----------------------------------------------------------|
E|----------------------------------------------------------|

e|-13-12-11-11-14-13-12-12-15-14-13-13-16-15-14-14-17-16-15-18-17-16-|
B|-------------------------------------------------------------------|
G|-------------------------------------------------------------------|
D|-------------------------------------------------------------------|
A|-------------------------------------------------------------------|
E|-------------------------------------------------------------------|

e|-17-16-15-15-18-17-16-16-19-18-17-17-20-19-18-22-21-20-|
B|-------------------------------------------------------|
G|-------------------------------------------------------|
D|-------------------------------------------------------|
A|-------------------------------------------------------|
E|-------------------------------------------------------|

e|-24------------------------12--------------------|
B|--h-------------------------h--------------------|
G|-------------------------------------------------|
D|-------------------------------------------------|
A|-------------------------------------------------|
E|---------------------------------------------X\\-|

End Solo


Play Riff 3   "Now I lay me..."

Ending:
e|-------------------------------|
B|-------------------------------|
G|-------------------------------|
D|-------------------------------|
A|-2---------2---------2---------|
E|---3-2-1-0---3-2-1-0---3-2-1-0-|
     * * * * *       * * *
e|-------------------------------|
B|-------------------------------|
G|-------------------------------|
D|--------------------9----------|
A|-2---------2--------7--------2-|
E|---3-2-1-0---3-2-1-----------0-|
     * *       * * *

5.ANGRY AGAIN

E Flat on the album but nowadays it's all E
Standard E

Riff 1 (Intro)
e-----------------------------------------|
B-----------------------------------------|
G-----------------------------------------|
D--0-1-----4-5-----8-9-------12-13--------|
A------2-------6-------10----------14-----|
E--------3-------7--------11----------15--|

Riff 2 (Verse)                 [1][3]      [2]            [4]
e------------------|-----------------|-------|--------------|
B------------------|-----------------|-------|--------------|
G*-----------------|-----------------|-------|-------------*|
D*-----2-----2-----|-2-----2---------|-------|-7-----7-----*|
A----2-----3---3-2-|-2-----2---------|-4-3-2-|-5-----3------|
E--0-----0---------|-0-0-0-0-0-0-0-0-|-5-4-3-|---0-0---3^0--|
   *     *             * *   * * * *             * *
During the verse, before the Intro riff, you play the second ending three times
before proceeding to the fourth.

Riff 1

Riff 3 (Chorus)
e------------------------------------------------------------
B------------------------------------------------------------
G------------------------------------------------------------
D--5---4-5---9----5-----2---4---9---4-9---9----5-----7-------
A--7---5-7---10---7-----3---5---7---5-7---10---3-----5-------
E----0-----0----0---0-0---0---0---0-----0----0---0-0---0-0-0-
     *     *    *   * *   *   *   *     *    *   * *   * * *

e------------------------------------------------------------------|
B------------------------------------------------------------------|
G------------------------------------------------------------------|
D--5---4-5---9----5----2---4---5---4-5---9----5----5----5----5-----|
A--7---5-7---10---7----3---5---7---5-7---10---3----2----0----2-----|
E----0-----0----0---00---0---0---0-----0----0---00---00---00---000-|
     *     *    *   **   *   *   *     *    *   **   **   **   ***

Riff 2 (verse)

Riff 1 (intro)

Riff 3 (chorus)

Riff 4 (bridge)
E-----------------------------------------------------------------------
B-----------------------------------------------------------------------
G-----------------------------------------------------------------------
D--2-2-2--2-2-2--3-3-3--3-3-3--4-4-4--4-4-4--5-5-5--5-5-5--6-6-6--6-6-6-
A--2-2-2--2-2-2--3-3-3--3-3-3--4-4-4--4-4-4--5-5-5--5-5-5--6-6-6--6-6-6-
E--0-0-0--0-0-0--1-1-1--1-1-1--2-2-2--2-2-2--3-3-3--3-3-3--4-4-4--4-4-4-
   * * *  * * *  * * *  * * *  * * *  * * *  * * *  * * *  * * *  * * *

E---------------------------------------|
B---------------------------------------|
G---------------------------------------|
D--7-7-7--7-7-7--8-8-8--8-8-7-----7-----|
A--7-7-7--7-7-7--8-8-8--8-8-5-----3-----|
E--5-5-5--5-5-5--6-6-6--6-6---0-0---3^--|
   * * *  * * *  * * *  * *   * *

Riff 5 (under solo)
e-------------------------------|
B-------------------------------|
G*-9---------------7-----5-----*|
D*-9---------------7-----5-----*|
A--7---------------5-----3------|
E-----0-0-0-0-0-0----0-0---3^0--|

Riff 6 (still under solo)
e------------------------------------------------------------------|
B------------------------------------------------------------------|
G*----------------------------------------------------------------*|
D*-----2-----2-----0-1-----------------2-----2-----0-1-----4-5----*|
A----2-----3---3-2-----2-------------2-----3---3-2-----2-------6---|
E--0-----0---------------3-2-1-2-3-0-----0---------------3-------7-|

Riff 7
e----------------------|
B----------------------|
G----------------------|
D--(4)--(3)--(4)--(3)--|
A--(4)--(3)--(4)--(3)--|
E--(2)--(1)--(2)--(1)--|

Riff 2 (verse)

Riff 1 (intro)

Riff 3 (chorus)
At the end play the C, G, and D, twice in a row before repeating.

Riff 8 (outro)
e-----------------------------------------|
B-----------------------------------------|
G-----------------------------------------|
D--0-1-----4-5-----8-9---------------2----|
A------2-------6-------10------------2----|
E--------3-------7--------11-2-1-2-3-0----|

6.99 WAYS TO DIE

Tuning: Standard

Riff 1
e|----------------------------|
B|----------------------------|
G|----------------------------|
D|----------------------------|
A|-9-8---9-8---9-8---9-8---\5-|
E|-7-6---7-6---7-6---7-6---\3-|
                         "If I..."

Riff 2
e|-----------------------------|
B|-----------------------------|
G|-----------------------------|
D|---------9\----------------5-|
A|---------7\----5-7-----5-7---|
E|-0-0-000-----------5-7-------|
   * * ***
  "...see the morning hours..."
e|-----------------------------|
B|-----------------------------|
G|----------------------14-12~-|
D|---------9\---11/12---14-12~-|
A|---------7\---10/11----------|
E|-0-0-000---------------------|
   * * ***
  "...one more yesterday..."
e|-----------------------------|
B|-----------------------------|
G|-----------------------------|
D|---------9\--------------5---|
A|---------7\---/7-5---------8-|
E|-0-0-000-----------7-6-5-----|
   * * ***
  "I take life from tomorrow..."
e|-----------------------------|
B|-----------------------------|
G|----------------------14-12~-|
D|---------9\---11/12---14-12~-|
A|---------7\---10/11----------|
E|-0-0-000---------------------|
   * * ***
  "...burned up my today..."


Riff 3
Guitar 1 (Acoustic)          x3
e|----------------------------|
B|-----0-----0-----0-----0----|
G|---0-----0-----0-----0------|
D|-2-----4-----5-----7--------|
A|----------------------------|
E|----------------------------|
   "I down another glass of courage..."

Guitar 2 (Distortion)             x2
e|---------------------------------|
B|---------------------------------|
G|---------------------------------|
D|-------4-----5-----7-----5-4-----|
A|-7---------------------------5---|
E|-------------------------------7-|

e|---------------------------------|
B|---------------------------------|
G|---------------------------------|
D|-------4-----5-----7-----5-4-----|
A|-7---------------------------5-0-|
E|---------------------------------|

Guitar 3 (12 string acoustic)
e|------------------------------|
B|-------10---------------------|
G|-11-12----11-12--9----9\--4~~-|
D|-------------------12---------|
A|------------------------------|
E|------------------------------|


Riff 4 (distortion)
Guitar 1
e|------------------------------|
B|------------------------------|
G|------------------------------|
D|-----------1---2--1--4-2-4-5--|
A|-2--0-3--2---3----------------|
E|------------------------------|
   "...and a shot of thorazine..."

Guitar 2
e|------------------------------|
B|------------------------------|
G|---------------------------4--|
D|-----------1---5--4--7-5-7----|
A|-2--0-3--2---3----------------|
E|------------------------------|


Riff 5 (use uppick on the E5 chord)
e|---------------------------|
B|---------------------------|
G|---------9-----------------|
D|---------9-----------------|
A|---------7----9-8--------3-|
E|-0-0-000---0--7-6------0-1-|
   * * ***   *           *
  "We're not ready to see you yet..."
e|------------------------------|
B|------------------------------|
G|---------9--------------------|
D|---------9--------------------|
A|---------7----9-8---9-8-----3-|
E|-0-0-000---0--7-6---7-6---0-1-|
   * * ***   *              *
  "...99 ways to die..."


Riff 6
e|------------------|
B|------------------|
G|------------------|
D|------------------|
A|-4--2--/7--5--4-3-|
E|-2--0--/5--3--2-1-|


Play Riff 2   "Got a short between the earphones..."

Riff 3a
Guitar 1 (Acoustic)          x3
e|----------------------------|
B|-----0-----0-----0-----0----|
G|---0-----0-----0-----0------|
D|-2-----4-----5-----7--------|
A|----------------------------|
E|----------------------------|
   "In a black tie and straight jacket..."

Guitar 2 (Distortion)             x2
e|---------------------------------|
B|---------------------------------|
G|---------------------------------|
D|-------4-----5-----7-----5-4-----|
A|-7---------------------------5---|
E|-------------------------------7-|

e|---------------------------------|
B|---------------------------------|
G|---------------------------------|
D|-------4-----5-----7-----5-4-----|
A|-7---------------------------5-0-|
E|---------------------------------|

Guitar 3 (Acoustic)
e|--------------------------|
B|-7-8-10--7-8---8-8\--5-5~-|
G|-------------9------------|
D|--------------------------|
A|--------------------------|
E|--------------------------|

Guitar 4 (Acoustic)
e|-5-7-8--5-7---7-7\--3-3~-|
B|------------8------------|
G|-------------------------|
D|-------------------------|
A|-------------------------|
E|-------------------------|


Play Riff 4  "Man I'm gonna try again..."
Play Riff 5  "We're not ready to see you yet..."
Play Riff 6

Riff 7
e|------------------------------------------|
B|------------------------------------------|
G|------------------------------------------|
D|------------------------------------7-6-5-|
A|-4----4-5----4-5-4-3--4----4-5----4-5-4-3-|
E|-2--0-2-3--0-2-3-2-1--2--0-2-3--0-2-------|
      * *    * * * * *     * *    * *

Riff 8 (Solo Rhythm)
                                 x4
e|--------------------------------|
B|--------------------------------|
G|--------------------------------|
D|--------------------------------|
A|---------4------4--4-5-7--8-7-5-|
E|-2-2-222-2-2222-2--2-3-5--6-5-3-|
   * * ***   ****    * *
                                 x2
e|--------------------------------|
B|--------------------------------|
G|--------------------------------|
D|--------------------------------|
A|---------5------5------5--------|
E|-3-3-333-3-3333-3--3-3-3--0-1-2-|
   * * ***   ****    * *    * * *

e|--------------------------------|
B|--------------------------------|
G|--------------------------------|
D|--------------------------------|
A|---------5------5------5--------|
E|-3-3-333-3-3333-3--3-3-3--0-2-3-|
   * * ***   ****    * *    * * *

e|------------------------------|
B|------------------------------|
G|------------------------------|
D|------------------------------|
A|---------7------8------8--7-3-|
E|-5-5-555-5-5555-6--6-6-6--5-1-|
   * * ***   ****    * *


Solo (Friedman)
e|-21-----21----------------19--------------------|
B|-24b26--24b26r24b26-------22b24r22b24--21-21b22-|
G|------------------------------------------------|
D|------------------------------------------------|
A|------------------------------------------------|
E|---------------------X\\------------------------|

e|-18/19p14--------17p14--------------|
B|---------17p14--------17-14---------|
G|--------------16-----------16-14-x--|
D|------------------------------------|
A|------------------------------------|
E|------------------------------------|

e|-14p12------------------------------|
B|------14-13-12-------13/17----------|
G|--------------14-11\-------14~--14\-|
D|------------------------------------|
A|------------------------------------|
E|------------------------------------|

e|-------------------------------------------------|
B|-16b17--16~----14------------------16--(16)b17---|
G|-16b17--16~----14--16-16p14----14--16--(16)b17^--|
D|----------------------------16-------------------|
A|-------------------------------------------------|
E|-------------------------------------------------|

e|---------------------------------------------|
B|----------14-15-16-15-14--------------14b15--|
G|-14h16-17----------------17-16-14-----14^----|
D|-----------------------------------17--------|
A|---------------------------------------------|
E|---------------------------------------------|

e|---------------------------------------------14-17-19b21~~-|
B|------------------------------------------16---------------|
G|----14------------------------------14-17------------------|
D|-16-------14/16--14-----------14/16------------------------|
A|-------16-----------16p14----------------------------------|
E|--------------------------17-------------------------------|

e|-------------------------------------------|
B|-------------------------------------------|
G|--------------------------------15---------|
D|--------------15--------15h16h17--17p16h17-|
A|------15h16h17--17p16h17-------------------|
E|-15h18-------------------------------------|

e|---------------------------------15---------|
B|---------15--------------15h17h18--18p17p15-|
G|-15h17h18--18p17p15h17h18-------------------|
D|--------------------------------------------|
A|--------------------------------------------|
E|--------------------------------------------|

e|-20p15-17---15---------15---------------------|
B|---------18----18p17h18--18p17p15-20p15-17----|
G|-------------------------------------------18-|
D|----------------------------------------------|
A|----------------------------------------------|
E|----------------------------------------------|

e|------------------------------15----15--------15-------|
B|-15---------15-------------------18p15-----------18p15-|
G|----18p17h18--18p17p15-17b19-----------17b19-----------|
D|-------------------------------------------------------|
A|-------------------------------------------------------|
E|-------------------------------------------------------|

e|-18b21----18b20--18b20~~~--18b20--18-15-------------------|
B|---------------------------------------18-15--------------|
G|--------------------------------------------18-17-15b17~~-|
D|----------------------------------------------------------|
A|----------------------------------------------------------|
E|----------------------------------------------------------|

e|----------17-17h22p17--------------------------|
B|-20b22---------------20p17---------------------|
G|--------------------------20--19p17------------|
D|-----------------------------------19-20b21r20-|
A|-----------------------------------------------|
E|-----------------------------------------------|

e|-------------18-20-22-22b24~~~-----(24)\-|
B|----17/20\17-----------------------------|
G|-19--------------------------------------|
D|-----------------------------------------|
A|-----------------------------------------|
E|-----------------------------------------|

End solo


Riff 9
e|---------------------------------------------|
B|---------------------------------------------|
G|---------------------------------------------|
D|------------------------------------5--6-5-3-|
A|-----2-------2----------2-------2---5--6-5-3-|
E|-0-0-0---0-0-0------0-0-0---0-0-0------------|
   * *     * *        * *     * *
                "Perhaps a demitasse of arsenic..."
e|---------------------------------------------------|
B|---------------------------------------------------|
G|---------------------------------------------------|
D|-----------------5--6-5-3-----5--6-5-3-------------|
A|-----2-------2---5--6-5-3-2---5--6-5-3-2----2----2-|
E|-0-0-0---0-0-0------------0------------0----0----0-|
   * *     * *
                "...never mind the tree."    "There is..."


Play Riff 2   "...only death and danger..."

Riff 3b
Guitar 1 (Acoustic)          x3
e|----------------------------|
B|-----0-----0-----0-----0----|
G|---0-----0-----0-----0------|
D|-2-----4-----5-----7--------|
A|----------------------------|
E|----------------------------|
   "Taunting rigor mortis..."

Guitar 2 (Distortion)             x2
e|---------------------------------|
B|---------------------------------|
G|---------------------------------|
D|-------4-----5-----7-----5-4-----|
A|-7---------------------------5---|
E|-------------------------------7-|

e|---------------------------------|
B|---------------------------------|
G|---------------------------------|
D|-------4-----5-----7-----5-4-----|
A|-7---------------------------5-0-|
E|---------------------------------|

Guitar 3 (Acoustic)
e|---------12-10----10----------------------------|
B|--------x------13-----12p10-12~--10-------------|
G|-------x-----------------------------12p11-12~--|
D|------x-----------------------------------------|
A|--7---------------------------------------------|
E|--h.--------------------------------------------|


Riff 4a (distortion)
Guitar 1
e|----------------------------------------|
B|----------------------------------------|
G|-----------------------------2---2-3-4~-|
D|-----------1---2--1--4-2-4-5---5--------|
A|-2--0-3--2---3--------------------------|
E|----------------------------------------|
   "...I feel it draw me in..."

Guitar 2
e|----------------------------------------|
B|----------------------------------------|
G|---------------------------4-5-4-5-7-4~-|
D|-----------1---5--4--7-5-7--------------|
A|-2--0-3--2---3--------------------------|
E|----------------------------------------|


Play Riff 5  "We're not ready to see you yet..."

Riff 10 (use uppick on the E5 chord)
                               x3
e|------------------------------|-------------|
B|------------------------------|-------------|
G|---------9--------------------|---------9---|
D|---------9--------------------|---------9---|
A|---------7----9-8---9-8-----3-|---------7---|
E|-0-0-000---0--7-6---7-6---0-1-|-0-0-000---0-|
   * * ***   *              *     * * ***   *
  "We're not ready, we're not ready..."


Ending:
e|-------------------------|
B|-------------------------|
G|-------------------------|
D|-------------------------|
A|-9-8--9-8--9-8--9-8--9-2-|
E|-7-6--7-6--7-6--7-6--7-0-|
   "Ninety-nine, ninety-nine!"

7.PARANOID

Tuning: Standard

Intro
e|-------------------------------|
B|-------------------------------|
G|-------------------7-9-----7-9-|
D|-7h9--7h9-7h9--7-9-----7-9-----|
A|-7----7---7--------------------|
E|-------------------------------|

e|-------------------------------|
B|-------------------------------|
G|-------------------7-9-----7---|
D|-7h9--7h9-7h9--7-9-----7-9---9-|
A|-7----7---7--------------------|
E|-------------------------------|


Riff 1
Guitar 1
e|---------------------------------|
B|---------------------------------|
G|---------------------------------|
D|-9-9-9-9-9-9-9-9-9-9-9-9-9-9-9-9-|
A|-7-7-7-7-7-7-7-7-7-7-7-7-7-7-7-7-|
E|---------------------------------|
   * * * * * * * * * * * * * * * *
   "Finished with my woman..."
e|---------------------------7/8-|
B|---------------------------8/9-|
G|-----------------7-------------|
D|-7-7-7-7-7-7-7-7-5-7----9------|
A|-5-5-5-5-5-5-5-5---5----7------|
E|-------------------------------|
   * * * * * * * *
   "...couldn't help me..."

Guitar 2
e|---------------------------------|
B|---------------------------------|
G|---------------------------------|
D|-9-9-9-9-9-9-9-9-9-9-9-9-9-9-9-9-|
A|-7-7-7-7-7-7-7-7-7-7-7-7-7-7-7-7-|
E|---------------------------------|
   * * * * * * * * * * * * * * * *
e|---------------------------7---|
B|---------------------------8---|
G|-----------------7-----------9-|
D|-7-7-7-7-7-7-7-7-5-7----9------|
A|-5-5-5-5-5-5-5-5---5----7------|
E|-------------------5-----------|
   * * * * * * * *



Riff 2
e|---------------------|
B|---------------------|
G|---------------------|
D|--9--------5----7----|
A|--7--------3----5----|
E|---------------------|

e|---------------------------------|
B|---------------------------------|
G|---------------------------------|
D|-9-9-9-9-9-9-9-9-9-9-9-9-9-9-9-9-|
A|-7-7-7-7-7-7-7-7-7-7-7-7-7-7-7-7-|
E|---------------------------------|
   * * * * * * * * * * * * * * * *


Play Riff 1   "All day long..."


Riff 3
e|-------------------------------------|
B|-------------------------------------|
G|-------------------------------------|
D|-9--------7--------9--------7--------|
A|-7--------5--------7--------5--------|
E|-------------------------------------|
   "Can you help me?"

Play Riff 1

Play Riff 1   Solo Rhythm

Solo (Mustaine, two guitar tracks)

Guitar 1
e|----------------------------------------------------------|
B|-15--------------15--------------15-----------------------|
G|-14b16-{14}-{14}-14b16-{14}-{14}-14b16-{14}-{14}-12^------|
D|------------------------------------------------------14~-|
A|----------------------------------------------------------|
E|----------------------------------------------------------|

e|-----------------------------------------|
B|-----------------------------------------|
G|-----------------------------------------|
D|-12h14p12----12--------------------------|
A|----------14----14-13-12----12^----------|
E|-------------------------15-----15~--12\-|

e|-17-15-12-12-17-15-12-12-17-15-12-12-17-15-12-12-|
B|-------------------------------------------------|
G|-------------------------------------------------|
D|-------------------------------------------------| ---> Play 4x
A|-------------------------------------------------|
E|-------------------------------------------------|

e|-15p12--12-15p12-15p12--12-15p12-15p12--12-|
B|------15--------------15--------------15---|
G|-------------------------------------------|
D|-------------------------------------------|
A|-------------------------------------------|
E|-------------------------------------------|

e|-15p12--12-17p12--12-15p12--12-17p12--12-|
B|------15--------15--------15--------15---|
G|-----------------------------------------|
D|-----------------------------------------|
A|-----------------------------------------|
E|-----------------------------------------|

e|-15p12------------------------------------|
B|------15p12-17p12-15p12----12-------------|
G|------------------------14----14p12-14p12-|
D|------------------------------------------|
A|------------------------------------------|
E|------------------------------------------|

e|----------------------------------|
B|----------------------------------|
G|-14b16-{14tm}------------(16)r14--|
D|-----------[slow release]---------|
A|----------------------------------|
E|----------------------------------|

e|---------------------------------------------------------|
B|---------------------------------------------------------|
G|-12-14-12--12-----------------12-------------------------|
D|---------14--14-13-12-13-14-12--14-12--------------------|
A|-------------------------------------14-13-12--12--------|
E|---------------------------------------------15--15~-12\-|


Guitar 2
e|----------------------------------------------------------|
B|-15--------------15--------------15-----------------------|
G|-14b16-{14}-{14}-14b16-{14}-{14}-14b16-{14}-{14}-12^------|
D|------------------------------------------------------14~-|
A|----------------------------------------------------------|
E|----------------------------------------------------------|

e|-----------------------------------------|
B|-----------------------------------------|
G|-----------------------------------------|
D|-12h14p12----12--------------------------|
A|----------14----14-13-12----12^----------|
E|-------------------------15-----15~--12\-|

e|-------------------------------------------------|
B|-17-15-12-12-17-15-12-12-17-15-12-12-17-15-12-12-|
G|-------------------------------------------------|
D|-------------------------------------------------| ---> Play 4x
A|-------------------------------------------------|
E|-------------------------------------------------|

e|-------------------------------------------|
B|-15p12--12-15p12-15p12--12-15p12-15p12--12-|
G|------14--------------14--------------14---|
D|-------------------------------------------|
A|-------------------------------------------|
E|-------------------------------------------|

e|-------------------------------------------------------------|
B|-15p12--12-17p12--12-15p12--12-17p12--12-15p12--12-17p12--12-|
G|------14--------14--------14--------14--------14--------14---|
D|-------------------------------------------------------------|
A|-------------------------------------------------------------|
E|-------------------------------------------------------------|

e|---------------------------------------------|
B|-15p12--12-----------------------------------|
G|------14---14p12-14p12-14b16-{14tm}--(16)r14-|
D|---------------------------------------------|
A|---------------------------------------------|
E|---------------------------------------------|

e|-------------------------------------------------------|
B|----13b15-{13}-------{13}----{13}---------[13]15r13-12-|
G|-12-----------[12]14-----{14}----{14}-...--------------|
D|-------------------------------------------------------|
A|-------------------------------------------------------|
E|-------------------------------------------------------|

e|---------------------------------------------------------|
B|-15p12---------------------------------------------------|
G|-------14-12-------14-12---------------------------------|
D|-------------14-12-------14-12---------------------------|
A|-------------------------------14-13-12--12h13p12--------|
E|---------------------------------------15---------15-12\-|

End Solo


Play Riff 1
Play Riff 2
Play Riff 1   "And so as you hear..."

Ending:
Guitar 1
e|---------------------------------|
B|---------------------------------|
G|---------------------------------|
D|-9-9-9-9-9-9-9-9-9-9-9-9-9-9-9-9-|
A|-7-7-7-7-7-7-7-7-7-7-7-7-7-7-7-7-|
E|---------------------------------|
   * * * * * * * * * * * *
e|---------------------------|
B|---------------------------|
G|-----------------7---------|
D|-7-7-7-7-7-7-7-7-5-7----9--|
A|-5-5-5-5-5-5-5-5---5----7--|
E|---------------------------|
             "It's too late!"

Guitar 2
e|---------------------------------|
B|---------------------------------|
G|---------------------------------|
D|-9-9-9-9-9-9-9-9-9-9-9-9-9-9-9-9-|
A|-7-7-7-7-7-7-7-7-7-7-7-7-7-7-7-7-|
E|---------------------------------|
   * * * * * * * * * * * *
e|---------------------------|
B|---------------------------|
G|-----------------7---------|
D|-7-7-7-7-7-7-7-7-5-7----9--|
A|-5-5-5-5-5-5-5-5---5----7--|
E|-5-5-5-5-5-5-5-5---5-------|
             "It's too late!"

8.DIADEMS

Fig. 1A x3
e|--------7------------|---------------------|----0--------------|----0--------------|
B|----7h8---8p7--------|---------------------|----0--------------|----0--------------|
G|----------------7----|--------7------------|-------------------|-------------------|
D|--------------9---7--|----7h9---9p7---5----|------------4-2----|------------4-2----|
A|---------------------|--------------9---7--|--------4h5-----2--|--------4h5-----2--|
E|--0------------------|--0------------------|--0---0------------|--0---0------------|

Fig. 1A x1
e|--------7------------|---------------------|----0--------------|----0--------------|
B|----7h8---8p7--------|---------------------|----0--------------|----0--------------|
G|----------------7----|--------7------------|-------------------|-------------------|
D|--------------9---7--|----7h9---9p7---5----|------------4-2----|-------------------|
A|---------------------|--------------9---7--|--------4h5-----2--|------------2---0--|
E|--0------------------|--0------------------|--0---0------------|--0---0-2h3---2----|

            TIME- 0:40

Fig. 2A x1
e|-------------------------------|--------0--------------|----0--------------|
B|-------------------------------|--------0--------------|----0--------------|
G|-------------------------------|-----------------------|-------------------|
D|--5----------------8--8--8--7--|--5--2----------4-2----|-------------------|
A|--5----------------8--8--8--7--|--5--2------4h5-----2--|------------2---0--|
E|--3---0-2-3-4-3-2--6--6--6--5--|--3--0----0------------|--0---0-2h3---2----|
          . . . . .

Fig. 2B x1
e|-------------------------------|--------0--------------|----0--------------|
B|-------------------------------|--------0--------------|----0--------------|
G|-------------------------------|-----------------------|-------------------|
D|--5----------------8--8--8--7--|--5--2----------4-2----|------------4-2----|
A|--5----------------8--8--8--7--|--5--2------4h5-----2--|--------4h5-----2--|
E|--3---0-2-3-4-3-2--6--6--6--5--|--3--0----0------------|--0---0------------|
          . . . . .

            TIME- 1:00

Fig. 1A x1
e|--------7------------|---------------------|----0--------------|----0--------------|
B|----7h8---8p7--------|---------------------|----0--------------|----0--------------|
G|----------------7----|--------7------------|-------------------|-------------------|
D|--------------9---7--|----7h9---9p7---5----|------------4-2----|------------4-2----|
A|---------------------|--------------9---7--|--------4h5-----2--|--------4h5-----2--|
E|--0------------------|--0------------------|--0---0------------|--0---0------------|

Fig. 1A x1
e|--------7------------|---------------------|----0--------------|----0--------------|
B|----7h8---8p7--------|---------------------|----0--------------|----0--------------|
G|----------------7----|--------7------------|-------------------|-------------------|
D|--------------9---7--|----7h9---9p7---5----|------------4-2----|-------------------|
A|---------------------|--------------9---7--|--------4h5-----2--|------------2---0--|
E|--0------------------|--0------------------|--0---0------------|--0---0-2h3---2----|

            TIME- 1:20

Fig. 2A x1
e|-------------------------------|--------0--------------|----0--------------|
B|-------------------------------|--------0--------------|----0--------------|
G|-------------------------------|-----------------------|-------------------|
D|--5----------------8--8--8--7--|--5--2----------4-2----|-------------------|
A|--5----------------8--8--8--7--|--5--2------4h5-----2--|------------2---0--|
E|--3---0-2-3-4-3-2--6--6--6--5--|--3--0----0------------|--0---0-2h3---2----|
          . . . . .

Fig. 2C x1
e|-------------------------------|-----|
B|-------------------------------|-----|
G|-------------------------------|-----|
D|--5----------------8--8--8--7--|--5--|
A|--5----------------8--8--8--7--|--5--|
E|--3---0-2-3-4-3-2--6--6--6--5--|--3--|
          . . . . .

            TIME- 1:35

Fig. 3A x3
e|-----0--------0----------------------|
B|-----0--------0----------------------|
G|-------------------------------------|
D|--2--------4-------------------------|
A|--2--------2-------------------------|
E|--0-----0--------0--3-2-3-2-3-4-3-2--|
                      . . . . . . . .

Fig. 3B x1
e|-----0--------0----------------------|
B|-----0--------0----------------------|
G|-------------------------------------|
D|--2--------4-------------------------|
A|--2--------2-------------------------|
E|--0-----0--------0--3-2-3-2-2-3-4-5--|
                      . . . . . . . .

            TIME- 1:53

Fig. 4A x2
e|-------------|---------------|-------------|--------------|
B|-------------|---------------|-------------|--------------|
G|--9-------9--|---------------|--7-------7--|----------10--|
D|--9-------9--|--8---------8--|--7-------7--|----------10--|
A|--7-7-7-7-7--|--8---------8--|--5-5-5-5-5--|-----------8--|
E|-------------|--6-6-6-6-6-6--|-------------|--8-9-7-6-----|
      . . .         . . . .         . . .       . . . .

e|-------------|---------------|-------------|---------------|
B|-------------|---------------|-------------|---------------|
G|--9-------9--|---------------|--7-------7--|---------------|
D|--9-------9--|--8---------8--|--7-------7--|---------------|
A|--7-7-7-7-7--|--8---------8--|--5-5-5-5-5--|------------8--|
E|-------------|--6-6-6-6-6-6--|-------------|--7-8-7-6-6----|
      . . .         . . . .         . . .       . . . . . .

Fig. 4B x1
e|-------------|---------------|-------------|--------------|
B|-------------|---------------|-------------|--------------|
G|--9-------9--|---------------|--7-------7--|----------10--|
D|--9-------9--|--8---------8--|--7-------7--|----------10--|
A|--7-7-7-7-7--|--8---------8--|--5-5-5-5-5--|-----------8--|
E|-------------|--6-6-6-6-6-6--|-------------|--8-9-7-6-----|
      . . .         . . . .         . . .       . . . .

            TIME- 2:14

Fill 1 x1
    Guitar 1
  e|--12-------------------------------------|
  B|-------14--------------------------------|
  G|------------15---12----------------------|
  D|----------------------14---11------------|
  A|--------------------------------13---10--|
  E|-----------------------------------------|

    Guitar 2
  e|--10----------------------------------|
  B|-------11-----------------------------|
  G|------------12---9--------------------|
  D|---------------------11---8-----------|
  A|------------------------------10---7--|
  E|--------------------------------------|

Fig. 4A x2
e|-------------|---------------|-------------|--------------|
B|-------------|---------------|-------------|--------------|
G|--9-------9--|---------------|--7-------7--|----------10--|
D|--9-------9--|--8---------8--|--7-------7--|----------10--|
A|--7-7-7-7-7--|--8---------8--|--5-5-5-5-5--|-----------8--|
E|-------------|--6-6-6-6-6-6--|-------------|--8-9-7-6-----|
      . . .         . . . .         . . .       . . . .

e|-------------|---------------|-------------|---------------|
B|-------------|---------------|-------------|---------------|
G|--9-------9--|---------------|--7-------7--|---------------|
D|--9-------9--|--8---------8--|--7-------7--|---------------|
A|--7-7-7-7-7--|--8---------8--|--5-5-5-5-5--|------------8--|
E|-------------|--6-6-6-6-6-6--|-------------|--7-8-7-6-6----|
      . . .         . . . .         . . .       . . . . . .

            TIME- 2:33

Riff 1A x2
    Guitar 1
  e|-----------------------------------------------------|
  B|--12-------12-11-----11--10h11p10-----10-------------|
  G|-------9----------9----------------9------12-9-------|
  D|-----------------------------------------------9-12--|
  A|-----------------------------------------------------|
  E|-----------------------------------------------------|

    Guitar 2
  e|----------------------------------------------|
  B|----------------------------------------------|
  G|--7-------7--6~-------6--5h6p5-----5-4--------|
  D|------5-----------5-------------5------5------|
  A|-----------------------------------------5-7--|
  E|----------------------------------------------|


Riff 1B x2
    Guitar 1
  e|--------------------------------------------------------------|
  B|--14--------14--13--------13--12h13p12--------12--------------|
  G|-------11------------11------------------11------14-11--------|
  D|-------------------------------------------------------11-14--|
  A|--------------------------------------------------------------|
  E|--------------------------------------------------------------|

    Guitar 2
  e|-------------------------------------------------|
  B|-------------------------------------------------|
  G|--9~-------9--8~-------8--7h8p7-------7-6--------|
  D|-------7----------7---------------7-------7------|
  A|--------------------------------------------7-9--|
  E|-------------------------------------------------|

            TIME- 2:51

Riff 1C x2
    Guitar 1
  e|--------------------------------|
  B|--15~--------15--14~--------14--|
  G|--------12-------------12-------|
  D|--------------------------------|
  A|--------------------------------|
  E|--------------------------------|

    Guitar 2
  e|----------------------------|
  B|----------------------------|
  G|--10~-------10--9~-------9--|
  D|--------8------------8------|
  A|----------------------------|
  E|----------------------------|

Riff 1D x2
    Guitar 1
  e|------------------|
  B|--15------14------|
  G|------12------12--|
  D|------------------|
  A|------------------|
  E|------------------|

    Guitar 2
  e|---------------|
  B|---------------|
  G|--10-----9-----|
  D|------8-----8--|
  A|---------------|
  E|---------------|

Riff 1E x2
    Guitar 1
  e|---------------------------|
  B|--15----------14-----------|
  G|-----15-12-15----15-12-14--|
  D|---------------------------|
  A|---------------------------|
  E|---------------------------|

    Guitar 2
  e|------------------------|
  B|------------------------|
  G|--10---------9----------|
  D|-----11-8-11---11-8-11--|
  A|------------------------|
  E|------------------------|

            TIME- 2:58

Fig. 5A x4
e|-----|---------|
B|-----|---------|
G|-----|---------|
D|--2--|---------|
A|--2--|------2--|
E|--0--|--3-2-0--|

            TIME- 3:12

Fig. 5B x4
e|-------|---------|
B|-------|---------|
G|--9-\--|---------|
D|--9-\--|---------|
A|--7-\--|------2--|
E|-------|--3-2-0--|

            TIME- 3:25

Fig. 5A x4
e|-----|---------|
B|-----|---------|
G|-----|---------|
D|--2--|---------|
A|--2--|------2--|
E|--0--|--3-2-0--|

            TIME- 3:38

End (let it ring a while...)
e|-----|
B|-----|
G|-----|
D|--2--|
A|--2--|
E|--0--|

9.PROBLEMS

Tuning: Eb


Riff 1
eb|--------------------------------|
Bb|--------------------------------|
Gb|-7-7-7-5-5-5-5------5h7-5~------|
Db|-7-7-7-5-5-5-5-2--2-5h7-5~--7p5-|
Ab|-5-5-5-3-3-3-3-0--0---------7p5-|
Eb|--------------------------------|


Riff 2
eb|--------------------------------|
Bb|--------------------------------|
Gb|--------------------5h7-5~------|
Db|-7-7-7-5-5-5-5-2--2-5h7-5~--7p5-|
Ab|-5-5-5-3-3-3-3-0--0---------7p5-|
Eb|--------------------------------|
    * * * * * * *
   "Too many problems..."

Riff 3
Guitar 1
eb|---------------------------------|
Bb|---------------------------------|
Gb|-2-2-2-2-2-2-2-2-2-2-2-2-2-2-2-2-|
Db|-2-2-2-2-2-2-2-2-2-2-2-2-2-2-2-2-|
Ab|-0-0-0-0-0-0-0-0-0-0-0-0-0-0-0-0-|
Eb|---------------------------------|

eb|---------------------------------|
Bb|---------------------------------|
Gb|-4-4-4-4-4-4-4-4-4-4-4-4-4-4-4-4-|
Db|-4-4-4-4-4-4-4-4-4-4-4-4-4-4-4-4-|
Ab|-2-2-2-2-2-2-2-2-2-2-2-2-2-2-2-2-|
Eb|-2-2-2-2-2-2-2-2-2-2-2-2-2-2-2-2-|

eb|---------------------------------|
Bb|---------------------------------|
Gb|-5-5-5-5-5-5-5-5-5-5-5-5-5-5-5-5-|
Db|-5-5-5-5-5-5-5-5-5-5-5-5-5-5-5-5-|
Ab|-3-3-3-3-3-3-3-3-3-3-3-3-3-3-3-3-|
Eb|---------------------------------|

Guitar 2
eb|---------------------------------|
Bb|-------------------3-3-3-3-2-2-2-|
Gb|-2-2-2-2-2-2-2-2-2-2-2-2-2-2-2-2-|
Db|-2-2-2-2-2-2-2-2-2---------------|
Ab|-0-0-0-0-0-0-0-0-0---------------|
Eb|---------------------------------|

eb|---------------------------------|
Bb|-----------------5-4-4-4-5-4-4-4-|
Gb|-4-4-4-4-4-4-4-4-4-4-4-4-4-4-4-4-|
Db|-4-4-4-4-4-4-4-4-----------------|
Ab|-2-2-2-2-2-2-2-2-----------------|
Eb|-2-2-2-2-2-2-2-2-----------------|

eb|-----------------------8-----8----|
Bb|------------------/5h6---5h6---6\-|
Gb|-5-5-5-5-5-5-5-5------------------|
Db|-5-5-5-5-5-5-5-5------------------|
Ab|-3-3-3-3-3-3-3-3------------------|
Eb|----------------------------------|


Play Riff 1
Play Riff 2
Play Riff 3   except use this for ending to guitar 2:
eb|-----------------------8-----8---------8-|
Bb|------------------/5h6---5h6---5-(5)h6---|
Gb|-5-5-5-5-5-5-5-5-------------------------|
Db|-5-5-5-5-5-5-5-5-------------------------|
Ab|-3-3-3-3-3-3-3-3-------------------------|
Eb|-----------------------------------------|


Play Riff 1  "...you, what you going to do..."
Play Riff 1  Solo Rhythm


Solo (Mustaine)
eb|-------17-17-------17-17-17-17-|
Bb|-------17-17-------17-17-17-17-|
Gb|-19b21-------19b21-------------|
Db|-------------------------------|
Ab|-------------------------------|
Eb|-------------------------------|

eb|-------17-17-------17-17-17-17-|
Bb|-------17-17-------17-17-17-17-|
Gb|-19b21-------19b21-------------|
Db|-------------------------------|
Ab|-------------------------------|
Eb|-------------------------------|

eb|-------17-17-------17-17-17-17-|
Bb|-------17-17-------17-17-17-17-|
Gb|-19b21-------19b21-------------|
Db|-------------------------------|
Ab|-------------------------------|
Eb|-------------------------------|

eb|-------17-17-------17-17----17-|
Bb|-------17-17-------17-17-20-17-|
Gb|-19b21-------19b21-------------|
Db|-------------------------------|
Ab|-------------------------------|
Eb|-------------------------------|

eb|-------17-17-------17-17-17-17-|
Bb|-------17-17-------17-17-17-17-|
Gb|-19b21-------19b21-------------|
Db|-------------------------------|
Ab|-------------------------------|
Eb|-------------------------------|

eb|-------17-17-------17-17----17-|
Bb|-------17-17-------17-17-20-17-|
Gb|-19b21-------19b21-------------|
Db|-------------------------------|
Ab|-------------------------------|
Eb|-------------------------------|

eb|-------------------------------|
Bb|-------17-17-------17-17-20-17-|
Gb|-19b21-------19b21-------------|
Db|-------------------------------|
Ab|-------------------------------|
Eb|-------------------------------|

eb|-------------------------------|
Bb|-------17-17-------17-17-20-17-|
Gb|-19b21-------19b21-------------|
Db|-------------------------------|
Ab|-------------------------------|
Eb|-------------------------------|

eb|----------------------------------------------|
Bb|-17----17-17^-----17-17^-----17-17^-----19----|
Gb|-17----17-17^-----17-17^-----17-17^-----19----|
Db|----19---------19---------19---------19----19-|
Ab|----------------------------------------------|
Eb|----------------------------------------------|

eb|----------------------------------------------|
Bb|-17----17-17^-----17-17^-----17-17^-----19----|
Gb|-17----17-17^-----17-17^-----17-17^-----19----|
Db|----19---------19---------19---------19----19-|
Ab|----------------------------------------------|
Eb|----------------------------------------------|

eb|-----------------------------------------------|
Bb|-17----17-17^-----19----17----17-17^-----19----|
Gb|-17----17-17^-----19----17----17-17^-----19----|
Db|----19---------19----19----19---------19----19-|
Ab|-----------------------------------------------|
Eb|-----------------------------------------------|

eb|--------------------------|
Bb|-17----19----17----17-----|
Gb|-17----19----17----17-19^-|
Db|----19----19----19--------|
Ab|--------------------------|
Eb|--------------------------|

eb|-17-17-------17-17-------17--------17---|
Bb|-17-17-------17-17-------17--------17---|
Gb|-------19b21-------19b21----19b21-(21)--|
Db|----------------------------------------|
Ab|----------------------------------------|
Eb|----------------------------------------|

End Solo


Play Riff 3   except use this for ending to guitar 2:
eb|-----------------------8-----8-----8----|
Bb|------------------/5h6---5h6---5h6---6\-|
Gb|-5-5-5-5-5-5-5-5------------------------|
Db|-5-5-5-5-5-5-5-5------------------------|
Ab|-3-3-3-3-3-3-3-3------------------------|
Eb|----------------------------------------|

Play Riff 1  "...you, what you going to do?"
Play Riff 2

Guitar fills over Riff 2
eb|---------------------------|
Bb|-10-10\--------/10-10-10\--|
Gb|--9--9\--------/-9--9--9\--|
Db|---------------------------|
Ab|---------------------------|
Eb|---------------------------|

eb|---------------------------------------|
Bb|---------------------------------------|
Gb|-7--(7)b8--(8)r7\----7--(7)b8--(8)r7\--|
Db|-7--(7)b8--(8)r7\----7--(7)b8--(8)r7\--|
Ab|---------------------------------------|
Eb|---------------------------------------|

eb|-------------------------------------|
Bb|-/10-10-10\--------------------------|
Gb|-/-9--9--9\--------7--(7)b8--(8)r7\--|
Db|-------------------7--(7)b8--(8)r7\--|
Ab|-------------------------------------|
Eb|-------------------------------------|

eb|---------------------------------------|
Bb|---------------------------------------|
Gb|-7--(7)b8--(8)r7\----7--(7)b8--(8)r7\--|
Db|-7--(7)b8--(8)r7\----7--(7)b8--(8)r7\--|
Ab|---------------------------------------|
Eb|---------------------------------------|

eb|------------|
Bb|------------|
Gb|-5-7-5------|
Db|-5-7-5--7\--|
Ab|--------7\--|
Eb|------------|

End guitar fills


Play Riff 3   except use this for ending to guitar 2:
eb|-----------------------8-----8-----8----|
Bb|------------------/5h6---5h6---5h6---6\-|
Gb|-5-5-5-5-5-5-5-5------------------------|
Db|-5-5-5-5-5-5-5-5------------------------|
Ab|-3-3-3-3-3-3-3-3------------------------|
Eb|----------------------------------------|


Play Riff 1  "...you, what you going to do?"


Ending Rhythm:
eb|-----------------------------------|
Bb|-----------------------------------|
Gb|-----------------------------------|
Db|-2-----2-2--------2-----2-2--------|
Ab|-0-0-0-0-0--0-0-0-0-0-0-0-0--0-0-0-|
Eb|-----------------------------------|
      * *      * * *   * *      * * *
   "Problem, problem..."
eb|---------------------------------------|
Bb|---------------------------------------|
Gb|---------------------------------------|
Db|-2-------2-------2-----2----2--------2-|
Ab|-0-0-0-0-0-0-0-0-0-0-0-0----0--------0-|
Eb|---------------------------------------|
      * * *   * * *   * *
   "Problem, problem..."

Ending lead:
eb|-----5-5-----5-5-5-5-----5-5-----5-5-5-5-|
Bb|-----5-5-----5-5-5-5-----5-5-----5-5-5-5-|
Gb|-7b9-----7b9---------7b9-----7b9---------|
Db|-----------------------------------------|
Ab|-----------------------------------------|
Eb|-----------------------------------------|

Final time:
eb|-----5-5-----5-5-5-5-----5-5--5----|
Bb|-----5-5-----5-5-5-5-----5-5--5----|
Gb|-7b9-----7b9---------7b9------7b9--|
Db|-----------------------------------|
Ab|-----------------------------------|
Eb|-----------------------------------|
comments
We did not receive enough feedback on this tab! Please rate:
print report bad tab
1 2 3 4 5
I want to post or [tab]
guest
You may want to rate the tab now too:
select rating
Please do not post tabs as comments. Select "correction" instead!