Oops, an error
Loading. Please wait.

High Speed Dirt Tab

ver3
ver3

Whole song

Interactive

More versions @911Tabs.com
4,110 views 1 this week
no commentswrite comment
1 2 3 4 5
excellent!
x 2
Autoscroll
+/-
esc
set tempo
stop
Contributor
Hey! There's an official Ultimate Guitar app which is ideal
for learning songs when you're away from computer. Get the app
WARNING: You are trying to view
                                    content from Ultimate-Guitar.com
                                    in an unauthorized application,
                                    which is prohibited.

                                    Please use an official Ultimate
                                    Guitar Tabs application for iPhone,
                                    iPad or Android to access legitimate
                                    chords, guitar, bass, and drum tabs
                                    from Ultimate-Guitar.com database.

                                    Type "ultimate guitar tabs" in Apple
                                    App Store's or Android Market's
                                    search to find the application.
#----------------------------------PLEASE NOTE---------------------------------#
#This file is the author's own work and represents their interpretation of the #
#song. You may only use this file for private study, scholarship, or research. #
#------------------------------------------------------------------------------#

HIGH SPEED DIRT
As recorded by Megadeth
(From the 1992 Album COUNTDOWN TO EXTINCTION)

Transcribed by /\X/\M
        

Words and Music by Dave Mustaine & Dave Ellefson

Gtr I (E A D G B E) - 'Dist. 1'
Gtr II (E A D G B E) - 'Dist. 2'
Gtr III (E A D G B E) - 'Clean'

 Intro
  Fast Rock Q=180
 4/4
  Gtr I
  <
                PM--|   PM    PM----|
  W          Q  E E E E E E   E E E E E  E  E  E
|-0--------:----------------|---------0-(0)-------|
|-0--------:----------------|-------0----0-----3--|
|----------:-5--------7---2-|-----5---------5-(5)-|
|----------:-5--------7---2-|---5-----------------|
|-0--------:----0-0-0---0---|-0-------------------|
|----------:----------------|---------------------|


     PM--|             ~        PM|
  Q  E E E S S S S E   H    +E  E E E
|--------------------|----------------|
|--------------------|----------------|
|-5--------5s6---5s6-|-5----(5)-------|
|-4--------4s5---4s5-|-4----(4)-----7-|
|----0-0-0-----------|----------0-0-7-|
|--------------------|----------------|


        PM--|   PM    PM  PM  PM  PM
  +Q    E E E E E E   E E E E E E E S S
|-------------------|-------------------|
|-------------------|-------------------|
|-------------7---2-|---5---7---2---5p4h|
|-(7)\--------7---2-|---5---7---2---5p4-|
|-(7)\--0-0-0---0---|-0---0---0---0-----|
|-------------------|-------------------|


   ~~~ PM--|
   Q   E E E E E E   +E   E E E +E   E E E
|------------------|------------------------||
|------------------|------------------------||
|--5---------------|------------------------||
|-(4)--------2-3-4-|-(4)\-2-3-4-(4)\-2-3-4--||
|------0-0-0-3-4-5-|-(5)\-3-4-5-(5)\-3-4-5--||
|------------------|------------------------||


   Verse
    $
    Gtrs I, II
       PM--|   PM                      ~~~
    Q  E E E E E E   +E  E E E +E  E E E
||-----------------|---------------------|
||o----------------|---------------------|
||--5--------5---5-|-(5)-5---7-(7)-5-0-5-|
||--5--------5---4-|-(4)-4-0-7-(7)-4-0-5-|
||o----0-0-0---0---|---------------------|
||-----------------|---------------------|


 ~~~~~ PM--|   PM                      ~
  +Q   E E E E E E   +E  E E E +E  E E E
|------------------|----------------------|
|------------------|----------------------|
|-(5)--------5---5-|-(5)-5---7-(7)-5-0-5--|
|-(5)--------5---4-|-(4)-4-0-7-(7)-4-0-5--|
|------0-0-0---0---|----------------------|
|------------------|----------------------|


   ~~~ PM--|   PM                      ~~~
  +Q   E E E E E E   +E  E E E +E  E E E
|------------------|---------------------|
|------------------|---------------------|
|-(5)--------5---5-|-(5)-5---7-(7)-5-0-5-|
|-(5)--------5---4-|-(4)-4-0-7-(7)-4-0-5-|
|------0-0-0---0---|---------------------|
|------------------|---------------------|


 ~~~~~ PM--|   PM                      ~
  +Q   E E E E E E   +E  E E E +E  E E E
|------------------|---------------------|
|------------------|---------------------|
|-(5)--------5---5-|-(5)-5---7-(7)-5-0-5-|
|-(5)--------5---4-|-(4)-4-0-7-(7)-4-0-5-|
|------0-0-0---0---|---------------------|
|------------------|---------------------|


   ~~~ PM--|   PM                      ~~~
  +Q   E E E E E E   +E  E E E +E  E E E
|------------------|---------------------|
|------------------|---------------------|
|-(5)--------5---5-|-(5)-5---7-(7)-5-0-5-|
|-(5)--------5---4-|-(4)-4-0-7-(7)-4-0-5-|
|------0-0-0---0---|---------------------|
|------------------|---------------------|


 ~~~~~ PM--|   PM                      ~
  +Q   E E E E E E   +E  E E E +E  E E E
|------------------|---------------------|
|------------------|---------------------|
|-(5)--------5---5-|-(5)-5---7-(7)-5-0-5-|
|-(5)--------5---4-|-(4)-4-0-7-(7)-4-0-5-|
|------0-0-0---0---|---------------------|
|------------------|---------------------|


   ~~~ PM--|   PM                      ~~~
  +Q   E E E E E E   +E  E E E +E  E E E
|------------------|---------------------|
|------------------|---------------------|
|-(5)--------5---5-|-(5)-5---7-(7)-5-0-5-|
|-(5)--------5---4-|-(4)-4-0-7-(7)-4-0-5-|
|------0-0-0---0---|---------------------|
|------------------|---------------------|


 ~~~~~ PM--|   PM
  +Q   E E E E E E   +E  E E E +E  E E  E
|------------------|-----------------------||
|------------------|-----------------------||
|-(5)--------5---5-|-(5)-5---7-(7)-5-0-(2)-||
|-(5)--------5---4-|-(4)-4-0-7-(7)-4-0--2--||
|------0-0-0---0---|--------------------0--||
|------------------|-----------------------||


 Pre-Chorus
       PM--|   PM    PM  PM
  +Q   E E E E E E   E E E E +E  E E E
|------------------|-------------------|
|------------------|-------------------|
|-(2)--------4---5-|---7---8-(8)-7-5-2-|
|-(2)--------4---5-|---7---8-(8)-7-5-2-|
|-(0)--0-0-0-2-0-3-|-0-5-0-6-(6)-5-3-0-|
|------------------|-------------------|


       PM--|   PM    PM  PM
  +Q   E E E E E E   E E E E +E   E   E  E
|------------------|-----------------------|
|------------------|-----------------------|
|-(2)--------4---5-|---7---8-(8)-/9-(12)-2-|
|-(2)--------4---5-|---7---8-(8)-/9--13--2-|
|-(0)--0-0-0-2-0-3-|-0-5-0-6-(6)-/7--10--0-|
|------------------|-----------------------|


       PM--|   PM    PM  PM
  +Q   E E E E E E   E E E E +E  E E E
|------------------|-------------------|
|------------------|-------------------|
|-(2)--------4---5-|---7---8-(8)-7-5-2-|
|-(2)--------4---5-|---7---8-(8)-7-5-2-|
|-(0)--0-0-0-2-0-3-|-0-5-0-6-(6)-5-3-0-|
|------------------|-------------------|


                                    To Coda
       PM--|   PM    PM  PM
  +Q   E E E E E E   E E E E +E   E  E  a  E
|------------------|--------------------------||
|------------------|--------------------------||
|-(2)--------4---5-|---7---8-(8)-/9----(2)-5--||
|-(2)--------4---5-|---7---8-(8)-/9-12--2--5--||
|-(0)--0-0-0-2-0-3-|-0-5-0-6-(6)-/7-10--0-----||
|------------------|--------------------------||


 Chorus
       PM--|   PM    PM  PM  PM  PM
  +Q   E E E E E E   E E E E E E E S S
|------------------|-------------------|
|------------------|-------------------|
|-(5)--------7---2-|---5---7---2---5p4-|
|-(5)--------7---2-|---5---7---2---5p4-|
|------0-0-0---0---|-0---0---0---0-----|
|------------------|-------------------|


  ~  PM--------------------------------|
  Q  E E E E E E   +E   E E E +E   E E E
|----------------|------------------------|
|----------------|------------------------|
|-5--------------|------------------------|
|-4--------2-3-4-|-(4)\-2-3-4-(4)\-2-3-4--|
|----0-0-0-3-4-5-|-(5)\-3-4-5-(5)\-3-4-5--|
|----------------|------------------------|


     PM--|   PM    PM  PM  PM  PM      ~  PM--------------------------------|
  Q  E E E E E E   E E E E E E E S S   Q  E E E E E E   +E   E E E +E   E E E
|----------------|-------------------|----------------|------------------------|
|----------------|-------------------|----------------|------------------------|
|-5--------7---2-|---5---7---2---5p4-|-5--------------|------------------------|
|-5--------7---2-|---5---7---2---5p4-|-4--------2-3-4-|-(4)\-2-3-4-(4)\-2-3-4--|
|----0-0-0---0---|-0---0---0---0-----|----0-0-0-3-4-5-|-(5)\-3-4-5-(5)\-3-4-5--|
|----------------|-------------------|----------------|------------------------|


     PM--|   PM    PM  PM  PM  PM      ~  PM--------------------------------|
  Q  E E E E E E   E E E E E E E S S   Q  E E E E E E   +E   E E E +E   E E E
|----------------|-------------------|----------------|------------------------|
|----------------|-------------------|----------------|------------------------|
|-5--------7---2-|---5---7---2---5p4-|-5--------------|------------------------|
|-5--------7---2-|---5---7---2---5p4-|-4--------2-3-4-|-(4)\-2-3-4-(4)\-2-3-4--|
|----0-0-0---0---|-0---0---0---0-----|----0-0-0-3-4-5-|-(5)\-3-4-5-(5)\-3-4-5--|
|----------------|-------------------|----------------|------------------------|


     PM--|   PM    PM  PM  PM  PM      ~  PM---------------------|
  Q  E E E E E E   E E E E E E E S S   Q  E E E E E E   +E   E E E +E  E E E
|----------------|-------------------|----------------|-----------------------|
|----------------|-------------------|----------------|-----------------------|
|-5--------7---2-|---5---7---2---5p4-|-5--------------|-----------------------|
|-5--------7---2-|---5---7---2---5p4-|-4--------2-3-4-|-(4)\-2-3-4-(4)--------|
|----0-0-0---0---|-0---0---0---0-----|----0-0-0-3-4-5-|-(5)\-3-4-5-(5)--------|
|----------------|-------------------|----------------|----------------2-2-0--|


         ~      PM|   PM               ~~     PM|   PM
  +H     H      E E E E Q   Q    H     H      E E E E  Q   Q
|-------------|----------------|------------|------------------||
|--------8----|---------9--10--|------11----|---------12--13--o||
|--------7----|---------8---9--|------10----|---------11--12---||
|--------6----|---------7---8--|-------9----|---------10--11---||
|--------7----|---------8---9--|------10----|---------11--12--o||
|-(0)---------|-0-0---0--------|-0----------|-0-0---0----------||


 Guitar Solo
  Gtr I
     PM--|     PM       PM       PM  PM  PM
  Q  E E  E  E E E      E    E   E E E E E S S
|--------------------|-------------------------|
|--------------------|-------------------------|
|-5----------7---2---|-------5-----7---2---5p4-|
|-5----------7---2---|-------5-----7---2---5p4-|
|----0-0--0----0-----|--0--------0---0---0-----|
|--------------------|-------------------------|
|
| Gtr II
|                       |--3---|
| H      +Q.     E     +E  E   E E E E E E E
|--------------------|-------------------------|
|--------------------|-------------------------|
|-5------(5)-----7b9r|=(7)p6p==5---5-----------|
|-5------(5)---------|-----------7---7-6-5-4---|
|--------------------|-------------------------|
|--------------------|-------------------------|


   ~~~  PM------------------------------------------------|
   Q    E    E  E  E E  E        +E   E E  E      +E  E E   E
|-----------------------------|--------------------------------|
|-----------------------------|--------------------------------|
|--5--------------------------|--------------------------------|
|--4---------------2-3--4-----|--(4)\-2-3--4------(4)\2-3---4--|
|-------0----0--0--3-4--5-----|--(5)\-3-4--5------(5)\3-4---5--|
|-----------------------------|--------------------------------|
|
|            ~~~~~~                                ~~~~~
| +Q   +S  S E +Q.      E        +E   E E  E      +Q.      +E
|-----------------------------|-------7-7----------------------|
|----------------------10b12==|=(10)r-----10b12==(10)r====(10)-|
|------------7-(7)------------|--------------------------------|
|-(4)--(4)-4------------------|--------------------------------|
|-----------------------------|--------------------------------|
|-----------------------------|--------------------------------|


         PM---|     PM    PM    PM    PM    PM
  Q      E E  E   E E E   E   E E E   E E   E S S
|-----------------------|-------------------------|
|-----------------------|-------------------------|
|-5---------------7---2-|-----5---7-----2-----5p4-|
|-5---------------7---2-|-----5---7-----2-----5p4-|
|--------0-0--0-----0---|-0-----0-----0-----0-----|
|-----------------------|-------------------------|
|
| S  S E E E  S S E E E   E   E E S S E E   E E
|-----------------------|-------5-------------5---|
|-8h10p8-7-8\-5h7p5---5-|-----5---8p7-5-----5-----|
|-------------------7---|-7b9-----------7b8-------|
|-----------------------|-------------------------|
|-----------------------|-------------------------|
|-----------------------|-------------------------|


  ~~    PM------------------------------------------|
  Q     E   E E   E   E E     +E   E   E E +E   E E E
|---------------------------|-------------------------|
|---------------------------|-------------------------|
|-5-------------------------|-------------------------|
|-4---------------2---3-4---|-(4)\-2---3-4-(4)\-2-3-4-|
|-------0---0-0---3---4-5---|-(5)\-3---4-5-(5)\-3-4-5-|
|---------------------------|-------------------------|
|
| |-3-|       |--3--|
| E E E E   E E E   E E S S    E   S S E E  E   E E E
|---------------------------|-------------------------|
|-8p7p5-----5---------------|-------------------------|
|-------7b9---8p7p==5-7-5h7p|==5---4h5p4----4---5-7---|
|---------------------7-5---|------------7------5-7-4-|
|---------------------------|-------------------------|
|---------------------------|-------------------------|


     PM--|         PM    PM  PM   PM   PM
  Q  E E E    E    E E   E E E E  E  E E S S
|----------------------|---------------------|
|----------------------|---------------------|
|-5-----------7------2-|---5---7-----2---5p4-|
|-5-----------7------2-|---5---7-----2---5p4-|
|----0-0-0---------0---|-0---0----0----0-----|
|----------------------|---------------------|
|
|    ~                            ~~~
| Q  E E S S  S  S E E   E E E E +Q    E E
|----------------------|---------------------|
|----------------------|-----------------5---|
|----------------------|-------5-(5)-----5---|
|--------------------5-|---5-7---------7-5---|
|-0--3---3h5-(5)-6s7---|-7-------------------|
|------5---------------|---------------------|


   ~~~ PM---------------------------------------------------|
   Q   E E  E  E E E     +E   E        E      E +E    E  E  E
|----------------------|------------------------------------------|
|----------------------|------------------------------------------|
|--5-------------------|------------------------------------------|
|--4-----------2-3-4---|-(4)\-2--------3------4-(4)\--2--3--4-----|
|------0-0--0--3-4-5---|-(5)\-3--------4------5-(5)\--3--4--5-----|
|----------------------|------------------------------------------|
|
|  ~~~      ~~~
|                         |------3-------|
| +Q   E E +Q    E E      Q      Q       Q       Q      +E.    S
|----------------------|------------------------------------------|
|-(5)--7---------------|------------------------------------------|
|-(5)--7-7-(7)---5-7b9-|--------[7]pb9---7pb9----7pb9r==(7)---(0)-|
|-(5)--7---------5-----|------------------------------------------|
|----------------------|------------------------------------------|
|----------------------|------------------------------------------|


       PM---|      PM         PM    PM    PM       PM
   Q   E  E  E  E  E  E       E  E  E  E  E     E  E     S S
|--------------------------|---------------------------------|
|--------------------------|---------------------------------|
|--5------------7-----2----|-----5-----7--------2--------5p4-|
|--5------------7-----2----|-----5-----7--------2--------5p4-|
|------0--0--0-----0-------|--0-----0-----0--------0---------|
|--------------------------|---------------------------------|
|
|                                               PM       PM
|  Q   E  E  E  E  E  S  S    E  E  E  E  S  S  E  S  S  E
|--------------------------|-------12------------------------|
|-----13----15----13h15p13-|----13----15-13h15p13-12h13p12---|
|-14-----14----14----------|-14------------------------------|
|--------------------------|---------------------------------|
|--------------------------|---------------------------------|
|--------------------------|---------------------------------|


   ~~~     PM---------------------------------------------|
   Q       E    E E   E E   E   +E   E E   E +E     E   E E
|-----------------------------|------------------------------|
|-----------------------------|------------------------------|
|--5--------------------------|------------------------------|
|--4------------------2-3---4-|-(4)\-2-3---4-(4)\---2---3-4--|
|----------0----0-0---3-4---5-|-(5)\-3-4---5-(5)\---3---4-5--|
|-----------------------------|------------------------------|
|
|        PM     PM    PM    PM                            ~
|  S  S  E S  S E S S E S S E    E   E S S E  S   S S S E E
|-----------------------------|------------------------------|
|-10h12p10-8h10p8-7h8p7-5h7p5-|--4---5-----------------------|
|-----------------------------|--------7p5--------8p7p5---5--|
|-----------------------------|------------7------------7----|
|-----------------------------|------------------------------|
|-----------------------------|------------------------------|


   E  H     E  +S   E.    E  H     E  +S   E.
|----------------------|----------------------||
|----------------------|----------------------||
|-(2)------(2)-(2)-(2)-|-(2)------(2)-(2)-(2)-||
|--2--------2--(2)--2--|--2--------2--(2)--2--||
|--0--------0--(0)--0--|--0--------0--(0)--0--||
|----------------------|----------------------||
|
|  ~~~                    ~~~
|  E  H     E  +S   E.    E  H     E  +S   E.
|----------------------|----------------------||
|----------------------|----------------------||
|--5--------5--(5)--5--|--5--------5--(5)--5--||
|----------------------|----------------------||
|----------------------|----------------------||
|----------------------|----------------------||


 Guitar Solo #2
        PM--------|          PM|        PM|
   Q    E E  E  E E  E   +E  E  E E +E  E E  E
|----------------------|-----------------------|
|----------------------|-----------------------|
|-(2)------------------|----------2-(2)--------|
|--2-------------------|----------0-(0)------2-|
|--0----0-0--0--0------|--------0-------3----0-|
|-----------------3--2-|-(2)-2------------3----|
|
|  E  E E E  E  E E  E    E  E  E E  E  E E  E
|---------8-12----8-11-|-10--8-----------------|
|-10----8------10------|-------10-8--7---------|
|--5--9----------------|----------------8-7----|
|----------------------|--------------------10-|
|----------------------|-----------------------|
|----------------------|-----------------------|
   W


        PM------|         PM|         PM|
  +Q    E E E E E E   +E  E E E   +E  E E E
|-------------------|------------------------|
|-------------------|------------------------|
|-------------------|---------2---(2)--------|
|-(2)---------------|---------0---(0)-----2--|
|-(0)---0-0-0-0---5-|-(5)---0---------3---0--|
|---------------3-2-|-(2)-2-------------3----|
|
|  E  E E E E E E E    E  E E S S  E  E E E
|-------------------|------------------------|
|-----------5-------|------------------------|
|---------5-----5-8-|--7--5------------------|
|--7--6-5-----7-----|-------7-5-5--4---------|
|-------------------|-----------------6-5-3--|
|-------------------|------------------------|


       PM------------|                 PM------|                 PM-|
  +Q   E   E E   E     E  E      +E    E       E       E +E      E  E   E
|------------------------------|-------------------------------------------|
|------------------------------|-------------------------------------------|
|------------------------------|-----------------------2-(2)---------------|
|-(2)--------------------------|-----------------------0-(0)------------2--|
|-(0)--0---0-0---0-------------|---------------0-----------------3------0--|
|----------------------3--2----|-(2)---2----------------------------3------|
|
|                                 ~~~~~~~~~~~~~~~~~~~~~~~~~~~~~~~~~~
|                                 |-------3-------|
|  Q   S S E S S S S   E  S  S    Q       Q       Q       E     +Q      E
|------------------------------|-15------15------15------15----(15)---(15)-|
|------------------------15-15-|-15b17---15b17---15b17---15b17r(15)--------|
|--------------------/12-------|-------------------------------------------|
|----------7-7-7-7-7-----------|-------------------------------------------|
|------------------------------|-------------------------------------------|
|--5---3s5---------------------|-------------------------------------------|


               PM---------------------|
  +Q           E     E     E     E     E     E
|--------------------------------------------------|
|--------------------------------------------------|
|--------------------------------------------------|
|-(2)----------------------------------------------|
|-(0)----------0-----0-----0-----0-----------5-----|
|--------------------------------------3-----2-----|
|
|  S  S  S  S  S  S  S  S  S  S  S  S  S  S  S  S
|--------------------------------------------------|
|----------17----------17-20p17----17--------------|
|-17h19h20----20p17h20----------20----20p19p17-----|
|----------------------------------------------19--|
|--------------------------------------------------|
|--------------------------------------------------|


         PM---|                  PM---|
  +E     E     E     E    +E     E     E     E
|--------------------------------------------------|
|--------------------------------------------------|
|--------------------2----(2)----------------------|
|--------------------0----(0)----------------2-----|
|-(5)----------0-----------------3-----------0-----|
|-(2)----2-----------------------------3-----------|
|
|  S  S  S  S  S  S  S  S  S  S  S  S  S  S  E
|--------------------------------------------------|
|----------17----------17-20p17----17-20p17-19b20==|
|-17h19h20----20p19h20----------20-----------------|
|--------------------------------------------------|
|--------------------------------------------------|
|--------------------------------------------------|


        PM-----------|                   PM|               PM|
   +Q   E E   E    E  E       E     +E   E  E  E      +E   E E  E
|--------------------------------|--------------------------------|
|--------------------------------|--------------------------------|
|--------------------------------|-------------2------(2)---------|
|--(2)---------------------------|-------------0------(0)-------2-|
|--(0)--0-0---0----0----------5--|--(5)-----0--------------3----0-|
|---------------------3-------2--|--(2)--2-------------------3----|
|
|   ~~~~~~~~~~~~~~                             ~~~~~~~~~~~~
|  +H        +E    E  E      +E     +E   E  E  E      +Q.       E
|--------------------------------|--------------------------------|
|-(19)------(19)r-17-19b20==(19)r|=(19)p17-20-20b22==(20)r--------|
|--------------------------------|--------------------------------|
|--------------------------------|-----------------------------17-|
|--------------------------------|--------------------------------|
|--------------------------------|--------------------------------|


            PM-------------------|                   PM---|             PM|
   Q        E    E     E    E     E    E      +E     E     E   E    +E  E E   E
|-------------------------------------------|-----------------------------------|
|-------------------------------------------|-----------------------------------|
|-------------------------------------------|------------------2----(2)---------|
|--2----------------------------------------|------------------0----(0)-------2-|
|--0--------0----0-----0----0----------5----|-(5)----------0------------3-----0-|
|---------------------------------3----2----|-(2)----2--------------------3-----|
|
|                                                                    ~~~
|  |--3--|  |---3---|  |---3---|  |---3---|    |---3----|  |--3---|
|  E  E  E  E  E    E  E  E    E  E  E    E    E   E    E  E E    E  Q.       E
|---------------------19p14-----------------|-----------------------------------|
|----------15-17---19---------15------------|-14--12---10-------------------/14-|
|-14-16-18-----------------------16-12---14-|-------------12-9------------------|
|-------------------------------------------|--------------------12-11----------|
|-------------------------------------------|-----------------------------------|
|-------------------------------------------|-----------------------------------|


             PM-------------------|
  +Q         E    E     E    E     E    E
|--------------------------------------------|
|--------------------------------------------|
|--------------------------------------------|
|-(2)----------------------------------------|
|-(0)--------0----0-----0----0----------5----|
|----------------------------------3----2----|
|
|  |--3---|  |---3---|  |---3---|  |---3---|
|  E   E  E  E  E    E  E  E    E  E  E    E
|-17--16-15-14-15---17-17-12------15p12------|
|------------------------------14---------14-|
|--------------------------------------------|
|--------------------------------------------|
|--------------------------------------------|
|--------------------------------------------|


         PM---|              PM---|              PM---------------|
  +E     E    E    E    +E   E     E  E   +Q     E   E   E   E    E   E
|---------------------------------------|----------------------------------|
|---------------------------------------|----------------------------------|
|------------------2----(2)-------------|----------------------------------|
|------------------0----(0)-----------2-|-(2)------------------------------|
|-(5)---------0--------------3--------0-|-(0)----0---0---0---0--------5----|
|-(2)----2-------------------------3----|-------------------------3---2----|
|
|  |---3----| |---3---|  |--3---|          |-3-| |--3--| |--3---| |--3---|
|  E   E    E E  E    E  E E    E  Q       E E E E E   E E E    E E E    E
|-14--12---10-9-10---12-10p9------------|--8p5h7---5-----------------------|
|------------------------------12-10\---|--------8-----8-7h8h==10-8p7------|
|---------------------------------------|-------------------------------h9-|
|---------------------------------------|----------------------------------|
|---------------------------------------|----------------------------------|
|---------------------------------------|----------------------------------|


                                                            D.S. al Coda
       PM--|                   ~       PM                  PM
  +E   E   E   E     +E    E   Q       E H      E +S  E.   E H    E +S  E.
|-----------------------------------||-------------------|-------------------||
|-----------------------------------||-------------------|-------------------||
|--------------2-----(2)------------||-2--------2-(2)-2--|-2------2-(2)-2----||
|--------------0-----(0)------------||-2--------2-(2)-2--|-2------2-(2)-2----||
|-(5)------0---------------0---3----||-0--------0-(0)-0--|-0------0-(0)-0----||
|-(2)--2----------------------------||-------------------|-------------------||
|
|                                ~~
|  S S S S S S S  S   S  S S S S E.    Q   Q  H            W
|-----------------------------------||-------------------|-------------------||
|--7p6p5---5h7p5------5--------5----||-------------------|-------------------||
|--------7-------(7)-----7-6-5---5--||-------------------|-------------------||
|-----------------------------------||-7-----------------|-------------------||
|-----------------------------------||-------------------|-------------------||
|-----------------------------------||-------------------|-------------------||


 Interlude
  &
  Gtr III
                       ~~~          ~~~~~~
  Q  S    S   E  E Q  +E    E. S E. S +H       E. a a S E. S E. S E.S
|----5----5--(5)----------|------------------|------------------------|
|----5----5--(5)---5--(5)-|------------------|------------------------|
|----7b8r(7)p=5--7-5--(5)-|---------5-(5)----|--------5---------------|
|-------------------------|-7--5-7-----------|------5---7--5----------|
|-------------------------|------------------|----7----------7--6-5p3-|
|-------------------------|------------------|------------------------|


  Gtr III
                                                        ~
                                                                  |-3-|
  S S S  S E. S Q.     E     Q    E E   +E  E E E   E   Q  E +Q   E E E
|------------------------|------------------------|-------------------5-|
|------------------------|--------5-7b8r(7)p5-7p5-|-7b8-7--5-(5)------5-|
|------------------------|--------5-7b9r(7)p5-7p5-|-7b9-7--5-(5)--5h6---|
|------------------------|------------------------|---------------------|
|-6h7p5----5-------------|------------------------|---------------------|
|-------h8----8s5--------|------------------------|---------------------|
|
| Gtr I
| H             Q   E  E    +Q    Q      H          W
|------------------------|------------------------|---------------------|
|------------------------|------------------------|---------------------|
|---------------------14-|-(14)\------------------|---------------------|
|---------------------14-|-(14)\------------------|---------------------|
|---------------------12-|-(12)\------------------|---------------------|
|------------------------|------------------------|---------------------|


  ~                     ~~~~~~~~~
  E E S S  S  S S S E   Q    +E  S S E E E E E E
|-8-5----------------------|------------------------||
|-8-5-8-5-(8)--------------|------------------------||
|----------8--7-5---7b9-5--|-(5)---5----------------||
|-----------------7--------|---------7-5------------||
|--------------------------|-----x-------7-6-5-3----||
|--------------------------|------------------------||
|
| W                           W
|--------------------------|------------------------||
|--------------------------|------------------------||
|--------------------------|------------------------||
|--------------------------|------------------------||
|--------------------------|------------------------||
|--------------------------|------------------------||


   Riff
    Gtrs I, II
         PM--|   PM        PM|       PM
     Q   E E E E E E   +E  E E E +E  E Q
||-------------------|--------------------|
||o------------------|--------------------|
||--(2)--------------|--------------------|
||---2---------------|---------7-(7)---5--|
||o--0---0-0-0-5---5-|-(5)-----5-(5)---3--|
||-------------3-0-2-|-(2)-0-0-------0----|


     PM--|   PM        PM|       PM
  Q  E E E E E E   +E  E E E +E  E Q    4x
|----------------|----------------------||
|----------------|---------------------o||
|-2--------------|----------------------||
|-2--------------|---------7-(7)---5----||
|-0--0-0-0-5---5-|-(5)-----5-(5)---3---o||
|----------3-0-2-|-(2)-0-0-------0------||


  PM                PM                PM                PM
  E H    E +S  E.   E H    E +S  E.   E H    E +S  E.   E H    E +S  E.
|-----------------|-----------------|-----------------|-----------------||
|-----------------|-----------------|-----------------|-----------------||
|-2------2-(2)-2--|-2------2-(2)-2--|-2------2-(2)-2--|-2------2-(2)-2--||
|-2------2-(2)-2--|-2------2-(2)-2--|-2------2-(2)-2--|-2------2-(2)-2--||
|-0------0-(0)-0--|-0------0-(0)-0--|-0------0-(0)-0--|-0------0-(0)-0--||
|-----------------|-----------------|-----------------|-----------------||


 Outro
  Gtr I
         PM---|            ~~~~~~~~                          ~~~
   Q     E  E  E     E  E  E   +E   E     E  E +E  E     E   E
|----------------------------|---------------------------------|
|----------------------------|---------------------------------|
|--5-----------------5--7--5-|-(5)--5--------7-(7)-5----(0)--5-|
|--5-----------------5--7--4-|-(4)--4-----0--7-(7)-4-----0---5-|
|--------0--0--0-------------|---------------------------------|
|----------------------------|---------------------------------|
|
| Gtr II
|  E  E  E  E  S  S  E  E  E    E   S  S  E  E  E  S  S  E   E
|-------17----------------17-|---------------------------------|
|----17----20-19p17----17----|-20--19p17----17-----------------|
|-20----------------20-------|-----------20----20p19p17-----17-|
|----------------------------|--------------------------19-----|
|----------------------------|---------------------------------|
|----------------------------|---------------------------------|


 ~~~~~    PM---|         PM                                   ~~
  +Q      E  E  E     E  E  E   +E   E     E  E +E  E     E   E
|-----------------------------|---------------------------------|
|-----------------------------|---------------------------------|
|-(5)-----------------5-----5-|-(5)--5--------7-(7)-5----(0)--5-|
|-(5)-----------------5-----4-|-(4)--4-----0--7-(7)-4-----0---5-|
|---------0--0--0--------0----|---------------------------------|
|-----------------------------|---------------------------------|
|
|  E   E  E  E  S  S  E  E  E    E   S  S  E  E  E  S  S  E   E
|--------17----------------17-|---------------------------------|
|-----17----20-19p17----17----|-20--19p17----17-----------------|
|-20-----------------20-------|-----------20----20p19p17-----17-|
|-----------------------------|--------------------------19-----|
|-----------------------------|---------------------------------|
|-----------------------------|---------------------------------|


          PM---|            ~~~~~~~~                           ~~~~~~~~
  +Q      E  E  E     E  E  E   +E   E     E  E +E  E     E    E
|-----------------------------|---------------------------------------|
|-----------------------------|---------------------------------------|
|-(5)-----------------5--7--5-|-(5)--5--------7-(7)-5----(0)---5------|
|-(5)-----------------5--7--4-|-(4)--4-----0--7-(7)-4-----0----5------|
|---------0--0--0-------------|---------------------------------------|
|-----------------------------|---------------------------------------|
|
|  E   E  E  E  S  S  E  E  E    E   S  S  E  E  E  S  S  E    E
|--------17----------------17-|---------------------------------------|
|-----17----20-19p17----17----|-20--19p17----17-----------------------|
|-20-----------------20-------|-----------20----20p19p17------17------|
|-----------------------------|--------------------------19--[12]b14==|
|-----------------------------|---------------------------------------|
|-----------------------------|---------------------------------------|
                                 H               Q        E    E


 ~~~~~~~~~         PM------|
    +Q             E E E E E E   W
|------------------------------|------*|
|------------------------------|------*|
|---(5)----------------------5-|------*|
|---(5)----------------------4-|------*|
|------------------0-0-0-0-0---|------*|
|------------------------------|------*|
|
|   +Q             E E E E E E   W
|--------------------5---------|------*|
|------------------7---7-6-5---|------*|
|--(17)\-------------5-------5-|------*|
|-([12])r([12])p10-7---7-6-5-4-|------*|
|------------------------------|------*|
|------------------------------|------*|
    +S     +S    E E E E E E E



Duration Legend
---------------
W - whole; H - half; Q - quarter; E - 8th; S - 16th; T - 32nd; X - 64th; a - acciaccatura
+ - note tied to previous; . - note dotted; .. - note double dotted
Uncapitalized letters represent notes that are staccato (1/2 duration)
Irregular groupings are notated above the duration line
Duration letters will always appear directly above the note/fret number it represents the
duration for.  Duration letters with no fret number below them represent rests.  Multi-
bar rests are notated in the form Wxn, where n is the number of bars to rest for.  Low
melody durations appear below the staff

Tablature Legend
----------------
 h   - hammer-on
 p   - pull-off
 b   - bend
 pb  - pre-bend
 r   - bend release (if no number after the r, then release immediately)
 /\  - slide into or out of (from/to "nowhere")
 s   - legato slide
 S   - shift slide
 - natural harmonic
[n]  - artificial harmonic
n(n) - tapped harmonic
 ~   - vibrato
 tr  - trill
 T   - tap
 TP  - trem. picking
 PM  - palm muting
\n/  - tremolo bar dip; n = amount to dip
 \n  - tremolo bar down
 n/  - tremolo bar up
/n\  - tremolo bar inverted dip
 =   - hold bend; also acts as connecting device for hammers/pulls
 <> - volume swell (louder/softer)
 x   - on rhythm slash represents muted slash
 o   - on rhythm slash represents single note slash

Misc Legend
-----------
 |  - bar
||  - double bar
||o - repeat start
o|| - repeat end
*|  - double bar (ending)
 :  - bar (freetime)
 $  - Segno
 &  - Coda
Tempo markers -  = BPM(8/16=s8/s16), where s8 = swing 8ths, s16 = swing 16ths

comments
We did not receive enough feedback on this tab! Please rate:
print report bad tab
1 2 3 4 5
I want to post or [tab]
guest
You may want to rate the tab now too:
select rating
Please do not post tabs as comments. Select "correction" instead!