Oops, an error
Loading. Please wait.

Holy Wars The Punishment Due Bass Tab

ver1
ver1
More versions @911Tabs.com
15,483 views 9 this week
2 commentsread comments
1 2 3 4 5
worth learning
x 6
Autoscroll
+/-
esc
set tempo
stop
Hey! There's an official Ultimate Guitar app which is ideal
for learning songs when you're away from computer. Get the app
WARNING: You are trying to view
                                    content from Ultimate-Guitar.com
                                    in an unauthorized application,
                                    which is prohibited.

                                    Please use an official Ultimate
                                    Guitar Tabs application for iPhone,
                                    iPad or Android to access legitimate
                                    chords, guitar, bass, and drum tabs
                                    from Ultimate-Guitar.com database.

                                    Type "ultimate guitar tabs" in Apple
                                    App Store's or Android Market's
                                    search to find the application.
Artist: Megadeth
Title: Holy Wars...The Punishment Due
Author: VRattlehed@aol.com
Resource: Tornado's Megadeth Hangout 
          http://www.cs.vu.nl/~rfennema/megadeth/index.html


Intro         
-------|-------------|------------------------------------------------
---4:--|-------------|------------------------------------------------
---4:--|-------------|-----------------------------------------5------
-------|-------------|------------------------------------------------
                                                            
------|--------------------------------------------------|-------------
------|--------------------------------------------2--3--|--4----------
---6--|--7-----------------------------------------------|--------3----
------|--------5--6--7-----7--6--5-----5--5--3-----------|-------------    
                                                                        
------------------------------------------|----------------------------
------------------------------------------|----------------------------
-4--5-----5--4--3-----3--3--2-----5--6--7-|----------------------------
------------------------------------------|--------5--6--7-----7--6----

---------------------------||------------------------------------------
---------------------------||*--------------------5--------------------
---------------------------||*--7--------------------7-----------------
---5-----5--5--3-----5--6--||---------0--0--0-----------0--0--0--0-----
                                                                        
---------------|--------------------------------------------|---------
---------------|--------------------------------------------|---------
---------------|--5h7-----------5h7-------------------------|--5------
---0--0--0--0--|-------0--0--0-------0--0--0--0--5-----6----|---------

----------------------------------------------|------------------------
-------------------5--------------------------|------------------------
---h7-----------------7-----------------------|--5h7-----------5h7-----
-------0--0--0-----------0--0--0--0--0--0--0--|-------0--0--0----------

---------------------------|-------------------------------------------
---------------------------|-------------------5-----------------------
-----------------2---------|--5h7-----------------7--------------------
---0--0--0--0--------3-----|-------0--0--0-----------0--0--0--0--0-----

------------|--------------------------------------------|-------------
------------|--------------------------------------------|-------------
------------|--------------------------------------------|--2----------
---0--0--7--|--------0--0--0--0--6--------0--0--5-----3--|-------------

---------------------|---------------------------------------||--------
---------------------|--------------------------------------*||--------
---------------------|--2-----------------2-----------------*||--5-----
---------------0--0--|--------------------------3-----2--2---||--------

-------------------------------------------------------|---------------------
-------------------5----------------------------------|---------------------
---h7-----------------7------------------------------|---------------------
-------0--0--0-----------0--0--0--0--0--0--0--7--|--------0--0--0------

---------------------------------|----------------------------------------
---------------------------------|-------------------5--------------------
---------------------------------|--5h7-----------------7-----------------
---0--6--------0--0--5-----3--|-------0--0--0-----------0--0--0--0-----

-----------------|---------------------------------------------|-------------
-----------------|---------------------------------------------|-------------
-----------------|---------------------------------------------|--5h7--------
---0--0--0--7--|-----0--0--0--0--6--------0--0--5-----3--|-------0-----

-----------------------------------------------|----------------------------
------------5---------------------------------|----------------------------
---------------7------------------------------|----------------------------
---0--0-----------0--0--0--0--0--0--0--7--|--(7)-----0--0--0--0--6-----

--------------------------|----------------------------------------------
--------------------------|-------------------5--------------------------
--------------------------|--5h7-----------------7-----------------------
---------0--0--5-----3--|-------0--0--0-----------0--0--0--0--0--0-----

----------|-------------------------------------------------||--||-----------
----------|-------------------------------------------------||--||*----------
----------|-------------------------------------------------||--||*--5h7-----
---0--7--|--------0--0--0--0--6--------0--0--5-----3--||--||-----------

---------------------------------------------------|-------------------------
---------------5----------------------------------|-------------------------
------------------7-------------------------------|--5h7--------------5-----
---0--0--0-----------0--0--0--0--0--0--0--0--|-------0--0--0-----------
                                                                        
                       8x                                              
-----------------------||--||------------------------------------------
----------------------*||--||*-----------------------------------------
---h7--------------2--*||--||*-----------------------------------------
--------0--0--0--0-----||--||---2-----3-----0-----2-----0-----0--------

------------|-----------------------------------------------|----------
------------|-----------------------------------------------|----------
------------|-----------------------------------------------|--5h7-----
---2-----3--|--0-----0-----3-----2-----0-----0-----2-----3--|----------

---------------------------------------------|-------------------------
---------------5-----------------------------|-------------------------
------------------7--------------------------|--5h7--------------5-----
---0--0--0-----------0--0--0--0--0--0--0--0--|-------0--0--0-----------

                              3x                                        
-----------------------------||--------------------------|-------------
----------------------------*||--------------------------|-------------
---h7-----------------------*||--------------------------|-------------
-------0--0--0--0--3-----0---||--2--3--0--2--0--0--2--3--|--0--0--3----

                       half time feel-  verses                          
G------------------||---------------------------------------|-----------
D------------------||---------------------------------------|-----------
A------------------||--7------------------------------5--6--|--7--------
E---2--0--0--2--3--||--------0--0--0--6/0--0--6/0--0--------|-----0-----
                                                                        
G---------------------------|-------------------------------------------
D---------------------------|-------------------------------------------
A---------------------5--6--|--7-----------------------------------5----
E---0--6--------7--6--------|-----0--0--0-----0-----0-----0-----0-------
                                                                        
G------|--------------------------------------------|-------------------
D------|--------------------------------------------|-------------------
A---6--|--7-----------------------------------------|-------------------
E------|--------0--0--0-----2--------0-----2-----3--|-----5--0--0--5----
                                                                        
G---------------|-----------------------------|-------------------------
D---------------|-----------------------------|-------------------------
A---------------|-----------------------------|-------------------------
E------0--3--5--|--6--0--0--6-----5--3--5-----|--3--0--0--0--0-----6----
                                                                        
G------------------------|----------------------------------------------
D------------------------|----------------------------------------------
A------------------------|-----------------------------------------5----
E---------5-----3-----5--|--3--0--0--0--0-----6--------5-----3----------
                                                                        
G---------|--||---------------------------------------|-----------------
D---------|--||*--------------------------------------|-----------------
A------6--|--||*--7-----------------------------5--6--|--7--------------
E---------|--||---------0--0--0--0--0--0--0--0--------|-----0--0--6-----
                                                                        
G---------------------|--------------------------------------------|----
D---------------------|--------------------------------------------|----
A---------------5--6--|--7-----------------------------------5--6--|----
E---------7--6--------|-----0--0--0-----0-----0-----0-----0--------|----
                                                                        
G---------------------------------------------|-------------------------
D---------------------------------------------|-------------------------
A---7-----------------------------------------|-------------------------
E---------0--0--0-----2--------0-----2-----3--|-----5--0--0--5-----0----
                                                                        
G---------|-----------------------------|-------------------------------
D---------|-----------------------------|-------------------------------
A---------|-----------------------------|-------------------------------
E---3--5--|--6--0--0--6-----5--3--5-----|--3--0--0--0--0-----6----------
                                                                        
G------------------|----------------------------------------------------
D------------------|----------------------------------------------------
A------------------|-----------------------------------------5-----6----
E---5-----3-----5--|--3--0--0--0--0-----6--------5-----3----------------

        3x                                                              
G---|---||--------------------------------------------------||----------
D---|--*||--------------------------------------------------||----------
A---|--*||--7-----------------------------------------------||----------
E---|---||--------5--6--7-----7--6--5-----5--5--3-----3--3--||----------

    hold note                                                           
G------------------------||---|-----------------------------------------
D------------------------||*--|-----------------------------------------
A------------------------||*--|-----------------------------------------
E---0--------------------||---|-----------------------------------------

    hold note for all of marty's neat solo                              
G--------------------------------------------|--------------------------
D--------------------------------------------|--------------------------
A--------------------------------------------|--------------------------
E---(0)--------------------------------------|--------------------------
                                                                        
G------------------|--------------------------------------|-------------
D------------------|--------------------------------------|-------------
A------------------|--------------------------------------|-------------
E------------------|--------------------------------------|-------------
                                                                        
G------------------||---------------------------------------------------
D------------------||---------------------------------------------------
A------------------||---------------------------------------------------
E------------------||---------------------------------------------------

    Bridge                                                   4x         
G---||------------------------------|------------------------||---------
D---||*-----------------------------|-----------------------*||---------
A---||*--3--2-----2--------3--2-----|-----2--------2--3--5--*||---------
E---||---------0-----0--0-----------|--0-----0--0------------||---------

    Intro (...the punishment due)                                       
G---------------------|--------------------------|--------------|-------
D---------------------|--------------------------|--------------|-------
A---------------------|--------------------------|--------------|-------
E---0-----------------|--------------------------|--------------|-------

                hold                                                    
G---------------------|--------------|--------------|-------------------
D---------------------|--------------|--------------|-------------------
A---------------------|--------------|--------------|-------------------
E---------------0-----|--------------|--------------|-------------------

                                         3x                             
G------------|---------------------------||-----------------------------
D------------|--------------------------*||-----------------------------
A------------|--------------------------*||-----------------------------
E---3--2-----|--------2--1--------1--0---||-----------------------------

    Verse 1,2 Half time feel                                            
G----------------------------|--------------------------|---------------
D----------------------------|--------------------------|---------------
A---------7-----9--------10--|--------------------------|---------------
E---0--0-----7-----0--8------|-----8--8--8--8--8--8--8--|--0--0--0------
                                                           3x           
G------------------|---------------------------------------||-----------
D------------------|--------------------------------------*||-----------
A------------------|--------------------------------------*||-----------
E---0--0--0--3--2--|--------------------2--1--------1--0---||--0--0-----
                                                                        
G----------------------|--------------------------|---------------------
D----------------------|--------------------------|---------------------
A---7-----9------------|--------------------------|--------7-----9------
E------7-----0--8--10--|-----8--8--8--8--8--8--8--|--0--0-----7---------

                                                 1st guitar solo        
G------------|-------------------------------||-------------------------
D------------|-------------------------------||-----------------3-------
A------------|-------------------------------||--------------------5----
E---0--3--2--|--(2)--2--2--1--------1--1--3--||-----3--3--3--3----------
                                                                        
G------|--------------------------|--------------------------|----------
D------|-----------------2--3--4--|--5--------------3--------|----------
A---1--|-----1--1--1--1-----------|-----5--------------5--1--|--(1)-----
E------|--------------------------|--------3--3--3-----------|----------
                                                                        
G------------------------|--------------------------|-------------------
D------------------------|-----------------3--------|-------------------
A---1--1--1--1--1--------|-----2--5--2--------5--1--|-----1--1--1--1----
E------------------1--2--|--3-----------3-----------|-------------------
                                                                        
G------------|--------------------------|-------------------------------
D------------|-----5--3-----------------|-------------------------------
A---1--------|-----------5--3--1--------|-------------------------------
E------1--2--|--3-----------------3--2--|--------2--1--------1--2-------
                                                                        
G------|--------------|-----------|-----------------------|-------------
D------|--------------|-----------|-----------------------|-------------
A------|--------------|-----------|-----------------------|-------------
E------|-----0--------|-----------|--0--------------3--2--|-----2--1----

                       2nd guitar solo                                  
G------------------||----------------------------|----------------------
D------------------||-------------------3--------|----------------------
A------------------||----------------------5--1--|-----1--1--1--1--1----
E------1--0--------||--(3)--3--3--3--3-----------|----------------------
                                                                        
G---------|--------------------------|--------------------------||------
D---------|-----5--3-----------------|--------------------------||------
A---------|-----------5--3--1--------|--------------------------||------
E---1--2--|--3-----------------3--2--|--------2--1--------1--0--||------
                                                                        
G------------------------------------|----------------------------------
D------------------------------------|----------------------------------
A------------------------------------|----------------------------------
E------------------2-----3-----0-----|--2-----3-----0-----2-----0--0----
                                                                        
G------------------|-----------------------------------------------|----
D------------------|-----------------------------------------------|----
A------------------|-----------------------------------------------|----
E------2-----3-----|--0-----0-----3-----2-----0-----0-----2-----3--|----
                                                                        
G------------------------------------------------------|----------------
D------------------------------------------------------|----------------
A------------------------------------------------------|----------------
E------0-----0-----3-----2-----0-----0-----2-----3-----|----------------

                                   3x                                   
G----------------------------------||-----------------------------------
D---------------------------------*||-----------------------------------
A---------------------------------*||-----------------------------------
E---0------------------------------||--------------------5-----7--------
                                                                        
G---------|-----------------------------------------------------|-------
D---------|-----------------------------------------------------|-------
A---------|-----------------------------------------------------|-------
E---0-----|-----5-----7-----0-----5-----0-----0-----5-----7-----|-------
                                                                        
G------------------------------------------|----------------------------
D------------------------------------------|----------------------------
A------------------------------------------|--7\------------------------
E---0-----0-----7-----0-----0-----2-----3--|-------0-----0-----0--------
                                                                        
G---------------------------|-------------------------------------------
D---------------------------|-------------------------------------------
A---------------------------|-------------------------------------------
E---0-----0-----0-----0-----|--0-----0-----0-----0-----0-----2-----3----
                                                                        
G---------||---------------------------|--------------------------|-----
D---------||*--------------------------|--------------------------|-----
A---------||*--------------------------|--------------------------|-----
E------0--||---2--3--0--2--0--0--2--3--|--0--0--3--2--0--0--2--3--|-----

                                                        7x              
G---------------------------|---------------------------||--------------
D---------------------------|--------------------------*||--------------
A---------------------------|--------------------------*||--------------
E---0--0--0--0--0--0--0--0--|--0--0--0--0--0--2--3--0---||--2--3--0-----
                                                                        
G------------------||---------------------------|-----------------------
D------------------||*--------------------------|-----------------------
A------------------||*--------------------------|--7--7--------7--------
E---2--0--0--2--3--||---0--0--0--0--0--0--0--0--|--------0--0-----0-----

              4x                                                        
G-------------||--||------------------------------|---------------------
D------------*||--||*-----------------------------|---------------------
A------------*||--||*-----------------------------|---------------------
E---0--0--0---||--||---3--0--0--0--0--0--0--0-----|-----5--0--0--0------
                                                                        
G---------|-----------------------------------|-------------------------
D---------|-----------------------------------|-------------------------
A---------|--------7--7--------7--------------|--7--7-----------7-------
E---0--0--|--7--0--------0--0-----0--0--0--0--|--------0--0--------0----

              3x                                                        
G-------------||--------------------------|--------8-----------7--------
D------------*||--------------------------|-----4-----------3-----------
A------------*||--------------------------|--6-----------5--------------
E---0--0--0---||--3--0--0--0--0--0--0--0--|-----------------------------
                                                                        
G---|--------------------------------|----------------------------------
D---|--------------------------------|----------------------------------
A---|--7--7--------7-----------------|--7--7--------7-------------------
E---|--------0--0-----0--0--0--0-----|--------0--0-----0--0--0--0-------
                                                                        
G---||---------------------------------|--------------------------------
D---||*--------------------------------|--------------------------------
A---||*--7--7-----------7--------------|--7--7--------7-----------------
E---||---------0-----0-----0--0--0--0--|--------0--0-----0--0--3--5-----

     3x                                                                 
G----||-----------------------------------------------|-----------------
D---*||-----------------------------------------------|-----------------
A---*||-----------------------------------------------|-----------------
E----||--2-----3-----0-----2-----0-----0-----2-----3--|--0-----0--------
                                                                        
G---------------------------------|-------------------------------------
D---------------------------------|-------------------------------------
A---------------------------------|-------------------------------------
E---3-----2-----0-----0-----3--0--|--2-----3-----0-----2-----0-----0----
                                                                        
G---------------|--------------------------|----------------------------
D---------------|--------------------------|----------------------------
A---------------|--------------------------|----------------------------
E------2-----3--|--0--0--3--2--0--0--3--5--|--2--3--0--2--0--0--2--3----
                                                                        
G---|--------------------------|-----------||---------------------------
D---|--------------------------|-----------||---------------------------
A---|--------------------------|--7--------||---------------------------
E---|--0--0--3--2--0--0--3--0--|-----7--0--||---------------------------



comments
print report bad tab
2 comments total.
+1 reply
RobG&D wrote on January 13 2007, 10:28 pm

I have no clue what to play where....

+1 reply
MunkeyDaBassist wrote on July 10 2007, 11:34 am

woa this tab is impossible to read. I couldn't do it even if I tried.

I want to post or [tab]
guest
You may want to rate the tab now too:
select rating
Please do not post tabs as comments. Select "correction" instead!