Oops, an error
Loading. Please wait.

Holy Wars The Punishment Due Tab

ver5
ver5
More versions @911Tabs.com
8,238 views 8 this week
4 commentsread comments
1 2 3 4 5
accurate
x 7
Autoscroll
+/-
esc
set tempo
stop
Contributor
Hey! There's an official Ultimate Guitar app which is ideal
for learning songs when you're away from computer. Get the app
WARNING: You are trying to view
                                    content from Ultimate-Guitar.com
                                    in an unauthorized application,
                                    which is prohibited.

                                    Please use an official Ultimate
                                    Guitar Tabs application for iPhone,
                                    iPad or Android to access legitimate
                                    chords, guitar, bass, and drum tabs
                                    from Ultimate-Guitar.com database.

                                    Type "ultimate guitar tabs" in Apple
                                    App Store's or Android Market's
                                    search to find the application.
#----------------------------------PLEASE NOTE---------------------------------#
#This file is the author's own work and represents their interpretation of the #
#song. You may only use this file for private study, scholarship, or research. #
#------------------------------------------------------------------------------#




Transcribed by renegadepancake
        



Gtr I (E A D G B E) - 'Mustaine - Rhythm'
Gtr II (E A D G B E) - 'Friedman - Rhythm'
Gtr III (E A D G B E) - 'Friedman - Acoustic'

  Q=172
 1/8   4/4
  Gtr I
  S S   E S S E S S E S S E S S   H.      +E  S S   E S S E S S E S S E S S
|-----|-------------------------|-----------------|-------------------------|
|-----|-------------------------|-----------------|-------------------------|
|-----|-------------------------|-----------------|-------------------------|
|-----|-------------------------|-----------------|-------------------------|
|-5h6h|=7-----------------------|-2-------(2)-5h6h|=7-----------------------|
|-----|---5h6h7-7p6p5-5p4p3-3-3-|-0-------(0)-----|---5h6h7-7p6p5-5p4p3-3-3-|


              Gtrs I, II
  H.      +E  S S   E S S E S S E S S E S S
|-----------------|-------------------------|
|-----------------|-------------------------|
|-----------------|-------------------------|
|-----------------|---------------------2h3h|
|-4-------(4)-5h6h|=7-----------------------|
|-2-------(2)-----|---5h6h7-7p6p5-5p4p3-----|


  E S S E S S E S S E S S   E S S E S S E S S E S S
|-------------------------|---------------------------|
|-------------------------|---------------------------|
|-------------------------|---------------------------|
|-4-----------------------|---------------------------|
|---2h3h4-4p3p2-2p1p0-5h6h|=7-------------------------|
|-------------------------|---5h6h7-7p6p5-5p4p3-3-3---|


 Introduction I
  S S S S E  S S S S S S S S S S   S S S S E S S S S S S E E
|--------------------------------|---------------------------|
|--------------------------------|---------------------------|
|--------------------------------|---------------------------|
|--------------------------------|---------------------------|
|-5h7-------10p7-----------------|-5h7-------5h7---------7-8-|
|-----0-0-0------0-0-0-0-0-0-0-0-|-----0-0-0-----0-0-0-0-5-6-|


  S S S S E  S S S S S S S S S S   S S S S E S S S S S S  E E
|--------------------------------|----------------------------|
|--------------------------------|----------------------------|
|--------------------------------|----------------------------|
|--------------------------------|-----------------------10---|
|-5h7-------10p7-----------------|-5h7-------5h7----------8-9-|
|-----0-0-0------0-0-0-0-0-0-0-0-|-----0-0-0-----0-0-0-0----7-|


  S S S S E  S S S S S S S S S S   S S S S E S S S S S S E E
|--------------------------------|---------------------------|
|--------------------------------|---------------------------|
|--------------------------------|---------------------------|
|--------------------------------|-----------------------4---|
|-5h7-------10p7-----------------|-5h7-------5h7---------2-5-|
|-----0-0-0------0-0-0-0-0-0-0-0-|-----0-0-0-----0-0-0-0---3-|


  S S S S E  S S S S S S S S E   +E  S S S S E +E  S S E E
|------------------------------|---------------------------|
|------------------------------|---------------------------|
|------------------------------|---------------------------|
|------------------------------|---------------------------|
|-5h7-------10p7-------------9-|-(9)---------8-(8)-----7-5-|
|-----0-0-0------0-0-0-0-0-0-7-|-(7)-0-0-0-0-6-(6)-0-0-5-3-|


                        |-3-|
  H.      +E  E   q  Q  Q Q Q   S S S S E  S S S S S S S S S S
|---------------|-------------|---------------------------------|
|---------------|-------------|---------------------------------|
|---------------|-------------|---------------------------------|
|-4-------(4)---|-4-----4-----|---------------------------------|
|-2-------(2)---|-2-----2-5-4-|-5h7-------10p7------------------|
|-------------2-|---------3-2-|-----0-0-0------0-0-0-0-0-0-0-0--|


  S S S S E S S S S S S E E   S S S S E  S S S S S S S S S S
|---------------------------|--------------------------------|
|---------------------------|--------------------------------|
|---------------------------|--------------------------------|
|---------------------------|--------------------------------|
|-5h7-------5h7---------7-8-|-5h7-------10p7-----------------|
|-----0-0-0-----0-0-0-0-5-6-|-----0-0-0------0-0-0-0-0-0-0-0-|


  S S S S E S S S S S S  E E
|-----------------------------|
|-----------------------------|
|-----------------------------|
|-----------------------10----|
|-5h7-------5h7----------8-9--|
|-----0-0-0-----0-0-0-0----7--|


  S S S S E  S S S S S S S S S S   S S S S E S S S S S S E E
|--------------------------------|---------------------------|
|--------------------------------|---------------------------|
|--------------------------------|---------------------------|
|--------------------------------|-----------------------4---|
|-5h7-------10p7-----------------|-5h7-------5h7---------2-5-|
|-----0-0-0------0-0-0-0-0-0-0-0-|-----0-0-0-----0-0-0-0---3-|


  Gtr I
  S S S S E  S S S S S S S S E   +E  S S S S E +E  S S E E
|------------------------------|---------------------------|
|------------------------------|---------------------------|
|------------------------------|---------------------------|
|------------------------------|---------------------------|
|-5h7-------10p7---------------|---------------------------|
|-----0-0-0------0-0-0-0-0-0-7-|-(7)-0-0-0-0-6-(6)-0-0-5-3-|
|
| Gtr II
| S S S S E  S S S S S S S S E   +E  S S S S E +E  S S E E
|------------------------------|---------------------------|
|------------------------------|---------------------------|
|------------------------------|---------------------------|
|------------------------------|---------------------------|
|-5h7-------10p7-------------9-|-(9)---------8-(8)-----7-5-|
|-----0-0-0------0-0-0-0-0-0-7-|-(7)-0-0-0-0-6-(6)-0-0-5-3-|


  S S S S E  S S S S S S S S E   +E  S S S S E +E  S S E E
|------------------------------|---------------------------|
|------------------------------|---------------------------|
|------------------------------|---------------------------|
|------------------------------|---------------------------|
|-5h7-------10p7-------------6-|-(6)---------5-(5)-----4-2-|
|-----0-0-0------0-0-0-0-0-0---|-----0-0-0-0-------0-0-----|
|
| S S S S E  S S S S S S S S E   +E  S S S S E +E  S S E E
|------------------------------|---------------------------|
|------------------------------|---------------------------|
|------------------------------|---------------------------|
|------------------------------|---------------------------|
|-5h7-------10p7-------------9-|-(9)---------8-(8)-----7-5-|
|-----0-0-0------0-0-0-0-0-0-7-|-(7)-0-0-0-0-6-(6)-0-0-5-3-|


  S S S S E  S S S S S S S S E   +E  S S S S E +E  S S E E
|------------------------------|---------------------------|
|------------------------------|---------------------------|
|------------------------------|---------------------------|
|------------------------------|---------------------------|
|-5h7-------10p7-------------9-|-(9)---------8-(8)-----7-5-|
|-----0-0-0------0-0-0-0-0-0---|-----0-0-0-0-------0-0-----|
|
| S S S S E  S S S S S S S S E   +E  S S S S E +E  S S E E
|------------------------------|---------------------------|
|------------------------------|---------------------------|
|------------------------------|---------------------------|
|------------------------------|---------------------------|
|-5h7-------10p7-------------9-|-(9)---------8-(8)-----7-5-|
|-----0-0-0------0-0-0-0-0-0-7-|-(7)-0-0-0-0-6-(6)-0-0-5-3-|


  S S S S E  S S S S S S S S E   +E  S S S S E +E  S S E E
|------------------------------|---------------------------|
|------------------------------|---------------------------|
|------------------------------|---------------------------|
|----------------------------9-|-(9)---------8-(8)-----7-5-|
|-5h7-------10p7---------------|---------------------------|
|-----0-0-0------0-0-0-0-0-0---|-----0-0-0-0-------0-0-----|
|
| S S S S E  S S S S S S S S E   +E  S S S S E +E  S S E E
|------------------------------|---------------------------|
|------------------------------|---------------------------|
|------------------------------|---------------------------|
|------------------------------|---------------------------|
|-5h7-------10p7-------------9-|-(9)---------8-(8)-----7-5-|
|-----0-0-0------0-0-0-0-0-0-7-|-(7)-0-0-0-0-6-(6)-0-0-5-3-|


 Introduction II
  |-----3-----|      |------3------|       |-----3-----|     |-----3-----|
  Q     Q     Q      Q     Q       Q       Q     Q     Q     Q     Q     Q
|----------------------------------------|---------------------------------|
|----------------------------------------|---------------------------------|
|-------7--------------------------7-----|-------9-------------------------|
|-5-----------5------------5-------------|-7-----------------------9-----5-|
|--------------------7-------------------|-------------7-----6-------------|
|----------------------------------------|---------------------------------|
|
| S S S   S E    S S S S S   S S S   S S   S S S   S E   S S S S S   S Q
|----------------------------------------|---------------------------------|
|----------------------------------------|---------------------------------|
|----------------------------------------|---------------------------------|
|----------------------------------------|---------------------------------|
|-5h7-----------10p7---------------------|-5h7-----------5h7-----------9---|
|-----0---0-0--------0-0-0---0-0-0---0-0-|-----0---0-0-------0-0-0---0-7---|


   ~~~~~~~~~~~~~~~~~~~~~~~~~~~~~~~~~~~~~
   W                                +H.                    Q
|---------------------------------|----------------------------|
|---------------------------------|----------------------------|
|---------------------------------|----------------------------|
|---------------------------------|----------------------------|
|-/7------------------------------|-(7)--------------------9\--|
|---------------------------------|----------------------------|
|
|  S S S S E  S S S S S S S S S S    S S S S E S S S S S S Q
|---------------------------------|----------------------------|
|---------------------------------|----------------------------|
|---------------------------------|----------------------------|
|---------------------------------|----------------------------|
|--5h7-------10p7-----------------|--5h7-------5h7---------9---|
|------0-0-0------0-0-0-0-0-0-0-0-|------0-0-0-----0-0-0-0-7---|


  |-----3-----|      |------3------|       |-----3-----|     |-----3-----|
  Q     Q     Q      Q     Q       Q       Q     Q     Q     Q     Q     Q
|----------------------------------------|---------------------------------|
|----------------------------------------|---------------------------------|
|-------7--------------------------7-----|-------------8-----------------7-|
|-5-----------5------------5-------------|-------4-----------------3-------|
|--------------------7-------------------|-6-----------------5-------------|
|----------------------------------------|---------------------------------|
|
| S S S   S E    S S S S S   S S S   S S   S S S   S E   S S S S S   S Q
|----------------------------------------|---------------------------------|
|----------------------------------------|---------------------------------|
|----------------------------------------|---------------------------------|
|----------------------------------------|---------------------------------|
|-5h7-----------10p7---------------------|-5h7-----------5h7-----------9---|
|-----0---0-0--------0-0-0---0-0-0---0-0-|-----0---0-0-------0-0-0---0-7---|


   ~~~~~~~~~~~~~~~~~~~~~~~~~~~~~~~~~~~~~
   W                                +H.                    Q
|---------------------------------|----------------------------|
|---------------------------------|----------------------------|
|---------------------------------|----------------------------|
|---------------------------------|----------------------------|
|-/7------------------------------|-(7)--------------------9\--|
|---------------------------------|----------------------------|
|
|  S S S S E  S S S S S S S S S S    S S S S E S S S S S S Q
|---------------------------------|----------------------------|
|---------------------------------|----------------------------|
|---------------------------------|----------------------------|
|---------------------------------|----------------------------|
|--5h7-------10p7-----------------|--5h7-------5h7---------9---|
|------0-0-0------0-0-0-0-0-0-0-0-|------0-0-0-----0-0-0-0-7---|


  |-----3-----|      |------3------|       |-----3-----|     |-----3-----|
  Q     Q     Q      Q     Q       Q       Q     Q     Q     Q     Q     Q
|----------------------------------------|---------------------------------|
|----------------------------------------|---------------------------------|
|-------7--------------------------7-----|-------9-------------------------|
|-5-----------5------------5-------------|-7-----------------------9-----5-|
|--------------------7-------------------|-------------7-----6-------------|
|----------------------------------------|---------------------------------|
|
| S S S   S E    S S S S S   S S S   S S   S S S   S E   S S S S S   S Q
|----------------------------------------|---------------------------------|
|----------------------------------------|---------------------------------|
|----------------------------------------|---------------------------------|
|----------------------------------------|---------------------------------|
|-5h7-----------10p7---------------------|-5h7-----------5h7-----------9---|
|-----0---0-0--------0-0-0---0-0-0---0-0-|-----0---0-0-------0-0-0---0-7---|


   ~~~~~~~~~~~~~~~~~~~~~~~~~~~~~~~~~~~~~
   W                                +H.                    Q
|---------------------------------|----------------------------|
|---------------------------------|----------------------------|
|---------------------------------|----------------------------|
|---------------------------------|----------------------------|
|-/7------------------------------|-(7)--------------------9\--|
|---------------------------------|----------------------------|
|
|  S S S S E  S S S S S S S S S S    S S S S E S S S S S S Q
|---------------------------------|----------------------------|
|---------------------------------|----------------------------|
|---------------------------------|----------------------------|
|---------------------------------|----------------------------|
|--5h7-------10p7-----------------|--5h7-------5h7---------9---|
|------0-0-0------0-0-0-0-0-0-0-0-|------0-0-0-----0-0-0-0-7---|


  |-----3-----|      |------3------|       |-----3-----|     |-----3-----|
  Q     Q     Q      Q     Q       Q       Q     Q     Q     Q     Q     Q
|----------------------------------------|---------------------------------|
|----------------------------------------|---------------------------------|
|-------7--------------------------7-----|-------------8-----------------7-|
|-5-----------5------------5-------------|-------4-----------------3-------|
|--------------------7-------------------|-6-----------------5-------------|
|----------------------------------------|---------------------------------|
|
| S S S   S E    S S S S S   S S S   S S   S S S   S E   S S S S S   S Q
|----------------------------------------|---------------------------------|
|----------------------------------------|---------------------------------|
|----------------------------------------|---------------------------------|
|----------------------------------------|---------------------------------|
|-5h7-----------10p7---------------------|-5h7-----------5h7-----------9---|
|-----0---0-0--------0-0-0---0-0-0---0-0-|-----0---0-0-------0-0-0---0-7---|


     ~~~~~~~~~~~~~~~~~~~~~~~~~~~~~~~~~~~~~~~
   S S +E    +H.                        +H.                    E E
|-------------------------------------|----------------------------|
|-------------------------------------|----------------------------|
|-------------------------------------|----------------------------|
|-------------------------------------|----------------------------|
|-/5-7-(7)---(7)----------------------|-(7)------------------------|
|-------------------------------------|------------------------3-0-|
|
|  S S  S  S  E   S S S S S S S S S S    S S S S E S S S S S S E E
|-------------------------------------|----------------------------|
|-------------------------------------|----------------------------|
|-------------------------------------|----------------------------|
|-------------------------------------|----------------------------|
|--5h7-----------10p7-----------------|--5h7-------5h7---------5---|
|-------0--0--0-------0-0-0-0-0-0-0-0-|------0-0-0-----0-0-0-0-3-0-|


 Introduction III
  Gtrs I, II
  E E E E E E E E   E E E E E E E E
|-----------------|-----------------|
|-----------------|-----------------|
|-----------------|-----------------|
|-----------------|-----------------|
|-4-5---4-----4-5-|-----5-4-----4-5-|
|-2-3-0-2-0-0-2-3-|-0-0-3-2-0-0-2-3-|


  S S S S E  S S S S S S S S S S   S S S S E S S S S S S E E
|--------------------------------|---------------------------|
|--------------------------------|---------------------------|
|--------------------------------|---------------------------|
|--------------------------------|---------------------------|
|-5h7-------10p7-----------------|-5h7-------5h7---------5---|
|-----0-0-0------0-0-0-0-0-0-0-0-|-----0-0-0-----0-0-0-0-3-0-|


  E E E E E E E E   E E E E E E E E
|-----------------|-----------------|
|-----------------|-----------------|
|-----------------|-----------------|
|-----------------|-----------------|
|-1-2---1-----1-2-|-----2-1-----1-2-|
|-2-3-0-2-0-0-2-3-|-0-0-3-2-0-0-2-3-|


  S S S S E  S S S S S S S S S S   S S S S E S S S S S S E E
|--------------------------------|---------------------------|
|--------------------------------|---------------------------|
|--------------------------------|---------------------------|
|--------------------------------|---------------------------|
|-5h7-------10p7-----------------|-5h7-------5h7---------5---|
|-----0-0-0------0-0-0-0-0-0-0-0-|-----0-0-0-----0-0-0-0-3-0-|


  E E E E E E E E   E E E E E E E E
|-----------------|-----------------|
|-----------------|-----------------|
|-----------------|-----------------|
|-----------------|-----------------|
|-4-5---4-----4-5-|-----5-4-----4-5-|
|-2-3-0-2-0-0-2-3-|-0-0-3-2-0-0-2-3-|


  S S S S E  S S S S S S S S S S   S S S S E S S S S S S E E
|--------------------------------|---------------------------|
|--------------------------------|---------------------------|
|--------------------------------|---------------------------|
|--------------------------------|---------------------------|
|-5h7-------10p7-----------------|-5h7-------5h7---------5---|
|-----0-0-0------0-0-0-0-0-0-0-0-|-----0-0-0-----0-0-0-0-3-0-|


  E E E E E E E E   E E E E E E S S S S
|-----------------|----------------------|
|-----------------|----------------------|
|-----------------|----------------------|
|-----------------|----------------------|
|-1-2---1-----1-2-|-----2-1-----------5h=|
|-2-3-0-2-0-0-2-3-|-0-0-3-2-0-0-5h7h8----|


   Verse I
    Gtr I
    E S S E q  q  S S   E S S E E +E  E E S S
||--------------------|------------------------|
||o-------------------|------------------------|
||--------------------|------------------------|
||--------------------|------------------------|
||o-7-------6--5--5h6h|=7-----------------5h6h=|
||----0-0-0-7--6------|---0-0-0-6-(6)-7-6------|
|
|   Gtr II
|   E S S E q  q  S S   E S S E E +E  E E S S
||--------------------|------------------------|
||o-------------------|------------------------|
||----------8--7------|------------------------|
||----------9--8------|------------------------|
||o-7-------------5h6h|=7-----------------5h6h=|
||----0-0-0-----------|---0-0-0-6-(6)-7-6------|


  Gtrs I, II
  E S S E q  q  S S   E S S E Q  E E E
|-------------------|------------------|
|-------------------|------------------|
|-------------------|------------------|
|-------------------|------------------|
|-7-------6--5--5h6h|=7-------1----1-2-|
|---0-0-0-7--6------|---0-0-0-2--0-2-3-|


  E E E Q  E E E   E E E Q  E E E
|----------------|----------------|
|----------------|----------------|
|----------------|----------------|
|----------------|----------------|
|-4-----4----2-4-|-5-----5--------|
|-5-0-0-5--0-3-5-|-6-0-0-6--5-3-5-|


  S S S S S S Q  E E E   S S S S S S Q  E E S S   4x
|----------------------|--------------------------||
|----------------------|-------------------------o||
|----------------------|--------------------------||
|----------------------|--------------------------||
|-------------5--4-2---|-------------8--7---5h6h=o||
|-3p0-0-0-0-0-6--5-3-5-|-3p0-0-0-0-0-6--5-3-------||


                           Solo - Friedman
                            Q=12H.=H
  Gtr I
  E S S E S S E S S E S S   W
|-------------------------|--------------------|
|-------------------------|--------------------|
|-------------------------|--------------------|
|-------------------------|--------------------|
|-7-----------------------|-2------------------|
|---5h6h7-7p6p5-5p4p3-3-3-|-0------------------|
|
| Gtr II                         Gtr III
| E S S E S S E S S E S S   Q.   S  S  Q.    E
|-------------------------|--------------------|
|-------------------------|-----------12----10-|
|-------------------------|------9h10----------|
|-------------------------|--------------------|
|-7-----------------------|--------------------|
|---5h6h7-7p6p5-5p4p3-3-3-|-0------------------|


  Q=120                      H.=H
  +W
|---------------------------------------------------|
|---------------------------------------------------|
|---------------------------------------------------|
|---------------------------------------------------|
|-(2)-----------------------------------------------|
|-(0)-----------------------------------------------|
|
|         |---3---|                 |-----3------|
|  E   E  S..  S  S  E  S  S  E  S  S  S  S S  S S
|--------11h==12p11----11h12----12p10----10p8----8p=|
|-12--13------------13-------13-------12------10----|
|---------------------------------------------------|
|---------------------------------------------------|
|---------------------------------------------------|
|---------------------------------------------------|


  H.=H
  +W
|------------------------------------------------|
|------------------------------------------------|
|------------------------------------------------|
|------------------------------------------------|
|-(2)--------------------------------------------|
|-(0)--------------------------------------------|
|
|  |----3-----| |----3----|          |-3-| |-3-|
|  S  S S S S S S S S S S S S T  T S T T T E E E
|--7----7p5---5p4---4h5---5-7-7s10-7-5-6-5-------|
|-----9-----6-----5-----6------------------6-3-4-|
|------------------------------------------------|
|------------------------------------------------|
|------------------------------------------------|
|------------------------------------------------|


  Q=90H.=H                      Q=H.=H         Q=128
                                              2/4
  +W                                           +H
|--------------------------------------------|--------|
|--------------------------------------------|--------|
|--------------------------------------------|--------|
|--------------------------------------------|--------|
|-(2)----------------------------------------|-(2)----|
|-(0)----------------------------------------|-(0)----|
|
|       |-3-|
|  S  S T T T S T T T T T T T T S S S S E  E   +H
|-----------------------------------------^0-|-(0)----|
|--5--2-4h5p4p0-3p2p1p0---1p0-------------^0-|-(0)----|
|-----------------------2-----2p1p0-------^4-|-(4)----|
|-----------------------------------4p3p2-^2-|-(2)----|
|--------------------------------------------|--------|
|--------------------------------------------|--------|


   Bridge
   4/4
    Gtr II
                                  ~
    E E E E E E E E   E E E E E E Q  4x
||------------------|----------------||
||o-----------------|---------------o||
||------------------|----------------||
||------------------|----------------||
||o-3-2---2-----3-2-|---2-----2-3-5-o||
||--3-2-0-2-0-0-3-2-|-0-2-0-0-2-3-5--||


 The Punishment Due
  Gtr I
  E E  E  E E E  E   E    +W           E E  E E E E E E   E  E E E E E E E
|-----------------------|------------|------------------|-0--------0--------|
|-----------------------|------------|------------------|----0-------0------|
|-----------------------|------------|------------------|-------------------|
|-----/2----4--------5--|-(5)--------|-----/2---4-------|-------------------|
|---------2------3--(3)-|-(3)--------|--------2---------|-------------------|
|-0-0---------0-(0)-(0)-|-(0)--------|-0-0--------0-3-2-|------2-1-----1-0--|
|
| Gtr II
| E E  H.                  W           W                  H.           E E
|-----------------------|------------|------------------|-------------------|
|-----------------------|------------|------------------|-------------------|
|-----------------------|------------|------------------|-------------------|
|-----------------------|------------|------------------|-------------------|
|-7---------------------|------------|------------------|----------------2--|
|-7---------------------|------------|------------------|----------------0--|


   E  E  E E E E  E   E    +W
|------------------------|------------|
|------------------------|------------|
|------------------------|------------|
|-------/2---4--------5--|-(5)--------|
|----------2------3--(3)-|-(3)--------|
|--0--0--------0-(0)-(0)-|-(0)--------|
|
| +W                       +W
|------------------------|------------|
|------------------------|------------|
|------------------------|------------|
|------------------------|------------|
|-(2)--------------------|-(2)--------|
|-(0)--------------------|-(0)--------|


   E  E  E E E E E E   E E E E E E E E
|--------------------|-0-------0----------|
|--------------------|---0-------0--------|
|--------------------|--------------------|
|-------/2---4-------|--------------------|
|----------2---------|--------------------|
|--0--0--------0-3-2-|-----2-1-----1-0----|
|
| +H.            E E   Q   E E Q   E E
|--------------------|--------------------|
|--------------------|--------------------|
|--------------------|--------------------|
|--------------------|--------------------|
|-(2)----------------|--------------------|
|-(0)------------3-2-|-----2-1-----1-0----|


   Verse II
    E E  E E E E  E   E    +E  E E E E E E E
||-----------------------|-------------------|
||o----------------------|-------------------|
||-----------------------|-------------------|
||------/2---4--------5--|-(5)-5-5-5-5-5-5-5-|
||o--------2------3--(3)-|-(3)-3-3-3-3-3-3-3-|
||--0-0--------0-(0)-(0)-|-(0)---------------|
|
|   E E  E E E E  E   E    +E  E E E E E E E
||-----------------------|-------------------|
||o----------------------|-------------------|
||-----------------------|-------------------|
||------/2---4--------5--|-(5)-5-5-5-5-5-5-5-|
||o--------2------3--(3)-|-(3)-3-3-3-3-3-3-3-|
||--0-0--------0-(0)-(0)-|-(0)---------------|


  E E  E E E E E E   E E E E E E E E     4x
|------------------|-0-------0-----------||
|------------------|---0-------0--------o||
|------------------|---------------------||
|-----/2---4-------|---------------------||
|--------2-----2-1-|-----1-0-----0-2----o||
|-0-0--------0-3-2-|-----2-1-----1-0-----||
|
| E E  E E E E E E   Q   E E Q   E E     4x
|------------------|---------------------||
|------------------|--------------------o||
|------------------|---------------------||
|-----/2---4-------|---------------------||
|--------2-----2-1-|-----1-0-----0-2----o||
|-0-0--------0-3-2-|-----2-1-----1-0-----||


 Solo - Friedman
  E   E   E   E    E   E   E   E
|----------------------------------|
|-------------0--------------------|
|---------0--------0---------------|
|-----0----------------3---0-------|
|-2----------------------------1---|
|----------------------------------|
|
| S S S S S S S S  S S S S S S S S
|---------------7h10p7-----------6h|
|-------------8--------8-------6---|
|-----------7------------7---7-----|
|-------5h9----------------9-------|
|-----5----------------------------|
|-3h7------------------------------|


   E   E     E     E     E     E        E        E
|--------------------------------------------------|
|------------1-------------------------------------|
|------3-----------3-------------------------------|
|--3-----------------------------------------------|
|------------------------1--------------3--------4-|
|------------------------------0--------1--------2-|
|
|  S S S S   S  S  S  S  S  S  S     S  T  T  S  E
|-10p6---------------10h13p10-------10-------13-13-|
|------6----------11----------13b15----13s15-------|
|--------7-----10----------------------------------|
|----------/12-------------------------------------|
|--------------------------------------------------|
|--------------------------------------------------|


   E  E    E E  E     E           E           E
|-----------------------------------------------------|
|----------3-0----------------------------------------|
|---------------0-------------------------------------|
|---------------------3-----------0-------------------|
|-----2---------------------------------------1-------|
|--3--------------------------------------------------|
|
|  E  Q.        S  S  S     +S   +S      +S   S  S
|-18-18b20-----15-------------------------------20b22-|
|-----------------15-17b18r(17)-(17)b18r(17)p15-------|
|-----------------------------------------------------|
|-----------------------------------------------------|
|-----------------------------------------------------|
|-----------------------------------------------------|


    E      E E E E E E  E
|----------------------------|
|------------1---------------|
|----------3---3-------------|
|---3------------------------|
|----------------1---3--4----|
|------------------0-1--2----|
|
|  +H.               E  E
|-(20)pb22-------------24b27-|
|----------------------------|
|----------------------------|
|----------------------------|
|----------------------------|
|----------------------------|


    E      E  E     E  E     E  E      E
|--------------------------------------------|
|-------------3-----0------------------------|
|----------------------0---------------------|
|----------------------------3--0------------|
|----------2---------------------------1-----|
|---3----------------------------------------|
|
|  +Q         Q        Q        E      E
|-(24)pb27---24pb27---24pb27---24pb27r24pb25-|
|--------------------------------------------|
|--------------------------------------------|
|--------------------------------------------|
|--------------------------------------------|
|--------------------------------------------|


    E      E  E     E     E     E     E E
|-----------------------------------------|
|-------------1---------------------------|
|----------3--------3---------------------|
|---3-------------------------------------|
|-------------------------1-----------3-4-|
|-------------------------------0-----1-2-|
|
|                                     ~~
|  +Q         S  S  S  S  S  S  S  S  Q
|-(24)pb25---22p18-15---------------------|
|---------------------15------------------|
|------------------------15p14------------|
|------------------------------15p12------|
|------------------------------------13---|
|-----------------------------------------|


  E E E     E     E     E     E     E
|----------------------------------------|
|-----3-----0----------------------------|
|-----------------0----------------------|
|-----------------------3----------------|
|---2-------------------------2-----1----|
|-3---------------------------3-----2----|
|
| E E S  S  S  S  S  S  S  S  S  S  S  S
|----------------------------------------|
|---8-8s10-10-10-10s11-11-11-11s13-13-13-|
|----------------------------------------|
|---5-5s=7--7--7--7s=8--8--8--8s10-10-10-|
|----------------------------------------|
|----------------------------------------|


 5/4
   E        E  E        E        E      E     E        E        Q
|--0-----------------------------0---------------------------------------------|
|-----------0---------------------------0--------------------------------------|
|------------------------------------------------------------------------------|
|------------------------------------------------------------------------------|
|--------------1--------0---------------------0--------2-----------------------|
|--------------2--------1---------------------1--------0-----------------------|
|
|              |------3-------|               |------3-------|
|  T  T  S  E  S  S  S  S  S  S  T  S.  S  S  S  S  S  S  S  S  S  T  T  E
|-----------------------------------------------------------------------20b22--|
|-13h18p15h18-15----15h18p15-----------18p15----15-----------------------------|
|----------------18----------18p17p15--------18----18p17p15----17--------------|
|-----------------------------------------------------------17----15h16--------|
|------------------------------------------------------------------------------|
|------------------------------------------------------------------------------|


 4/4
    E      E  E  E E E  E   E    +E  E E E E E  T    T     T     T    +E
|------------------------------|---------------<5>-(<5>)-(<5>)-(<5>)-(<5>)-|
|------------------------------|--------------------<5>--(<5>)--(5)--(<5>)-|
|------------------------------|--------------------------<5>--(<5>)-(<5>)-|
|------------/2----4--------5--|-(5)-5-5-5-5-5------------------<5>--(<5>)-|
|----------------2------3--(3)-|-(3)-3-3-3-3-3-----------------------------|
|---0------0---------0-(0)-(0)-|-(0)---------------------------------------|
|
|  +E      E  H.                  W
|-(20)pb22r====================|===========================================|
|------------------------------|-------------------------------------------|
|------------------------------|-------------------------------------------|
|------------------------------|-------------------------------------------|
|------------------------------|-------------------------------------------|
|------------------------------|-------------------------------------------|


  q   E E E E E E   E E E E E E E E
|-----------------|-0-------0---------|
|-----------------|---0-------0-------|
|-----------------|-------------------|
|----/2---4-------|-------------------|
|-------2---------|-------------------|
|-0---------0-3-2-|-----2-1-----1-0---|
|
| q   H       E E   Q   E E Q   E E
|-----------------|-------------------|
|-----------------|-------------------|
|-----------------|-------------------|
|-----------------|-------------------|
|-2---------------|-------------------|
|-0-----------3-2-|-----2-1-----1-0---|


   Verse III
    E E  E E E E  E   E    +E  E E E E E E E
||-----------------------|-------------------|
||o----------------------|-------------------|
||-----------------------|-------------------|
||------/2---4--------5--|-(5)-5-5-5-5-5-5-5-|
||o--------2------3--(3)-|-(3)-3-3-3-3-3-3-3-|
||--0-0--------0-(0)-(0)-|-(0)---------------|
|
|   E E  E E E E  E   E    +E  E E E E E E E
||-----------------------|-------------------|
||o----------------------|-------------------|
||-----------------------|-------------------|
||------/2---4--------5--|-(5)-5-5-5-5-5-5-5-|
||o--------2------3--(3)-|-(3)-3-3-3-3-3-3-3-|
||--0-0--------0-(0)-(0)-|-(0)---------------|


  E E  E E E E E E   E E E E E E E E     3x
|------------------|-0-------0-----------||
|------------------|---0-------0--------o||
|------------------|---------------------||
|-----/2---4-------|---------------------||
|--------2-----2-1-|-----1-0-----0-2----o||
|-0-0--------0-3-2-|-----2-1-----1-0-----||
|
| E E  E E E E E E   Q   E E Q   E E     3x
|------------------|---------------------||
|------------------|--------------------o||
|------------------|---------------------||
|-----/2---4-------|---------------------||
|--------2-----2-1-|-----1-0-----0-2----o||
|-0-0--------0-3-2-|-----2-1-----1-0-----||


  E E  E E E E  E   E    +E  E E E E E E E
|----------------------|-------------------|
|----------------------|-------------------|
|----------------------|-------------------|
|-----/2---4--------5--|-(5)-5-5-5-5-5-5-5-|
|--------2------3--(3)-|-(3)-3-3-3-3-3-3-3-|
|-0-0--------0-(0)-(0)-|-(0)---------------|
|
| E E  E E E E  E   E    +E  E E E E E E E
|----------------------|-------------------|
|----------------------|-------------------|
|----------------------|-------------------|
|-----/2---4--------5--|-(5)-5-5-5-5-5-5-5-|
|--------2------3--(3)-|-(3)-3-3-3-3-3-3-3-|
|-0-0--------0-(0)-(0)-|-(0)---------------|


  E E  E E E E E E   E E E E E E E E
|------------------|-0-------0------------|
|------------------|---0-------0----------|
|------------------|----------------------|
|-----/2---4-------|----------------------|
|--------2-----2-1-|-----1-0-----0-2------|
|-0-0--------0-3-2-|-----2-1-----1-0------|
|
| E E  E E E E E E   Q   E E Q   E E
|------------------|----------------------|
|------------------|----------------------|
|------------------|---------------5b7----|
|-----/2---4-------|----------------------|
|--------2-----2-1-|-----1-0--------------|
|-0-0--------0-3-2-|-----2-1--------------|


 Solo - Friedman
   E     E E  E       E   E   E   E    E  E E E E E E E
|-----------------------------------|----------------------|
|-------------0---------------------|-------1--------------|
|----------0----------0-------------|-----3---3------------|
|--------0----------------3---0-----|--3-------------------|
|--2------------------------------1-|-----------1---3-4----|
|-----------------------------------|-------------0-1-2----|
|
|                                 ~~~~~~~~
| +Q.        +S     S S S S S S S E   +Q.   S S S S S S Q
|-----------------------------------|-------6s8-8-8--------|
|-----------------------------------|----------------------|
|-(5)pb7-----(5)pb7p3---3-----------|-------3s5-5-5-5h7p5\-|
|---------------------5---5p3-------|----------------------|
|-----------------------------5p3---|----------------------|
|---------------------------------6-|-(6)------------------|


  E E E E E E     E   E      E     E E  E  E E  E     E
|-------------------------|-----------------------------|
|-----3-0-----------------|----------1------------------|
|---------0---------------|--------3----3---------------|
|-----------3-----0-------|--3--------------------------|
|---2-----------------1---|----------------1----3-----4-|
|-3-----------------------|------------------0--1-----2-|
|
|           |-3-|
| E E E E E S S S S S E     +Q       E  Q.      S  S  E
|-------------------------|-----------------------------|
|-------6-8-6h8p6---6-6b8-|-(6)pb8----------------------|
|-0-5-7-----------7-------|----------7-10---------------|
|-------------------------|-----------------------------|
|-------------------------|--------------------------14-|
|-------------------------|--------------------10s15----|


   E     E     E     E    E E  E  E    E     E     E     E     E     E     E E
|-----------------------------------|------------------------------------------|
|--------------3-----0--------------|--------------1---------------------------|
|-------------------------0---------|--------3-----------3---------------------|
|---------------------------3--0----|--3---------------------------------------|
|--------2------------------------1-|--------------------------1-----------3-4-|
|--3--------------------------------|--------------------------------0-----1-2-|
|
|  S  S  S  S  S  S  Q.        E  E    S  S  S  S  S  S  S  S  S  S  S  S  Q
|-----------------------------------|----22p18-------------18p15---------------|
|-------------------18b20-----15-18-|-18-------22p18s15-15-------18p15---------|
|----------15h18p15-----------------|----------------------------------18h19---|
|----15h17--------------------------|------------------------------------------|
|-17--------------------------------|------------------------------------------|
|-----------------------------------|------------------------------------------|


   E    E   E       E     E    E  E  E    E  E  E  E   E   E E E
|--------------------------------------|--0------------0---------|
|-----------3-------0------------------|-----0-------------0-----|
|-------------------------0------------|-------------------------|
|------------------------------3-------|-------------------------|
|-------2-------------------------2--1-|--------1--0---------0-2-|
|--3------------------------------3--2-|--------2--1---------1-0-|
|
|                                                      ~~~~~
|  Q       +E       S  S  Q       E  E    E  E  E  E  +H
|-20b22---(20)pb22r15------------------|-------------------------|
|---------------------18-18b20---------|-------------------------|
|--------------------------------15s17-|-17h18-18p17-(17)\-------|
|--------------------------------------|-------------------------|
|--------------------------------------|-------------------------|
|--------------------------------------|-------------------------|


 Guitar Break
  Q=172
  +Q    E   E   E   E   S   S   E     E   E   S   S   E   E   E  E E
|----------------------------------|---------------------------------|
|----------------------------------|---------------------------------|
|----------------------------------|---------------------------------|
|----------------------------------|---------------------------------|
|-(2)------------------------------|-----------------------------5-2-|
|-(0)--<3>-<3>-<3>-<3>-<3>-<3>-<3>-|-<3>-<3>-<3>-<3>-<3>-<3>-<3>-3-0-|
|
|  W                                  H.                         E E
|----------------------------------|---------------------------------|
|----------------------------------|---------------------------------|
|----------------------------------|---------------------------------|
|----------------------------------|---------------------------------|
|----------------------------------|-----------------------------5-2-|
|----------------------------------|-----------------------------3-0-|


    E E E E E E E E   E E E E E E E E
||------------------|-----------------|
||o-----------------|-----------------|
||------------------|-----------------|
||------------------|-----------------|
||o-4-5---4-----4-5-|-----5-4-----4-5-|
||--2-3-0-2-0-0-2-3-|-0-0-3-2-0-0-2-3-|
|
|   E E E E E E E E   E E E E E E E E
||------------------|-----------------|
||o-----------------|-----------------|
||------------------|-----------------|
||------------------|-----------------|
||o-4-5---4-----4-5-|-----5-4-----4-5-|
||--2-3-0-2-0-0-2-3-|-0-0-3-2-0-0-2-3-|


  Q   E   E   E   E   S   S   E     E   E   S   S   E   E   E  E E
|--------------------------------|-----------------------------------||
|--------------------------------|----------------------------------o||
|--------------------------------|-----------------------------------||
|--------------------------------|-----------------------------------||
|-2------------------------------|-----------------------------5-2--o||
|-0--<3>-<3>-<3>-<3>-<3>-<3>-<3>-|-<3>-<3>-<3>-<3>-<3>-<3>-<3>-3-0---||
|
| Q   H.                            H.                         E E
|--------------------------------|-----------------------------------||
|--------------------------------|----------------------------------o||
|--------------------------------|-----------------------------------||
|--------------------------------|-----------------------------------||
|-2------------------------------|-----------------------------5-2--o||
|-0------------------------------|-----------------------------3-0---||


  Gtr I
  W                 W                 W
|-----------------|-----------------|--------------------------------|
|-----------------|-----------------|--------------------------------|
|-----------------|-----------------|--------------------------------|
|-----------------|-----------------|--------------------------------|
|-----------------|-----------------|--------------------------------|
|-----------------|-----------------|--------------------------------|
|
| Gtr I
| E E E E E E E E   E E E E E E E E   Q   E   E   E   E   S   S   E
|-----------------|-----------------|--------------------------------|
|-----------------|-----------------|--------------------------------|
|-----------------|-----------------|--------------------------------|
|-----------------|-----------------|--------------------------------|
|-4-5---4-----4-5-|-----5-4-----4-5-|-2------------------------------|
|-2-3-0-2-0-0-2-3-|-0-0-3-2-0-0-2-3-|-0--<3>-<3>-<3>-<3>-<3>-<3>-<3>-|
|
| Gtr II
| E E E E E E E E   E E E E E E E E   Q   H.
|-----------------|-----------------|--------------------------------|
|-----------------|-----------------|--------------------------------|
|-----------------|-----------------|--------------------------------|
|-----------------|-----------------|--------------------------------|
|-4-5---4-----4-5-|-----5-4-----4-5-|-2------------------------------|
|-2-3-0-2-0-0-2-3-|-0-0-3-2-0-0-2-3-|-0------------------------------|


                        <        <
   H                    Q        Q
|---------------------------------------|
|---------------------------------------|
|---------------------[14]-----[14]-----|
|---------------------------------------|
|---------------------------------------|
|---------------------------------------|
|
|  E   E   S   S   E    E   E    E  E
|---------------------------------------|
|---------------------------------------|
|---------------------------------------|
|---------------------------------------|
|--------------------------------5--2---|
|-<3>-<3>-<3>-<3>-<3>--<3>-<3>---3--0---|
|
|  H.                            E  E
|---------------------------------------|
|---------------------------------------|
|---------------------------------------|
|---------------------------------------|
|--------------------------------5--2---|
|--------------------------------3--0---|


  Gtr I
   E.    +S      +H.                  +Q         H.
|-17----(17)b19-(17)pb19-----------|-(17)pb19-----------------|
|----------------------------------|--------------------------|
|----------------------------------|------------16\-----------|
|----------------------------------|--------------------------|
|----------------------------------|--------------------------|
|----------------------------------|--------------------------|
|
| Gtr II
|  E  E           E      E E E E E     E      E  E  E E E E E
|----------------------------------|--------------------------|
|----------------------------------|--------------------------|
|----------------------------------|--------------------------|
|----------------------------------|--------------------------|
|--1--2------------------1-----1-2-|-------------2--1-----1-2-|
|--2--3-----------0------2-0-0-2-3-|---0------0--3--2-0-0-2-3-|


   H.             +E         E        +H.                 +E       E
|-17b19----------(17)pb19---17pb19r|=(17)b19-------------(17)pb19-17pb19r==|
|----------------------------------|---------------------------------------|
|----------------------------------|---------------------------------------|
|----------------------------------|---------------------------------------|
|----------------------------------|---------------------------------------|
|----------------------------------|---------------------------------------|
|
|  Q     E E E E   S      S  E         E     E S S E E E   E       E
|----------------------------------|---------------------------------------|
|----------------------------------|---------------------------------------|
|----------------------------------|---------------------------------------|
|----------------------------------|---------------------------------------|
|--2-------------------------------|-----------------------5-------2-------|
|--0-----0-0-0-0---0------0--0-----|---0-----0-0-0-0-0-0---3-------0-------|


   +Q.         E      +Q.         E
|-(17)b19-----17pb19r(17)b19-----17pb19r|
|---------------------------------------|
|---------------------------------------|
|---------------------------------------|
|---------------------------------------|
|---------------------------------------|
|
|   E     E E  E       E     E E  E
|---------------------------------------|
|---------------------------------------|
|---------------------------------------|
|---------------------------------------|
|---4-----5----4---------------4--5-----|
|---2-----3-0--2-------0-----0-2--3-----|


   +Q.         E      +Q.         E
|-(17)b19-----17pb19r(17)b19-----17pb19r=|
|----------------------------------------|
|----------------------------------------|
|----------------------------------------|
|----------------------------------------|
|----------------------------------------|
|
|   E     E E  E       E     E E  E
|----------------------------------------|
|----------------------------------------|
|----------------------------------------|
|----------------------------------------|
|-----------5--4---------------4--5------|
|---0-----0-3--2-------0-----0-2--3------|


 Solo - Mustaine
    |--3---|
   +S   S  S  E  S  S  S  S  S  S  S  S  S  S  S  S
|-(17)p15p12-12-12-12-------------------------------|
|---------------------17p15p12-17p15p12-17p15p12----|
|------------------------------------------------16p|
|---------------------------------------------------|
|---------------------------------------------------|
|---------------------------------------------------|
|
|   Q            E     E     E     E     S  S  E
|---------------------------------------------------|
|---------------------------------------------------|
|---------------------------------------------------|
|---------------------------------------------------|
|---2-----------------------------------------------|
|---0------------0-----0-----0-----0-----0--0--0----|


   E  S  S  S  S  S  S  S  S  S  S  E  E
|----------------------------------------|
|----------------------------------------|
|-15-------------------------------------|
|----15p14p12-15p14p12-15p14p12----12----|
|-------------------------------14----14-|
|----------------------------------------|
|
|  E  E     S  S  E     E     E     E  E
|----------------------------------------|
|----------------------------------------|
|----------------------------------------|
|----------------------------------------|
|-----------------------------------5--2-|
|--0--0-----0--0--0-----0-----0-----3--0-|


   E  S  S  S  S  S  S  S  S  S  S  +S   S  S  S
|------------------------------------------------|
|------------------------------------------------|
|------------------------------------------------|
|-13p12h14p13p12----14p13p12---------------------|
|----------------14----------14p13-(13)h14p13p12h|
|------------------------------------------------|
|
|  E  E     E     E     E     E      E      E
|------------------------------------------------|
|------------------------------------------------|
|------------------------------------------------|
|------------------------------------------------|
|--1--2-----------1------------------1------2----|
|--2--3-----0-----2-----0-----0------2------3----|


   S  S  S  S  S  S  E  E  E  S  S  E
|---------------------------------------|
|---------------------------------------|
|---------------------------------------|
|---------------------------------------|
|-14p13p12----14p13p12-10-12-10h12p10\--|
|----------14---------------------------|
|
|  E     E     E     E  E  E  E     E
|---------------------------------------|
|---------------------------------------|
|---------------------------------------|
|---------------------------------------|
|--------------2-----1--------1-----2---|
|--0-----0-----3-----2--0--0--2-----3---|


  ~~
  H.          E    E    E E S E   S E E S E
|---------------------|-----------------------|
|---------------------|-----------------------|
|---------------------|-----------------------|
|---------------------|-----------------------|
|-----------------<5>-|-3-0-3p0---3p0---3p0---|
|-0-------------------|---------------4-------|
|
| Q   E E E E S S  E    E E S S E   E E E   E
|---------------------|-----------------------|
|---------------------|-----------------------|
|---------------------|-----------------------|
|---------------------|-----------------------|
|-2-------------------|-----------------5---2-|
|-0---0-0-0-0-0-0--0--|-0-0-0-0-0---0-0-3---0-|


                     |---3---|
   S  S  E  S  S  E  E  E    E  +E   S  S
|-----------------------------------------|
|-----------------------------------------|
|-----------------------------------14----|
|-------------------12-13---14-(14)----14-|
|-10h12p10-12h13h14-----------------------|
|-----------------------------------------|
|
|  E     E  E     E  E    E      E   E
|-----------------------------------------|
|-----------------------------------------|
|-----------------------------------------|
|-----------------------------------------|
|--4-----5--------4--------------4---5----|
|--2-----3--0-----2--0----0------2---3----|


   S  S  S  S  S  S  S  S  S  S  S  S  S  S  S  S
|-------------------------------------------------|
|-------------------------12-12h15p12-15-15h17p15-|
|-12h14p12h14h15p14p12----------------------------|
|----------------------14-------------------------|
|-------------------------------------------------|
|-------------------------------------------------|
|
|  E     E     E     E     E     E     E     E
|-------------------------------------------------|
|-------------------------------------------------|
|-------------------------------------------------|
|-------------------------------------------------|
|--------------5-----4-----------------4-----5----|
|--0-----0-----3-----2-----0-----0-----2-----3----|


               |------3-------|
   S  S  S  S  S  S  S  S  S  S  S  S  T  T  S  S  S  S  T  T
|-------------------------------------12h15h17----------12h15h|
|-17p15p12h15h17p15p12h17p15p12h15h17----------12h15h17-------|
|-------------------------------------------------------------|
|-------------------------------------------------------------|
|-------------------------------------------------------------|
|-------------------------------------------------------------|
|
|  Q           E        E        E     E        S  S  E
|-------------------------------------------------------------|
|-------------------------------------------------------------|
|-------------------------------------------------------------|
|-------------------------------------------------------------|
|--2----------------------------------------------------------|
|--0-----------0--------0--------0-----0--------0--0--0-------|


   E  S  S  S  T  T  E  S  S  S  T  T  E  T  T  S
|-17----------12h15h17----------12h15h17-17p15p12---|
|----12h15h17----------12h15h17---------------------|
|---------------------------------------------------|
|---------------------------------------------------|
|---------------------------------------------------|
|---------------------------------------------------|
|
|  E  E     S  S     E  E     E        E  E
|---------------------------------------------------|
|---------------------------------------------------|
|---------------------------------------------------|
|---------------------------------------------------|
|--------------------------------------5--2---------|
|--0--0-----0--0-----0--0-----0--------3--0---------|


                                   |------3-------|
   Q       +E       E  S  S  S  S  S  S  S  S  S  S
|-17b19---(17)pb19r12-17p15p12----------------------|
|------------------------------17-17p15p12h17p15p12-|
|---------------------------------------------------|
|---------------------------------------------------|
|---------------------------------------------------|
|---------------------------------------------------|
|
|  E    E   E       E  E     E     E        E
|---------------------------------------------------|
|---------------------------------------------------|
|---------------------------------------------------|
|---------------------------------------------------|
|--1----2-----------1--------------1--------2-------|
|--2----3---0-------2--0-----0-----2--------3-------|


                         |--3--|
   E.   S  E  S  S  Q    S  S  S  S  S
|---------------------------------------|
|---------------------------------------|
|-15p==12---------------15p14p12h15p12--|
|---------15-15p12h14-------------------|
|---------------------------------------|
|---------------------------------------|
|
|  E E     E  E     E E  E        E
|---------------------------------------|
|---------------------------------------|
|---------------------------------------|
|---------------------------------------|
|----------2--1----------1--------2-----|
|--0-0-----3--2-----0-0--2--------3-----|


   S  S  S  S  S  S  S  S  S  S  S  S  S  S  S  S
|-------------------------------------------------|
|-15p12----15-15p12h17p12----12h15p12h17p12----12-|
|-------12----------------15----------------15----|
|-------------------------------------------------|
|-------------------------------------------------|
|-------------------------------------------------|
|
|  Q           E     E     E     E     S  S  E
|-------------------------------------------------|
|-------------------------------------------------|
|-------------------------------------------------|
|-------------------------------------------------|
|--2----------------------------------------------|
|--0-----------0-----0-----0-----0-----0--0--0----|


   S  S  S  S  S  S  S  S  S  S  S  S  S  S  S  S
|-------------------------------------------------|
|-17p12----15-15p12h17p12----12h15p12h17p12----12-|
|-------12----------------15----------------15----|
|-------------------------------------------------|
|-------------------------------------------------|
|-------------------------------------------------|
|
|  E     E     S  S  E     E     E     E     E
|-------------------------------------------------|
|-------------------------------------------------|
|-------------------------------------------------|
|-------------------------------------------------|
|--------------------------------------5-----2----|
|--0-----0-----0--0--0-----0-----0-----3-----0----|


   S  S  S  S  S  S  S  S  S  S  S  S  S  S  S  S
|-------------------------------------------------|
|-17p12----15-15p12h17p12----12h15p12h17p12----12-|
|-------16----------------16----------------16----|
|-------------------------------------------------|
|-------------------------------------------------|
|-------------------------------------------------|
|
|  E     E     E     E     E     E     E     E
|-------------------------------------------------|
|-------------------------------------------------|
|-------------------------------------------------|
|-------------------------------------------------|
|--4-----5-----------4-----------------4-----5----|
|--2-----3-----0-----2-----0-----0-----2-----3----|


   S  S  S  S  S  S  S  S  S  S  S  S  S  S  S  S
|-------------------------------------------------|
|-17p12----15-15p12h17p12----12h15p12h17p12----12-|
|-------16----------------16----------------16----|
|-------------------------------------------------|
|-------------------------------------------------|
|-------------------------------------------------|
|
|  E     E     E     E     E     E     E     E
|-------------------------------------------------|
|-------------------------------------------------|
|-------------------------------------------------|
|-------------------------------------------------|
|--------------5-----4-----------------4-----5----|
|--0-----0-----3-----2-----0-----0-----2-----3----|


   S  S  S  S  S  S  S  S  S  S  S  S  S  S  S  S
|-------------------------------------------------|
|-15p12----12-17p12----12-15p12----12-17p12----12-|
|-------16----------16----------16----------16----|
|-------------------------------------------------|
|-------------------------------------------------|
|-------------------------------------------------|
|
|  Q           E     E     E     E     S  S  E
|-------------------------------------------------|
|-------------------------------------------------|
|-------------------------------------------------|
|-------------------------------------------------|
|--2----------------------------------------------|
|--0-----------0-----0-----0-----0-----0--0--0----|


   S  S  S  S  S  S  S  S  S  S  S  S  S  S  S  S
|-------------------------------------------------|
|-15p12----12-17p12----12-15p12----12-17p12----12-|
|-------16----------16----------16----------16----|
|-------------------------------------------------|
|-------------------------------------------------|
|-------------------------------------------------|
|
|  E     E     S  S  E     E     E     E     E
|-------------------------------------------------|
|-------------------------------------------------|
|-------------------------------------------------|
|-------------------------------------------------|
|--------------------------------------5-----2----|
|--0-----0-----0--0--0-----0-----0-----3-----0----|


   S  S  S  S  E  S  S  S  S  E  S  S  S  S
|-------------------------------------------|
|-17p15p12----12-17p15p12----12-17p15p12----|
|----------15-------------15-------------15-|
|-------------------------------------------|
|-------------------------------------------|
|-------------------------------------------|
|
|  E     E     E  E     E     E  E     E
|-------------------------------------------|
|-------------------------------------------|
|-------------------------------------------|
|-------------------------------------------|
|--1-----2--------1--------------1-----2----|
|--2-----3-----0--2-----0-----0--2-----3----|


   E  S  S  S  S  E  S  S  S  S  E  S  S
|-----------------------------------------|
|-12-17p15p12----12-17p15p12----12-12-----|
|-------------15-------------15-------12--|
|-----------------------------------------|
|-----------------------------------------|
|-----------------------------------------|
|
|  E  E     E     E  E     E     E  E
|-----------------------------------------|
|-----------------------------------------|
|-----------------------------------------|
|-----------------------------------------|
|-----------2-----1--------------1--2-----|
|--0--0-----3-----2--0-----0-----2--3-----|


   S  S  S  S  S  S  S  S  S  S  S  S  S  S  S  S
|-------------------------------------------------|
|-17p15p12----17p15p12----17p15p12----17p15p12----|
|----------12----------12----------12----------12-|
|-------------------------------------------------|
|-------------------------------------------------|
|-------------------------------------------------|
|
|  Q           E     E     E     E     S  S  E
|-------------------------------------------------|
|-------------------------------------------------|
|-------------------------------------------------|
|-------------------------------------------------|
|--2----------------------------------------------|
|--0-----------0-----0-----0-----0-----0--0--0----|


   S  S  S  S  S  S  S  S  S  S  S  S  S  S  S  S
|-------------------------------------------------|
|-18p16p13----18p16p13----18p16p13----18p16p13----|
|----------13----------13----------13----------13-|
|-------------------------------------------------|
|-------------------------------------------------|
|-------------------------------------------------|
|
|  E     E     S  S  E     E     E     E     E
|-------------------------------------------------|
|-------------------------------------------------|
|-------------------------------------------------|
|-------------------------------------------------|
|--------------------------------------5-----2----|
|--0-----0-----0--0--0-----0-----0-----3-----0----|


   S  S  S  S  S  S  S  S  S  S  S  S  S  S  S  S
|-------------------------------------------------|
|-19p17p14----19p17p14----19p17p14----19p17p14----|
|----------14----------14----------14----------14-|
|-------------------------------------------------|
|-------------------------------------------------|
|-------------------------------------------------|
|
|  E     E     E     E     E     E     E     E
|-------------------------------------------------|
|-------------------------------------------------|
|-------------------------------------------------|
|-------------------------------------------------|
|--4-----5-----------4-----------------4-----5----|
|--2-----3-----0-----2-----0-----0-----2-----3----|


   S  S  S  S  S  S  S  S  S  S  S  S  S  S  S  S
|---------------------------------------------------|
|-20p18p15----20p18p15----20p18p15----20p18p15------|
|----------15----------15----------15----------15---|
|---------------------------------------------------|
|---------------------------------------------------|
|---------------------------------------------------|
|
|  E     E     E     E     E     E     E     E
|---------------------------------------------------|
|---------------------------------------------------|
|---------------------------------------------------|
|---------------------------------------------------|
|--------------5-----4-----------------4-----5------|
|--0-----0-----3-----2-----0-----0-----2-----3------|


   S  S  S  S  S  S  S  S  S  S  S  S  S  S  S  S
|-------------------------------------------------|
|-21p19p16----21p19p16----22p20p17----22p20p17----|
|----------16----------16----------17----------17-|
|-------------------------------------------------|
|-------------------------------------------------|
|-------------------------------------------------|
|
|  Q           E     E     E     E     S  S  E
|-------------------------------------------------|
|-------------------------------------------------|
|-------------------------------------------------|
|-------------------------------------------------|
|--2----------------------------------------------|
|--0-----------0-----0-----0-----0-----0--0--0----|


   S  S  S  S  S  S  S  S  S  S  S  S  S  S  S  S
|-------------------------------------------------|
|-23p21p18----23p21p18----24p22p19----24p22p19----|
|----------18----------18----------19----------19-|
|-------------------------------------------------|
|-------------------------------------------------|
|-------------------------------------------------|
|
|  E     E     S  S  E     E     E     E     E
|-------------------------------------------------|
|-------------------------------------------------|
|-------------------------------------------------|
|-------------------------------------------------|
|--------------------------------------5-----2----|
|--0-----0-----0--0--0-----0-----0-----3-----0----|


                             |-------3-------|       |-------3--------|
   H           H             Q       Q       Q       Q       Q       +Q
|-22b24-------22b24-------|-22b24---22b24---22b24---22b24---22b24---(22)pb24---|
|-------------------------|----------------------------------------------------|
|-------------------------|----------------------------------------------------|
|-------------------------|----------------------------------------------------|
|-------------------------|----------------------------------------------------|
|-------------------------|----------------------------------------------------|
|
|  E    E E E  E    E E E    E    E       E       E  E    E       E          E
|-------------------------|----------------------------------------------------|
|-------------------------|----------------------------------------------------|
|-------------------------|----------------------------------------------------|
|-------------------------|----------------------------------------------------|
|--1----2---1---------1-2-|---------------2-------1---------------1----------2-|
|--2----3-0-2--0----0-2-3-|--0----0-------3-------2--0----0-------2----------3-|


 Verse IV
                                    \3.5___________________________
  W                                +W
|--------------------------------|--------------------------------|
|--------------------------------|--------------------------------|
|--------------------------------|--------------------------------|
|--------------------------------|--------------------------------|
|--------------------------------|--------------------------------|
|-0------------------------------|-(0)----------------------------|
|
| S S S S E  S S S S S S S S S S    S     S S S E S S S S S S Q
|--------------------------------|--------------------------------|
|--------------------------------|--------------------------------|
|--------------------------------|--------------------------------|
|--------------------------------|--------------------------------|
|-5h7-------10p7-----------------|--5h====7-------5h7---------9---|
|-----0-0-0------0-0-0-0-0-0-0-0-|----------0-0-0-----0-0-0-0-7---|


  +W                                +W
|---------------------------------|---------------------------|
|---------------------------------|---------------------------|
|---------------------------------|---------------------------|
|---------------------------------|---------------------------|
|---------------------------------|---------------------------|
|-(0)-----------------------------|-(0)-----------------------|
|
|  S S S S E  S S S S S S S S S S    S S S S E S S S S S S Q
|---------------------------------|---------------------------|
|---------------------------------|---------------------------|
|---------------------------------|---------------------------|
|---------------------------------|---------------------------|
|--5h7-------10p7-----------------|--5h7-------5h7---------9--|
|------0-0-0------0-0-0-0-0-0-0-0-|------0-0-0-----0-0-0-0-7--|


   /
  +W                                +W
|---------------------------------|---------------------------|
|---------------------------------|---------------------------|
|---------------------------------|---------------------------|
|---------------------------------|---------------------------|
|---------------------------------|---------------------------|
|-(0)-----------------------------|-(0)-----------------------|
|
|  S S S S E  S S S S S S S S S S    S S S S E S S S S S S Q
|---------------------------------|---------------------------|
|---------------------------------|---------------------------|
|---------------------------------|---------------------------|
|---------------------------------|---------------------------|
|--5h7-------10p7-----------------|--5h7-------5h7---------9--|
|------0-0-0------0-0-0-0-0-0-0-0-|------0-0-0-----0-0-0-0-7--|


  +W                                +H             +Q        Q
|---------------------------------|-----------------------------------|
|---------------------------------|-----------------------------------|
|---------------------------------|-----------------------------------|
|---------------------------------|--------------------------9\-------|
|---------------------------------|--------------------------7\-------|
|-(0)-----------------------------|-(0)------------(0)----------------|
|
|  S S S S E  S S S S S S S S S S    S S S S E S S  S  S S S S  S S S
|---------------------------------|-----------------------------------|
|---------------------------------|-----------------------------------|
|---------------------------------|-----------------------------------|
|---------------------------------|-----------------------------------|
|--5h7-------10p7-----------------|--5h7-------5h7--------------------|
|------0-0-0------0-0-0-0-0-0-0-0-|------0-0-0------0--0-0-0-0--0-0-0-|


 Reprise of Introduction II
  |-----3-----|      |------3------|       |-----3-----|     |-----3-----|
  Q     Q     Q      Q     Q       Q       Q     Q     Q     Q     Q     Q
|----------------------------------------|---------------------------------|
|----------------------------------------|---------------------------------|
|-------7--------------------------7-----|-------9-------------------------|
|-5-----------5------------5-------------|-7-----------------------9-----5-|
|--------------------7-------------------|-------------7-----6-------------|
|----------------------------------------|---------------------------------|
|
| S S S   S E    S S S S S   S S S   S S   S S S   S E   S S S S S   S Q
|----------------------------------------|---------------------------------|
|----------------------------------------|---------------------------------|
|----------------------------------------|---------------------------------|
|----------------------------------------|---------------------------------|
|-5h7-----------10p7---------------------|-5h7-----------5h7-----------9---|
|-----0---0-0--------0-0-0---0-0-0---0-0-|-----0---0-0-------0-0-0---0-7---|


   ~~~~~~~~~~~~~~~~~~~~~~~~~~~~~~~~~~~~~
   W                                +H.                    Q
|---------------------------------|------------------------------|
|---------------------------------|------------------------------|
|---------------------------------|------------------------------|
|---------------------------------|------------------------------|
|-/7------------------------------|-(7)--------------------9\----|
|---------------------------------|------------------------------|
|
|  S S S S E  S S S S S S S S S S    S S S S E S S S S S S Q
|---------------------------------|------------------------------|
|---------------------------------|------------------------------|
|---------------------------------|------------------------------|
|---------------------------------|------------------------------|
|--5h7-------10p7-----------------|--5h7-------5h7---------9-----|
|------0-0-0------0-0-0-0-0-0-0-0-|------0-0-0-----0-0-0-0-7-----|


  |-----3-----|      |------3------|       |-----3-----|     |-----3-----|
  Q     Q     Q      Q     Q       Q       Q     Q     Q     Q     Q     Q
|----------------------------------------|---------------------------------|
|----------------------------------------|---------------------------------|
|-------7--------------------------7-----|-------------8-----------------7-|
|-5-----------5------------5-------------|-------4-----------------3-------|
|--------------------7-------------------|-6-----------------5-------------|
|----------------------------------------|---------------------------------|
|
| S S S   S E    S S S S S   S S S   S S   S S S   S E   S S S S S   S Q
|----------------------------------------|---------------------------------|
|----------------------------------------|---------------------------------|
|----------------------------------------|---------------------------------|
|----------------------------------------|---------------------------------|
|-5h7-----------10p7---------------------|-5h7-----------5h7-----------9---|
|-----0---0-0--------0-0-0---0-0-0---0-0-|-----0---0-0-------0-0-0---0-7---|


   ~~~~~~~~~~~~~~~~~~~~~~~~~~~~~~~~~~~~~
   W                                +H.                    Q
|---------------------------------|------------------------------|
|---------------------------------|------------------------------|
|---------------------------------|------------------------------|
|---------------------------------|------------------------------|
|-/7------------------------------|-(7)--------------------9\----|
|---------------------------------|------------------------------|
|
|  S S S S E  S S S S S S S S S S    S S S S E S S S S S S Q
|---------------------------------|------------------------------|
|---------------------------------|------------------------------|
|---------------------------------|------------------------------|
|---------------------------------|------------------------------|
|--5h7-------10p7-----------------|--5h7-------5h7---------9-----|
|------0-0-0------0-0-0-0-0-0-0-0-|------0-0-0-----0-0-0-0-7-----|


  |-----3-----|      |------3------|       |-----3-----|     |-----3-----|
  Q     Q     Q      Q     Q       Q       Q     Q     Q     Q     Q     Q
|----------------------------------------|---------------------------------|
|----------------------------------------|---------------------------------|
|-------7--------------------------7-----|-------9-------------------------|
|-5-----------5------------5-------------|-7-----------------------9-----5-|
|--------------------7-------------------|-------------7-----6-------------|
|----------------------------------------|---------------------------------|
|
| S S S   S E    S S S S S   S S S   S S   S S S   S E   S S S S S   S Q
|----------------------------------------|---------------------------------|
|----------------------------------------|---------------------------------|
|----------------------------------------|---------------------------------|
|----------------------------------------|---------------------------------|
|-5h7-----------10p7---------------------|-5h7-----------5h7-----------9---|
|-----0---0-0--------0-0-0---0-0-0---0-0-|-----0---0-0-------0-0-0---0-7---|


   ~~~~~~~~~~~~~~~~~~~~~~~~~~~~~~~~~~~~~
   W                                +H.                    Q
|---------------------------------|------------------------------|
|---------------------------------|------------------------------|
|---------------------------------|------------------------------|
|---------------------------------|------------------------------|
|-/7------------------------------|-(7)--------------------9\----|
|---------------------------------|------------------------------|
|
|  S S S S E  S S S S S S S S S S    S S S S E S S S S S S Q
|---------------------------------|------------------------------|
|---------------------------------|------------------------------|
|---------------------------------|------------------------------|
|---------------------------------|------------------------------|
|--5h7-------10p7-----------------|--5h7-------5h7---------9-----|
|------0-0-0------0-0-0-0-0-0-0-0-|------0-0-0-----0-0-0-0-7-----|


  |-----3-----|      |------3------|     |-3-| |-3-|
  Q     Q     Q      Q     Q       Q     Q Q Q Q Q Q
|--------------------------------------|-------------|
|--------------------------------------|-------------|
|-------7--------------------------7---|-----8-----7-|
|-5-----------5------------5-----------|---4-----3---|
|--------------------7-----------------|-6-----5-----|
|--------------------------------------|-------------|
|
|                                        |-3-| |-3-|
| S S S   S E    S S S S S   S S S   E   Q Q Q Q Q Q
|--------------------------------------|-------------|
|--------------------------------------|-------------|
|--------------------------------------|-----8-----7-|
|--------------------------------------|---4-----3---|
|-5h7-----------10p7-----------------5-|-6-----5-----|
|-----0---0-0--------0-0-0---0-0-0-----|-------------|


   ~~~~~~~~~~~~~~~~~~~~~~~~~~~~~~~~~~~~~
   W                                +H             E   E   Q
|---------------------------------|----------------------------|
|---------------------------------|----------------------------|
|---------------------------------|----------------------------|
|---------------------------------|----------------------------|
|-/7------------------------------|-(7)------------7-------9\--|
|---------------------------------|--------------------0---7\--|
|
|  S S S S E  S S S S S S S S S S    S S S S E S S S S S S Q
|---------------------------------|----------------------------|
|---------------------------------|----------------------------|
|---------------------------------|----------------------------|
|---------------------------------|----------------------------|
|--5h7-------10p7-----------------|--5h7-------5h7---------9---|
|------0-0-0------0-0-0-0-0-0-0-0-|------0-0-0-----0-0-0-0-7---|


  Gtrs I, II
  S S S S E  S S S S S S S S S S   S S S S E S S S S S S Q
|--------------------------------|--------------------------|
|--------------------------------|--------------------------|
|--------------------------------|--------------------------|
|--------------------------------|--------------------------|
|-5h7-------10p7-----------------|-5h7-------5h7---------9--|
|-----0-0-0------0-0-0-0-0-0-0-0-|-----0-0-0-----0-0-0-0-7--|


  S S S S E S S S S S S S S S S   S S S S E S S S S S S S S S S
|-------------------------------|-------------------------------|
|-------------------------------|-------------------------------|
|-------------------------------|-------------------------------|
|-------------------------------|-------------------------------|
|-5h7-------5h7-----------------|-5h7-------5h7-----------------|
|-----0-0-0-----0-0-0-0-0-0-0-0-|-----0-0-0-----0-0-0-0-0-0-0-0-|


  S S S S E S S S S S S S S S S   S S S S E S S S S S S E E
|-------------------------------|---------------------------|
|-------------------------------|---------------------------|
|-------------------------------|---------------------------|
|-------------------------------|---------------------------|
|-5h7-------5h7-----------------|-5h7-------5h7---------5-2-|
|-----0-0-0-----0-0-0-0-0-0-0-0-|-----0-0-0-----0-0-0-0-3-0-|


 Outro
  E E E E E E E E   E E E E E E E E
|-----------------|-----------------|
|-----------------|-----------------|
|-----------------|-----------------|
|-----------------|-----------------|
|-4-5---4-----4-5-|-----5-4-----4---|
|-2-3-0-2-0-0-2-3-|-0-0-3-2-0-0-2-0-|


  E E E E E E E E   E E E E E E E E
|-----------------|-----------------|
|-----------------|-----------------|
|-----------------|-----------------|
|-----------------|-----------------|
|-1-2---1-----1-2-|-----2-1-----1---|
|-2-3-0-2-0-0-2-3-|-0-0-3-2-0-0-2-0-|


                                       2/4
  E E E E E E E E   E E E E E E E S S   E S S Q
|-----------------|-------------------|----------*|
|-----------------|-------------------|----------*|
|-----------------|-------------------|----------*|
|-----------------|-------------------|----------*|
|-4-5---4-----4-5-|-----5-4-----4-5h6h|=7--------*|
|-2-3-0-2-0-0-2-3-|-0-0-3-2-0-0-2-----|---5h6-0--*|



Duration Legend
---------------
W - whole; H - half; Q - quarter; E - 8th; S - 16th; T - 32nd; X - 64th; a - acciaccatura
+ - note tied to previous; . - note dotted; .. - note double dotted
Uncapitalized letters represent notes that are staccato (1/2 duration)
Irregular groupings are notated above the duration line
Duration letters will always appear directly above the note/fret number it represents the
duration for.  Duration letters with no fret number below them represent rests.  Multi-
bar rests are notated in the form Wxn, where n is the number of bars to rest for.  Low
melody durations appear below the staff

Tablature Legend
----------------
 h   - hammer-on
 p   - pull-off
 b   - bend
 pb  - pre-bend
 r   - bend release (if no number after the r, then release immediately)
 /\  - slide into or out of (from/to "nowhere")
 s   - legato slide
 S   - shift slide
 - natural harmonic
[n]  - artificial harmonic
n(n) - tapped harmonic
 ~   - vibrato
 tr  - trill
 T   - tap
 TP  - trem. picking
 PM  - palm muting
\n/  - tremolo bar dip; n = amount to dip
 \n  - tremolo bar down
 n/  - tremolo bar up
/n\  - tremolo bar inverted dip
 =   - hold bend; also acts as connecting device for hammers/pulls
 <> - volume swell (louder/softer)
 x   - on rhythm slash represents muted slash
 o   - on rhythm slash represents single note slash

Misc Legend
-----------
 |  - bar
||  - double bar
||o - repeat start
o|| - repeat end
*|  - double bar (ending)
 :  - bar (freetime)
 $  - Segno
 &  - Coda
Tempo markers -  = BPM(8/16=s8/s16), where s8 = swing 8ths, s16 = swing 16ths

comments
print report bad tab
4 comments total. Showing first comments.
0 reply
DSchmitty wrote on August 27 2008, 12:47 am

THOSE ARE NOT HAMMER ONS AND PULLOFFS, stop editing other people's GOOD tabs just to get your own into the site.

0 reply
GuitarHero_jp wrote on May 16 2009, 03:45 pm

Is it just me or... IS THIS THE SAME AS ONE OF THE OTHER VERSIONS!!!???!!! Seriously all you do is copy other peoples tabs and you get ****ing credit for them! You are ranked 3rd... for doing **** all!

0 reply
andrew10134 wrote on March 26 2011, 10:03 pm

most accurate i think

I want to post or [tab]
guest
You may want to rate the tab now too:
select rating
Please do not post tabs as comments. Select "correction" instead!