Oops, an error
Loading. Please wait.

Hook In Mouth Tab

ver3
ver3

Whole song

Interactive

More versions @911Tabs.com
2,363 views 3 this week
no commentswrite comment
1 2 3 4 5
excellent!
x 3
Autoscroll
+/-
esc
set tempo
stop
Contributor
WARNING: You are trying to view
                                    content from Ultimate-Guitar.com
                                    in an unauthorized application,
                                    which is prohibited.

                                    Please use an official Ultimate
                                    Guitar Tabs application for iPhone,
                                    iPad or Android to access legitimate
                                    chords, guitar, bass, and drum tabs
                                    from Ultimate-Guitar.com database.

                                    Type "ultimate guitar tabs" in Apple
                                    App Store's or Android Market's
                                    search to find the application.
#----------------------------------PLEASE NOTE---------------------------------#
#This file is the author's own work and represents their interpretation of the #
#song. You may only use this file for private study, scholarship, or research. #
#------------------------------------------------------------------------------#

HOOK IN MOUTH
As recorded by Megadeth

Transcribed by renegadepancake
        



Gtr I (E A D G B E) - 'Mustaine'
Gtr II (E A D G B E) - 'Young'
Gtr III (E A D G B E) - 'Young Octaver'

  Q=155
 4/4
  Gtr I
  E E E E E E E E   E E E E E E E E
|-----------------|-----------------|
|-----------------|-----------------|
|-----------------|-----------------|
|-----------------|-----------------|
|---8-5-7---8-7-5-|---8-5-7---8-7-5-|
|---6-3-5---6-5-3-|---6-3-5---6-5-3-|
|
| Gtr II
| E E E E E E E E   E E E E E E E E
|-----------------|-----------------|
|-----------------|-----------------|
|-----------------|-----------------|
|-----------------|-----------------|
|---8-5-7---8-7-5-|---8-5-7---8-7-5-|
|---6-3-5---6-5-3-|---6-3-5---6-5-3-|


 Verse I
  E E H.        Wx22          E E E E E E E E
|-------------|-------------|-----------------|
|-------------|-------------|-----------------|
|-------------|-------------|-----------------|
|-------------|-------------|-----------------|
|-2-----------|-------------|---8-5-7---8-7-5-|
|-0-----------|-------------|---6-3-5---6-5-3-|
|
| E E H.        Wx22          E E E E E E E E
|-------------|-------------|-----------------|
|-------------|-------------|-----------------|
|-------------|-------------|-----------------|
|-------------|-------------|-----------------|
|-2-----------|-------------|---8-5-7---8-7-5-|
|-0-----------|-------------|---6-3-5---6-5-3-|


   Verse II
    $
        PM|     PM--|       PM------------|
    S S E E S S E E E S S   E E E E E E E E
||------------------------|-----------------|
||o-----------------------|-----------------|
||------------------------|-----------------|
||------------------------|-----------------|
||o-7s8-----5s7-------4s5-|-----------------|
||--5s6-0-0-3s5-0-0-0-2s3-|-0-0-0-0-0-0-0-0-|
|
|       PM|     PM--|       PM------------|
|   S S E E S S E E E S S   E E E E E E E E
||------------------------|-----------------|
||o-----------------------|-----------------|
||------------------------|-----------------|
||------------------------|-----------------|
||o-7s8-----5s7-------4s5-|-----------------|
||--5s6-0-0-3s5-0-0-0-2s3-|-0-0-0-0-0-0-0-0-|


      PM|     PM--|       PM
  S S E E S S E E E S S   E E E E E E E E    4x
|-----------------------|--------------------||
|-----------------------|-------------------o||
|-----------------------|--------------------||
|-----------------------|--------------------||
|-7s8-----5s7-------4s5-|---8-5-7---8-7-5---o||
|-5s6-0-0-3s5-0-0-0-2s3-|-0-6-3-5---6-5-3----||
|
|     PM|     PM--|       PM
| S S E E S S E E E S S   E E E E E E E E    4x
|-----------------------|--------------------||
|-----------------------|-------------------o||
|-----------------------|--------------------||
|-----------------------|--------------------||
|-7s8-----5s7-------4s5-|---8-5-7---8-7-5---o||
|-5s6-0-0-3s5-0-0-0-2s3-|-0-6-3-5---6-5-3----||


                       Chorus
           To Coda
                            PM----|     PM------------|
    E E E E E E E E  4x S S S S S S S S S S S S S S S S
||-------------------||---------------------------------|
||o-----------------o||---------------------------------|
||-------------------||---------------------------------|
||-------------------||---------------------------------|
||o---8-5-7---8-7-5-o||-7s8---------8s9-----------------|
||----6-3-5---6-5-3--||-5s6-0-0-0-0-6s7-0-0-0-0-0-0-0-0-|
|
|                           PM----|     PM------------|
|   E E E E E E E E  4x S S S S S S S S S S S S S S S S
||-------------------||---------------------------------|
||o-----------------o||---------------------------------|
||-------------------||---------------------------------|
||-------------------||---------------------------------|
||o---8-5-7---8-7-5-o||-7s8---------8s9-----------------|
||----6-3-5---6-5-3--||-5s6-0-0-0-0-6s7-0-0-0-0-0-0-0-0-|


       PM----|       PM------------|
  S  S S S S S  S  S S S S S S S S S   W          +W
|------------------------------------|----------|--------|
|------------------------------------|----------|--------|
|------------------------------------|-9--------|-(9)----|
|------------------------------------|-9--------|-(9)----|
|-9s10---------10s11-----------------|-7--------|-(7)----|
|-7s=8-0-0-0-0--8s=9-0-0-0-0-0-0-0-0-|----------|--------|
|
|      PM----|       PM------------|
| S  S S S S S  S  S S S S S S S S S   W          +W
|------------------------------------|----------|--------|
|------------------------------------|----------|--------|
|------------------------------------|-9--------|-(9)----|
|------------------------------------|-9--------|-(9)----|
|-9s10---------10s11-----------------|-7--------|-(7)----|
|-7s=8-0-0-0-0--8s=9-0-0-0-0-0-0-0-0-|----------|--------|


        PM----|     PM------------|
    S S S S S S S S S S S S S S S S
||----------------------------------|
||o---------------------------------|
||----------------------------------|
||----------------------------------|
||o-7s8---------8s9-----------------|
||--5s6-0-0-0-0-6s7-0-0-0-0-0-0-0-0-|
|
|       PM----|     PM------------|
|   S S S S S S S S S S S S S S S S
||----------------------------------|
||o---------------------------------|
||----------------------------------|
||----------------------------------|
||o-7s8---------8s9-----------------|
||--5s6-0-0-0-0-6s7-0-0-0-0-0-0-0-0-|


       PM----|       PM------------|
  S  S S S S S  S  S S S S S S S S S   W          +W
|------------------------------------|----------|---------||
|------------------------------------|----------|--------o||
|------------------------------------|-9--------|-(9)-----||
|------------------------------------|-9--------|-(9)-----||
|-9s10---------10s11-----------------|-7--------|-(7)----o||
|-7s=8-0-0-0-0--8s=9-0-0-0-0-0-0-0-0-|----------|---------||
|
|      PM----|       PM------------|
| S  S S S S S  S  S S S S S S S S S   W          +W
|------------------------------------|----------|---------||
|------------------------------------|----------|--------o||
|------------------------------------|-9--------|-(9)-----||
|------------------------------------|-9--------|-(9)-----||
|-9s10---------10s11-----------------|-7--------|-(7)----o||
|-7s=8-0-0-0-0--8s=9-0-0-0-0-0-0-0-0-|----------|---------||


      PM----|     PM------------|        PM----|       PM------------|
  S S S S S S S S S S S S S S S S   S  S S S S S  S  S S S S S S S S S
|---------------------------------|--------------------------------------|
|---------------------------------|--------------------------------------|
|---------------------------------|--------------------------------------|
|---------------------------------|--------------------------------------|
|-7s8---------8s9-----------------|-9s10---------10s11-------------------|
|-5s6-0-0-0-0-6s7-0-0-0-0-0-0-0-0-|-7s=8-0-0-0-0--8s=9-0-0-0-0-0-0-0-0---|
|
|     PM----|     PM------------|        PM----|       PM------------|
| S S S S S S S S S S S S S S S S   S  S S S S S  S  S S S S S S S S S
|---------------------------------|--------------------------------------|
|---------------------------------|--------------------------------------|
|---------------------------------|--------------------------------------|
|---------------------------------|--------------------------------------|
|-7s8---------8s9-----------------|-9s10---------10s11-------------------|
|-5s6-0-0-0-0-6s7-0-0-0-0-0-0-0-0-|-7s=8-0-0-0-0--8s=9-0-0-0-0-0-0-0-0---|


                    2/4         4/4
                           PM|
  E E E E E  E E E   E E E S S   W          +W
|------------------|-----------|----------|--------|
|------------------|-----------|----------|--------|
|------------------|-----------|----------|--------|
|-9-9---9----------|-----------|----------|--------|
|-7-7---7---10---9-|---5-------|-3--------|-(3)----|
|------------8---7-|---3---0-0-|-1--------|-(1)----|
|
|                          PM|
| E E E E E  E E E   E E E S S   W          +W
|------------------|-----------|----------|--------|
|------------------|-----------|----------|--------|
|------------------|-----------|----------|--------|
|-9-9---9----------|-----------|----------|--------|
|-7-7---7---10---9-|---5-------|-3--------|-(3)----|
|------------8---7-|---3---0-0-|-1--------|-(1)----|


   Solo 1 - Young
    PM--------------|
    E    S S  S S S S  S S  S S  S S S  S
||----------------------------------------|
||o---------------------------------------|
||----------------------------------------|
||----------------------------------------|
||o-------------------------0h1h=2-2h3--3-|
||--0----0-0--3p0-0-0--0h3----------------|
|
|   Gtrs II, III
|   S S  S S  S S S S  S S  S S  S S S  S
||----------------------------------------|
||o---------------------------------------|
||----------------------------------------|
||-----------------------7----------------|
||o-7-9-10-9-10-9-7-9-10---10-9-10-9-7----|
||-------------------------------------10-|


  PM--------------|
  E    S S  S S S S S S  S S S  E.
|--------------------------------------|
|--------------------------------------|
|--------------------------------------|
|--------------------------------------|
|------------------------0h1p0--3------|
|-0----0-0--3p0-0-0-0h3---------1------|
|
| S S  S S  S S S S S S  S S S  S  S  S
|--------------------------------------|
|--------------------------------------|
|-------------------7------------------|
|-----------------9---9-10-7-9---------|
|-7-9-10-9-10-9-7--------------10--9---|
|------------------------------------10|


  PM--------------|
  E    S S  S S S S  S S  S S  S S S  S
|---------------------------------------|
|---------------------------------------|
|---------------------------------------|
|---------------------------------------|
|-------------------------0h1h=2-2h3--3-|
|-0----0-0--3p0-0-0--0h3----------------|
|
| S S  S S  S S S S  S S  S S  S S S  S
|---------------------------------------|
|---------------------------------------|
|---------------------------------------|
|----------------------7----------------|
|-7-9-10-9-10-9-7-9-10---10-9-10-9-7----|
|------------------------------------10-|


  PM--------------|
  E    S S S  S S  S  S  S  S  S  S  E.
|--------------------------------------------|
|--------------------------------------------|
|--------------------------------------------|
|--------------------------------------------|
|---------------------------0h=1p=0--3-------|
|-0----0-0-3p=0-0--0--0h=3-----------1-------|
|
| S S  S S S  S S  S  S  S  S  S  S  S  S  S
|--------------------------------------------|
|-----------------------10-------------------|
|---------------9-11-12----12-11-12-11--9----|
|--------7-9-10---------------------------12-|
|-7-9-10-------------------------------------|
|--------------------------------------------|


  PM-----------------|
  E     S  S  S  S S  S  S  S  S  S  S  S S  S
|----------------------------------------------|
|----------------------------------------------|
|----------------------------------------------|
|----------------------------------------------|
|------------------------------0h=1h=2--2h3--3-|
|-0-----0--0--3p=0-0--0--0h=3------------------|
|
| S  S  S  S  S  S S  S  S  S  S  S  S  S S  S
|----------------------------------------------|
|--------------------------10------------------|
|-9-11-12-11-12-11-9-11-12----12-11-12-11-9-11-|
|----------------------------------------------|
|----------------------------------------------|
|----------------------------------------------|


   PM------------------|
   E     S  S  S  S  S  S  S  S  S S  S  E.
|-----------------------------------------------|
|-----------------------------------------------|
|-----------------------------------------------|
|-----------------------------------------------|
|--------------------------------0h1p=0--3------|
|--0-----0--0--3p=0--0--0--0h=3----------1------|
|
|  S  S  S  S  S  S  S  S  S  S  E    S  S   E
|-------10--------------------------------------|
|-12-13----13-12-10-13-12-10----12---10---------|
|----------------------------12---------12--11--|
|-----------------------------------------------|
|-----------------------------------------------|
|-----------------------------------------------|


   PM--------------------|
   E    S  S     S  S  S  S S  S     S  S  S     S  S S
|-------------------------------------------------------|
|-------------------------------------------------------|
|-------------------------------------------------------|
|-------------------------------------------------------|
|------------------------------------0h=1h=2-----2h=3-3-|
|--0----0--0-----3p=0--0--0-0h=3------------------------|
|
|  S  S S  T  T  S  S  S  S S  T  T  S  S  T  T  S  S S
|-------------------------------------------------------|
|--------------------------------------10---------------|
|-12-11-9-11h12-12-11-12-11-9-11h12-12----12-11-12-11-9-|
|-------------------------------------------------------|
|-------------------------------------------------------|
|-------------------------------------------------------|


   PM-------------------|
   E        S  S  S S S S S S S   S  S E.
|-----------------------------------------------|
|-----------------------------------------------|
|-----------------------------------------------|
|-----------------------------------------------|
|-----------------------------0h==1p=0-3--------|
|--0--------0--0--3p0-0-0-0h3----------1--------|
|
|  T  T  S  S  S  S S S S S S T T S  S S  S  S
|-----------------------------------------------|
|-----------------------------------------------|
|-11h12-12-11-12-11-9-8-9-8---------------------|
|---------------------------9-7h9-7-------------|
|-----------------------------------10-9--7-----|
|-------------------------------------------10--|


 Solo 2 - Mustaine
  Gtr I
   T        T        T        T        T            T
                                       |--------3---------|
   S  S  S  S  S  S  S  S  S  S  S  S  S    S    S  S  S  S
|-19p12p10-20p15p10-19p12p10-20p15p10-19p==12p==10-20p15p10-|
|-----------------------------------------------------------|
|-----------------------------------------------------------|
|-----------------------------------------------------------|
|-----------------------------------------------------------|
|-----------------------------------------------------------|
|
| Gtr II
|  PM-----------------------------------------|
|  E     S  S  S  S  S  S  S  S  E     S      S     E
|-----------------------------------------------------------|
|-----------------------------------------------------------|
|-----------------------------------------------------------|
|-----------------------------------------------------------|
|---------------------------------------------------3-------|
|--0-----0--0--3p=0--0--0--0--3--5-----0------3-----1-------|
|
| Gtrs II, III
|  ~~~~~~~~~~~~~~~~~~~~~~~~~~~~~~~~~~~~~~~~
|  H.                                 +E            E
|-----------------------------------------------------------|
|-----------------------------------------------------------|
|-----------------------------------------------------------|
|-----------------------------------------------------------|
|--7----------------------------------(7)\------------------|
|-----------------------------------------------------------|


   T       T       T       T       T         T
                                   |------3-------|
   S  S S  S  S S  S  S S  S  S S  S  S   S  S  S S
|-18p12p9-19p14p9-18p12p9-19p14p9-18p12p==9-19p14p9-|
|---------------------------------------------------|
|---------------------------------------------------|
|---------------------------------------------------|
|---------------------------------------------------|
|---------------------------------------------------|
|
|  PM-----------------------------------|
|  E    S  S  S S  S  S S  S  E    S    S    E
|---------------------------------------------------|
|---------------------------------------------------|
|---------------------------------------------------|
|---------------------------------------------------|
|--------------------------------------------3------|
|--0----0--0--3p0--0--0-0--3--5----0----3----1------|
|
|  W
|---------------------------------------------------|
|---------------------------------------------------|
|---------------------------------------------------|
|---------------------------------------------------|
|---------------------------------------------------|
|---------------------------------------------------|


   T       T       T       T       T         T
                                   |------3-------|
   S  S S  S  S S  S  S S  S  S S  S  S   S  S  S S
|-17p10p8-18p13p8-17p10p8-18p13p8-17p10p==8-18p13p8-|
|---------------------------------------------------|
|---------------------------------------------------|
|---------------------------------------------------|
|---------------------------------------------------|
|---------------------------------------------------|
|
|  PM-----------------------------------|
|  E    S  S  S S  S  S S  S  E    S    S    E
|---------------------------------------------------|
|---------------------------------------------------|
|---------------------------------------------------|
|---------------------------------------------------|
|--------------------------------------------3------|
|--0----0--0--3p0--0--0-0--3--5----0----3----1------|


   T       T       T       T       T         T
                                   |------3-------|
   S  S S  S  S S  S  S S  S  S S  S  S   S  S  S S
|-16p10p7-17p12p7-16p10p7-17p12p7-16p10p==7-17p12p7-|
|---------------------------------------------------|
|---------------------------------------------------|
|---------------------------------------------------|
|---------------------------------------------------|
|---------------------------------------------------|
|
|  PM-----------------------------------|
|  E    S  S  S S  S  S S  S  E    S    S    E
|---------------------------------------------------|
|---------------------------------------------------|
|---------------------------------------------------|
|---------------------------------------------------|
|--------------------------------------------3------|
|--0----0--0--3p0--0--0-0--3--5----0----3----1------|


   T      T       T      T       T        T
                                 |------3------|
   S S S  S  S S  S S S  S  S S  S S   S  S  S S
|-15p8p6-16p11p6-15p8p6-16p11p6-15p8p==6-16p11p6-|
|------------------------------------------------|
|------------------------------------------------|
|------------------------------------------------|
|------------------------------------------------|
|------------------------------------------------|
|
|  PM--------------------------------|
|  E   S  S  S S  S S S  S  E    S   S    E
|------------------------------------------------|
|------------------------------------------------|
|------------------------------------------------|
|------------------------------------------------|
|-----------------------------------------3------|
|--0---0--0--3p0--0-0-0--3--5----0---3----1------|


   T      T       T      T       T        T
                                 |------3------|
   S S S  S  S S  S S S  S  S S  S S   S  S  S S
|-14p8p5-15p10p5-14p8p5-15p10p5-14p8p==5-15p10p5-|
|------------------------------------------------|
|------------------------------------------------|
|------------------------------------------------|
|------------------------------------------------|
|------------------------------------------------|
|
|  PM--------------------------------|
|  E   S  S  S S  S S S  S  E    S   S    E
|------------------------------------------------|
|------------------------------------------------|
|------------------------------------------------|
|------------------------------------------------|
|-----------------------------------------3------|
|--0---0--0--3p0--0-0-0--3--5----0---3----1------|


   T      T      T      T      T        T
                               |-----3------|
   S S S  S S S  S S S  S S S  S S   S  S S S
|-13p6p4-14p9p4-13p6p4-14p9p4-13p6p==4-14p9p4-|
|---------------------------------------------|
|---------------------------------------------|
|---------------------------------------------|
|---------------------------------------------|
|---------------------------------------------|
|
|  PM------------------------------|
|  E   S  S S S  S S S  S E    S   S    E
|---------------------------------------------|
|---------------------------------------------|
|---------------------------------------------|
|---------------------------------------------|
|---------------------------------------3-----|
|--0---0--0-3p0--0-0-0--3-5----0---3----1-----|


   T      T      T      T      T        T
                               |-----3------|
   S S S  S S S  S S S  S S S  S S   S  S S S
|-12p6p3-13p8p3-12p6p3-13p8p3-12p6p==3-13p8p3-|
|---------------------------------------------|
|---------------------------------------------|
|---------------------------------------------|
|---------------------------------------------|
|---------------------------------------------|
|
|  PM------------------------------|
|  E   S  S S S  S S S  S E    S   S    E
|---------------------------------------------|
|---------------------------------------------|
|---------------------------------------------|
|---------------------------------------------|
|---------------------------------------3-----|
|--0---0--0-3p0--0-0-0--3-5----0---3----1-----|


 Chorus
                                           PM|     PM|     PM|
   W           W          W          +Q.   S S S S S S S S S S
|-----------|-----------|----------|----------------------------|
|-----------|-----------|----------|----------------------------|
|-----------|-----------|----------|----------------------------|
|-12--------|-10--------|-9--------|-(9)------------------------|
|-10--------|--8--------|-7--------|-(7)-------5h7-----8p7------|
|-----------|-----------|----------|-------0-0-----0-0-----0-0--|
|
|                                          PM|     PM|     PM|
|  W           W          W          +Q.   S S S S S S S S S S
|-----------|-----------|----------|----------------------------|
|-----------|-----------|----------|----------------------------|
|-----------|-----------|----------|----------------------------|
|-12--------|-10--------|-9--------|-(9)------------------------|
|-10--------|--8--------|-7--------|-(7)-------5h7-----8p7------|
|-----------|-----------|----------|-------0-0-----0-0-----0-0--|


   W           H    Q   Q    W          E  E E E E E E E
|-----------|--------------|----------|------------------|
|-----------|--------------|----------|------------------|
|-----------|--------------|----------|------------------|
|-12--------|-10-------10--|-9--------|-9----------------|
|-10--------|--8----5---8--|-7--------|-7-10---9---5-----|
|-----------|-------3------|----------|----8---7---3---0-|
|
|  W           H    Q   Q    W          E  E E E E E E E
|-----------|--------------|----------|------------------|
|-----------|--------------|----------|------------------|
|-----------|--------------|----------|------------------|
|-12--------|-10-------10--|-9--------|-9----------------|
|-10--------|--8----5---8--|-7--------|-7-10---9---5-----|
|-----------|-------3------|----------|----8---7---3---0-|


                                           PM|     PM|     PM|
   W           W          W          +Q.   S S S S S S S S S S
|-----------|-----------|----------|----------------------------|
|-----------|-----------|----------|----------------------------|
|-----------|-----------|----------|----------------------------|
|-12--------|-10--------|-9--------|-(9)------------------------|
|-10--------|--8--------|-7--------|-(7)-------5h7-----8p7------|
|-----------|-----------|----------|-------0-0-----0-0-----0-0--|
|
|                                          PM|     PM|     PM|
|  W           W          W          +Q.   S S S S S S S S S S
|-----------|-----------|----------|----------------------------|
|-----------|-----------|----------|----------------------------|
|-----------|-----------|----------|----------------------------|
|-12--------|-10--------|-9--------|-(9)------------------------|
|-10--------|--8--------|-7--------|-(7)-------5h7-----8p7------|
|-----------|-----------|----------|-------0-0-----0-0-----0-0--|


   W           H    Q   Q    E E E E E  E E E
|-----------|--------------|------------------|
|-----------|--------------|------------------|
|-----------|--------------|------------------|
|-12--------|-10-------10--|-9-9---9----------|
|-10--------|--8----5---8--|-7-7---7---10---9-|
|-----------|-------3------|------------8---7-|
|
|  W           H    Q   Q    E E E E E  E E E
|-----------|--------------|------------------|
|-----------|--------------|------------------|
|-----------|--------------|------------------|
|-12--------|-10-------10--|-9-9---9----------|
|-10--------|--8----5---8--|-7-7---7---10---9-|
|-----------|-------3------|------------8---7-|


 2/4         4/4
        PM|
  E E E S S   W          +W
|-----------|----------|---------||
|-----------|----------|--------o||
|-----------|----------|---------||
|-----------|----------|---------||
|---5-------|-3--------|-(3)----o||
|---3---0-0-|-1--------|-(1)-----||
|
|       PM|
| E E E S S   W          +W
|-----------|----------|---------||
|-----------|----------|--------o||
|-----------|----------|---------||
|-----------|----------|---------||
|---5-------|-3--------|-(3)----o||
|---3---0-0-|-1--------|-(1)-----||


 Verse III
                 D.S. al Coda    &
                                2/4
  Wx7          E E E E E E E E   H
|------------|-----------------|------*|
|------------|-----------------|------*|
|------------|-----------------|------*|
|------------|-----------------|------*|
|------------|---8-5-7---8-7-5-|-2----*|
|------------|---6-3-5---6-5-3-|-0----*|
|
| Wx7          E E E E E E E E   H
|------------|-----------------|------*|
|------------|-----------------|------*|
|------------|-----------------|------*|
|------------|-----------------|------*|
|------------|---8-5-7---8-7-5-|-2----*|
|------------|---6-3-5---6-5-3-|-0----*|



Duration Legend
---------------
W - whole; H - half; Q - quarter; E - 8th; S - 16th; T - 32nd; X - 64th; a - acciaccatura
+ - note tied to previous; . - note dotted; .. - note double dotted
Uncapitalized letters represent notes that are staccato (1/2 duration)
Irregular groupings are notated above the duration line
Duration letters will always appear directly above the note/fret number it represents the
duration for.  Duration letters with no fret number below them represent rests.  Multi-
bar rests are notated in the form Wxn, where n is the number of bars to rest for.  Low
melody durations appear below the staff

Tablature Legend
----------------
 h   - hammer-on
 p   - pull-off
 b   - bend
 pb  - pre-bend
 r   - bend release (if no number after the r, then release immediately)
 /\  - slide into or out of (from/to "nowhere")
 s   - legato slide
 S   - shift slide
<n> - natural harmonic
[n]  - artificial harmonic
n(n) - tapped harmonic
 ~   - vibrato
 tr  - trill
 T   - tap
 TP  - trem. picking
 PM  - palm muting
\n/  - tremolo bar dip; n = amount to dip
 \n  - tremolo bar down
 n/  - tremolo bar up
/n\  - tremolo bar inverted dip
 =   - hold bend; also acts as connecting device for hammers/pulls
 <> - volume swell (louder/softer)
 x   - on rhythm slash represents muted slash
 o   - on rhythm slash represents single note slash

Misc Legend
-----------
 |  - bar
||  - double bar
||o - repeat start
o|| - repeat end
*|  - double bar (ending)
 :  - bar (freetime)
 $  - Segno
 &  - Coda
Tempo markers - <E/E./Q/Q./H/H.> = BPM(8/16=s8/s16), where s8 = swing 8ths, s16 = swing 16ths

comments
We did not receive enough feedback on this tab! Please rate:
print report bad tab
1 2 3 4 5
I want to post or [tab]
guest
You may want to rate the tab now too:
select rating
Please do not post tabs as comments. Select "correction" instead!