Oops, an error
Loading. Please wait.

In My Darkest Hour Bass Tab

ver1
ver1

Whole song

More versions @911Tabs.com
4,616 views 1 this week
no commentswrite comment
1 2 3 4 5
worth learning
x 2
Autoscroll
+/-
esc
set tempo
stop
Hey! There's an official Ultimate Guitar app which is ideal
for learning songs when you're away from computer. Get the app
WARNING: You are trying to view
                                    content from Ultimate-Guitar.com
                                    in an unauthorized application,
                                    which is prohibited.

                                    Please use an official Ultimate
                                    Guitar Tabs application for iPhone,
                                    iPad or Android to access legitimate
                                    chords, guitar, bass, and drum tabs
                                    from Ultimate-Guitar.com database.

                                    Type "ultimate guitar tabs" in Apple
                                    App Store's or Android Market's
                                    search to find the application.
	In My Darkest Hour by Megadeth                               
	Transcribed by Vinicius Neves (basstabs@zipmail.com.br)
	Some corrections by Antonio Proença (mib@bridge.com.br)
	ONLY BASS TABS - http://basstabs.cjb.net


                                                                        
G||--------------------|--------------------|------------------------------------|
D||*-------------------|--------------------|------4-----------------------4-----|
A||*-------------------|--------------------|----5---5-7-5---------------5---5---|
E||---0----------------|--------------3--2--|-0------------7-5-3-2-3-5-7---------|(2X)


                                                                          
|--------------------|-----------------------|
|--------------------|-------------2h4-2-----|
|-----------------2--|--3-----------------3--|
|--0-----------------|-----------------------|


                                                                     
-------------------|----------------|
-------------------|----------------|
--4-------------4--|--3-------------|
-------------------|-----7-5-3-2-0--|

                                                                         
-----------------------|-------------2h4-2-----|------------------------|
-------------2h4-2-----|--------------------4--|------------------------|
2--3-----------------3-|--4--------------------|--3---------------------|
-----------------------|-----------------------|--------7-5-3-2-0-------|


                                                                        
-----------------------|-----------------------|
-----------------------|-----------------------|
-----------------------|-------------7-5-3-2---|
-7-5-3-2-1---7-5-3-2-0-|-7-5-3-2-1-----------0-|


                                                       
---------------|
---------------|
---------------|
----0--0--0----|(8X)


                                                                           
|--------------------------------||
|*-----3-2-1-0------------------*||
|*-------------4-3-2-1-0--------*||
|--0-3-------------------4-3-2-0-||(4X)


                                 
|-------------------------------|2X
|*------------------------------|
|*----------------2--3--3-3-3---|
|---0----0--0--0----------------|


                                                     (2X)                    
----------------------------------------||------------------------------|
----------------------------------------||----------------5-4-2h-4-2----|
----------------5--5-5-5----2--2-2-2---2||-----------2-3-3-3--------3---|
--0----0--0--0-----------------------3--||--0--0-0-0------------------0-|


                                                                
|-----------------4---2--------4--2-------------------------------------------------|
|*----------------------2-4-2------2-4-2--------------------------------------------|
|*--0--0-0-0--3-2---2--------0-----------5-5-5-5-5-5-5-5-5-5-5-5-5-5-5-5-5-5-5-1-0--|
|---------|------------------------------------------------------------------------0|


                                                              
------------------------------------------|
------------------------------------------|
---------2-3--3-3-3-3-4--4-4-4--4-3--3-3-3|
--0-0-0-----------------------------------|
 

------------------------------|------------------------------|
------------------------------|------------------------4-----|
------------------------7--6--|--5-------------5----------5--|
--0----0--0--0--0----0--------|-------0--0--0-------0--------|


                                                                
------------------------------|-------------------------------||
------------------------------|------------------------------*||
--2-------------2-------------|----------0--1--2-------------*||
-------0--0--0-------0--0--2--|--3----0-------------0--3--2---||


                                                                       
-------------------------------|-------------------------------------||
*------------------------------|----------------5-----4--2h4p2p0----*||
*------------------------0--2--|--3----------3-----3-------------4--*||
---0----0--0--0--0----0--------|-------0--0--------------------------||


                                                                   
------------------------------|----------------4-----2--0h2p0-----|
------------------------------|--------------------------------4--|
--0----0--0--0--0----0--3--0--|--2----0--0--2-----2---------------|
------------------------------|-----------------------------------|


                                                                           
----------------4-----2--0h2p0-----|--------------------------------------|
--------------------------------4--|--------------------------------------|
--0----0--0--0-----0---------------|--5--5--5--5--5--5--5--5--5--5--5--5--|
-----------------------------------|--------------------------------------|


                                                                   
-----------------------------------|------------------------------|
-----------------------------------|------------------------------|
--5--5--5--5--5--5--5----1----0----|---------------------------2--|
-----------------------------------|--0----0--0--0--0----0--0-----|


                                                              
------------------------------|------------------------------|
------------------------------|------------------------------|
--3-------------3----------3--|--4-------------4----------4--|
-------0--0--0-------0--0-----|-------0--0--0-------0--0-----|


                                                              
------------------------------|------------------------------|
------------------------------|------------------------------|
--3-------------3-------2-----|---------------------------2--|
-------0--0--0-------0-----3--|--0----0--0--0--0----0--0-----|


                                                              
------------------------------|------------------------------|
------------------------------|------------------------------|
--3-------------3----------3--|--4-------------4----------4--|
-------0--0--0-------0--0-----|-------0--0--0-------0--0-----|


                                                                          
------------------------------||-----------------------------------------|
------------------------------||*----------------------------------------|
--3-------------3-------2-----||*---------------------5------------------|
-------0--0--0-------0-----3--||---0--0-0-0--3--5--6-----6--5--0--0-0-0--|


                                    3x                               
------------------------------------||------------------------------|
-----------------------------------*||------------------------------|
-----------5-----------------------*||---------------------------2--|
--3--5--6-----6--5--6----5----3-----||--0----0--0--0--0----0--0-----|


                                                              
------------------------------|------------------------------|
------------------------------|------------------------------|
--3-------------3----------3--|--4-------------4----------4--|
-------0--0--0-------0--0-----|-------0--0--0-------0--0-----|


                                                              
------------------------------|------------------------------|
------------------------------|------------------------------|
--3-------------3-------2-----|---------------------------2--|
-------0--0--0-------0-----3--|--0----0--0--0--0----0--0-----|


                                                              
------------------------------|------------------------------|
------------------------------|------------------------------|
--3-------------3----------3--|--4-------------4----------4--|
-------0--0--0-------0--0-----|-------0--0--0-------0--0-----|


                                                                
------------------------------||-------------------------------|
------------------------------||*------------------------------|
--3-------------3-------2-----||*---------------------------2--|
-------0--0--0-------0-----3--||---0----0--0--0--0----0--0-----|


                                                              
------------------------------|------------------------------|
------------------------------|------------------------------|
--3-------------3----------3--|--4-------------4----------4--|
-------0--0--0-------0--0-----|-------0--0--0-------0--0-----|


                                                        
-------------------------------||----------------------|
------------------------------*||----------------------|
--3-------------3-------2-----*||-------------------2--|
-------0--0--0-------0-----3---||--0-------------------|


                                                                      
----------------------------------|----------------------------------|
--------------5-----4--2h4p2p0----|----------------------------------|
--3--------3-----3-------------4--|-------------------------------2--|
----------------------------------|--0----0--0--0--0--0--0--0--0-----|


                                                            
------------------------------------|----------------------|
----------------5-----4--2h4p2p0----|----------------------|
--3----3--3--3-----3-------------4--|-------------------2--|
------------------------------------|--0-------------------|


                                                                          
----------------------------------|--------------------------------------|
--------------5-----4--2h4p2p0----|--------------------------------------|
--3--------3-----3-------------4--|--4--4--4--4--4--4--4--4--4--4--4--5--|
----------------------------------|--------------------------------------|


                                                                               
--------------------------------------|---------------------------------------|
--------------------------------------|---------------------------------------|
--5--5--5--5--5--5--5--5--5--5--5--5--|--5--5--5--5--5--5--5----1----0--------|
--------------------------------------|------------------------------------0--|


                                                                 
|---------------------|--------------------|--------------------|
|*--------------------|--------------------|--------------------|
|*--------------------|--------------------|--------------------|
|-----0------------1--|----1------------2--|----2------------3--|


                                                                           
---------------------||-------------------------|-------------------------|
--------------------*||-------------------------|-------------------------|
--------------------*||-------------------------|-------------------------|
----3------------0---||----0--0--0--0--0--0--1--|----1--1--1--1--1--1--2--|


                                                                              
-------------------------|-------------------------|-------------------------|
-------------------------|-------------------------|-------------------------|
-------------------------|-------------------------|-------------------------|
----2--2--2--2--2--2--3--|----3--3--3--3--3--3--0--|----0--0--0--0--0--0--1--|


                                                                              
-------------------------|-------------------------|-------------------------|
-------------------------|-------------------------|-------------------------|
-------------------------|-------------------------|-------------------------|
----1--1--1--1--1--1--2--|----2--2--2--2--2--2--3--|----3--3--3--3--3--3--0--|


                                                                              
-------------------------|-------------------------|-------------------------|
-------------------------|-------------------------|-------------------------|
-------------------------|-------------------------|-------------------------|
----0--0--0--0--0--0--1--|----1--1--1--1--1--1--2--|----2--2--2--2--2--2--3--|


                                                                              
-------------------------|-------------------------|-------------------------|
-------------------------|-------------------------|-------------------------|
-------------------------|-------------------------|-------------------------|
----3--3--3--3--3--3--0--|----0--0--0--0--0--0--1--|----1--1--1--1--1--1--2--|


                                                                             
-------------------------|-------------------------|------------------------|
-------------------------|-------------------------|------------------------|
-------------------------|-------------------------|----------------2----3--|
----2--2--2--2--2--2--3--|----3--3--3--3--3--3--0--|----0--0--0--0----------|


                                                                              
-------------------------|-------------------------|-------------------------|
-------------------------|-------------------------|-------------------------|
----3--3--3--3--2--1--0--|----0--0--0--0--3--0--2--|----2--2--2--3--5h-6--7--|
-------------------------|-------------------------|-------------------------|


                                                                              
-------------------------|-------------------------|-------------------------|
-------------------------|-------------------------|-------------------------|
----7--7--7--7--6--5--3--|----3--3--3--3--2--1--0--|----0--0--0--0--3--0--2--|
-------------------------|-------------------------|-------------------------|


                                                                             
-------------------------|------------------------|-------------------------|
-------------------------|------------------------|-------------------------|
----0--2--0--2--2--0-----|----------------2----3--|----3--3--3--3--2--1--0--|
----------------------0--|----0--0--0--0----------|-------------------------|


                                                                              
-------------------------|-------------------------|-------------------------|
-------------------------|-------------------------|-------------------------|
----0--0--0--0--3--0--2--|----2--2--2--3--5h-6--7--|----7--7--7--7--6--5--3--|
-------------------------|-------------------------|-------------------------|


                                                                              
-------------------------|-------------------------|-------------------------|
-------------------------|-------------------------|-------------------------|
----3--3--3--3--2--1--0--|----0--0--0--0--3--0--2--|----0--2--0--2--2--0-----|
-------------------------|-------------------------|----------------------0--|


                                                                             
------------------------|-------------------------|-------------------------|
------------------------|-------------------------|-------------------------|
----------------2----3--|----3--3--3--3--2--1--0--|----0--0--0--0--3--0--2--|
----0--0--0--0----------|-------------------------|-------------------------|


                                                                              
-------------------------|-------------------------|-------------------------|
-------------------------|-------------------------|-------------------------|
----2--2--2--3--5h-6--7--|----7--7--7--7--6--5--3--|----3--3--3--3--2--1--0--|
-------------------------|-------------------------|-------------------------|


                                                                             
-------------------------|-------------------------|------------------------|
-------------------------|-------------------------|------------------------|
----0--0--0--0--3--0--2--|----0--2--0--2--2--0-----|----------------2----3--|
-------------------------|----------------------0--|----0--0--0--0----------|


                                                                              
-------------------------|-------------------------|-------------------------|
-------------------------|-------------------------|-------------------------|
----3--3--3--3--2--1--0--|----0--0--0--0--3--0--2--|----2--2--2--3--5h-6--7--|
-------------------------|-------------------------|-------------------------|


                                                                              
-------------------------|-------------------------|-------------------------|
-------------------------|-------------------------|-------------------------|
----7--7--7--7--6--5--3--|----3--3--3--3--2--1--0--|----0--0--0--0--3--0--2--|
-------------------------|-------------------------|-------------------------|


                                                                              
-------------------------|-------------------------|-------------------------|
-------------------------|-------------------------|-------------------------|
----0--2--0--2--1--0--0--|----0--0--0--0--0--0--1--|----0--0--0--0--0--0--3--|
-------------------------|-------------------------|-------------------------|


                                                                             
-------------------------|------------------------|-------------------------|
-------------------------|------------------------|-------------------------|
----0--0--0--0--0--0--8--|----0--0--7----0--0--0--|----0--0--0--0--0--0--1--|
-------------------------|------------------------|-------------------------|


                                                                             
-------------------------|-------------------------|------------------------|
-------------------------|-------------------------|------------------------|
----0--0--0--0--0--0--3--|----0--0--0--0--0--0--8--|----0--0--7----0--0--0--|
-------------------------|-------------------------|------------------------|


                                                                              
-------------------------|-------------------------|-------------------------|
-------------------------|-------------------------|-------------------------|
----0--0--0--0--0--0--1--|----0--0--0--0--0--0--3--|----0--0--0--0--0--0--8--|
-------------------------|-------------------------|-------------------------|


                                                                             
------------------------|-------------------------|-------------------------|
------------------------|-------------------------|-------------------------|
----0--0--7----0--0--0--|----0--0--0--0--0--0--1--|----0--0--0--0--0--0--3--|
------------------------|-------------------------|-------------------------|


                                                                             
-------------------------|------------------------|-------------------------|
-------------------------|------------------------|-------------------------|
----0--0--0--0--0--0--8--|----0--0--7----0--0--0--|----0--0--0--0--0--0--1--|
-------------------------|------------------------|-------------------------|


                                                                             
-------------------------|-------------------------|------------------------|
-------------------------|-------------------------|------------------------|
----0--0--0--0--0--0--3--|----0--0--0--0--0--0--8--|----0--0--7----0--0--0--|
-------------------------|-------------------------|------------------------|


                                                                              
-------------------------|-------------------------|-------------------------|
-------------------------|-------------------------|-------------------------|
----0--0--0--0--0--0--1--|----0--0--0--0--0--0--3--|----0--0--0--0--0--0--8--|
-------------------------|-------------------------|-------------------------|


                                                                             
------------------------|-------------------------|-------------------------|
------------------------|-------------------------|-------------------------|
----0--0--7----0--0--0--|----0--0--0--0--0--0--1--|----0--0--0--0--0--0--3--|
------------------------|-------------------------|-------------------------|


                                                                             
-------------------------|------------------------|-------------------------|
-------------------------|------------------------|-------------------------|
----0--0--0--0--0--0--8--|----0--0--7----0--0--0--|----0--0--0--0--0--0--1--|
-------------------------|------------------------|-------------------------|


                                                                             
-------------------------|-------------------------|------------------------|
-------------------------|-------------------------|------------------------|
----0--0--0--0--0--0--3--|----0--0--0--0--0--0--8--|----0--0--7----0--0-----|
-------------------------|-------------------------|---------------------0--|


                                                                                
|--------------------------|-------------------------|-------------------------|
|*-------------------------|-------------------------|-------------------------|
|*-------------------------|-------------------------|-------------------------|
|-----0--0--0--0--0--0--1--|----1--1--1--1--1--1--2--|----2--2--2--2--2--2--3--|


                                                                                
--------------------------||-------------------------|-------------------------|
-------------------------*||-------------------------|-------------------------|
-------------------------*||-------------------------|-------------------------|
----3--3--3--3--3--3--0---||----0--0--0--0--0--0--1--|----1--1--1--1--1--1--2--|


                                                                              
-------------------------|-------------------------|-------------------------|
-------------------------|-------------------------|-------------------------|
-------------------------|-------------------------|-------------------------|
----2--2--2--2--2--2--3--|----3--3--3--3--3--3--4--|----4--4--4--4--4--4--5--|


                                                                              
-------------------------|-------------------------|-------------------------|
-------------------------|-------------------------|-------------------------|
-------------------------|-------------------------|-------------------0-----|
----5--5--5--5--5--5--6--|----6--6--6--6--6--6--7--|----7--7--7--7--3-----0--|


                                                                      
|--------------------|--------------------|--------------------------|
|*-------------------|--------------------|--2--0--4--0--2--0--------|
|*-------------------|--------------------|--------------------2--0--|
|---0----------------|--------------0--0--|--------------------------|


                           2x                                       
---------------------------||-------------------|------------------|
-----------------0--4--0--*||-------------------|------------------|
-----------0--2-----------*||-------------------|------------------|
--3--2--3------------------||--0----------------|------------------|


                     
-------------------||
-------------------||
-------------------||
--0----------------||
comments
We did not receive enough feedback on this tab! Please rate:
print report bad tab
1 2 3 4 5
I want to post or [tab]
guest
You may want to rate the tab now too:
select rating
Please do not post tabs as comments. Select "correction" instead!