Oops, an error
Loading. Please wait.

Killing Is My Business And Business Is Good Tab

ver2
ver2

Album

Whole song

More versions @911Tabs.com
3,375 views 21 this week
no commentswrite comment
1 2 3 4 5
excellent!
x 1
Autoscroll
+/-
esc
set tempo
stop
Contributor
Difficulty
advanced
WARNING: You are trying to view
                                    content from Ultimate-Guitar.com
                                    in an unauthorized application,
                                    which is prohibited.

                                    Please use an official Ultimate
                                    Guitar Tabs application for iPhone,
                                    iPad or Android to access legitimate
                                    chords, guitar, bass, and drum tabs
                                    from Ultimate-Guitar.com database.

                                    Type "ultimate guitar tabs" in Apple
                                    App Store's or Android Market's
                                    search to find the application.
 LAST RITES - LOVED TO DETH


e|-17-15-17-13-17-12-17----17-12-17-13-17----17----|
B|----------------------15----------------15----14-|
G|-------------------------------------------------|
D|-------------------------------------------------|
A|-------------------------------------------------|
E|-------------------------------------------------|

e|-17----17-12-17----17----17----17----17----17-|
B|----15----------------------14----15----17----|
G|----------------14----16----------------------|
D|----------------------------------------------|
A|----------------------------------------------|
E|----------------------------------------------|

e|-18-17-18-15-18-13-18-12-18-13-18-15-18----18-|
B|----------------------------------------13----|
G|----------------------------------------------|
D|----------------------------------------------|
A|----------------------------------------------|
E|----------------------------------------------|

e|-17-15-17-13-17-12-17----17-12-17-13-17----17-|
B|----------------------15----------------13----|
G|----------------------------------------------|
D|----------------------------------------------|
A|----------------------------------------------|
E|----------------------------------------------|

e|-15-13-15-12-15-10-15----15-10-15-12-15-13-15-|
B|----------------------14----------------------|
G|----------------------------------------------|
D|----------------------------------------------|
A|----------------------------------------------|
E|----------------------------------------------|

e|-------17----------17----------15----------15----|
B|-15----------15----------14----------14----------|
G|----14----14----14----14----14----14----14----14-|
D|-------------------------------------------------|
A|-------------------------------------------------|
E|-------------------------------------------------|

e|--------------------------------------------------------|
B|--------------------------------------------------------|
G|-3~--2h3p2p0-5t3p2p0-7t3p2p0-10t3p2p0-12t3p2p0-15t3p2p0-|
D|--------------------------------------------------------|
A|--------------------------------------------------------|
E|--------------------------------------------------------|

e|-----------------------------------|
B|-----------------------------------|
G|-12t3p2p0-10t3p2p0-7t3p2p0-5t3p2p0-|
D|-----------------------------------|
A|-----------------------------------|
E|-----------------------------------|

e|-------------------------------------------------|
B|---------------------------------------(15)-<24>-| <--Just fret the 15
G|-------------------------------------------------| <--then strike the
D|-----------------------0-------------------------| <--24 fret position.
A|-/5~----8----7----5----0-------------------------|
E|--------6----5----3------------------------------|

---------------------------------------------------


Live version:
---------------------------------------------------

e|-----|
B|-----|
G|-----|
D|--0--|
A|--0--|
E|-----|

e|--------------------------------------------------------------|
B|-t22t20---t18---t17---t15---t17---t18---t15---t14---t15---t17-|
G|--------------------------------------------------------------|
D|--------------------------------------------------------------|
A|-h12p10h12p10h12p10h12p10h12p10h12p10h12p10h12p10h12p10h12p10-|
E|--------------------------------------------------------------|

e|-----------------------------------|
B|----------------t14---t15---t17----|
G|-----t14--t16----------------------|
D|-----------------------------------|
A|-h12p10h12p10h12p10h12p10h12p10h12-|
E|-----------------------------------|

e|-----------------------------------------------------------------|
B|-t22t20---t18---t17---t15---t17---t18---t15---t14---t15---t17----|
G|-----------------------------------------------------------------|
D|-----------------------------------------------------------------|
A|-h12p10h12p10h12p10h12p10h12p10h12p10h12p10h12p10h12p10h12p10h12-|
E|-----------------------------------------------------------------|

e|-----------------------------------|
B|----------------t14---t15---t17----|
G|-----t14--t16----------------------|
D|-----------------------------------|
A|-h12p10h12p10h12p10h12p10h12p10h12-|
E|-----------------------------------|

e|-----------------------------------------------|
B|-t23t22---t20---t18---t17---t18---t20----------|
G|----------------------------------------t17----|
D|-----------------------------------------------|
A|-h13p12h13p12h13p12h13p12h13p12h13p12h13p12h13-|
E|-----------------------------------------------|

e|-----------------------------------------------|
B|-t22t20---t18---t17---t15---t17---t18----------|
G|----------------------------------------t17----|
D|-----------------------------------------------|
A|-h12p10h12p10h12p10h12p10h12p10h12p10h12p10h12-|
E|-----------------------------------------------|

e|----------------------------------------|
B|-t20t18--t17--t15--t14--t15--t17--t18---|
G|----------------------------------------|
D|----------------------------------------|
A|-h10p8h10p8h10p8h10p8h10p8h10p8h10p8h10-|
E|----------------------------------------|

e|-------17----------17----------15----------15----------|
B|-15----------15----------14----------14----------------|
G|----14----14----14----14----14----14----14----14--15~\-|
D|--------------------------------------------------15~\-|
A|-------------------------------------------------------|
E|-------------------------------------------------------|

e|--------------------------------------------------------|
B|--------------------------------------------------------|
G|-3~--2h3p2p0-5t3p2p0-7t3p2p0-10t3p2p0-12t3p2p0-15t3p2p0-|
D|--------------------------------------------------------|
A|--------------------------------------------------------|
E|--------------------------------------------------------|

e|-----------------------------------|
B|-----------------------------------|
G|-12t3p2p0-10t3p2p0-7t3p2p0-5t3p2p0-|
D|-----------------------------------|
A|-----------------------------------|
E|-----------------------------------|

e|--------------------------------------|
B|-----------------------15--------<24>-|
G|-----------------------14-------------|
D|--------------------------------------|
A|-/5~----------------------------------|
E|--------3----1----0-------------------|

---------------------------------------------------

Loved to Deth:


Riff 1                              x3
e|-----------------------------------|
B|-----------------------------------|
G|-----------------------------------|
D|-------7p5---5h7-------8p7p5---5h8-|
A|-0-0-0-----7-----0-0-0-------8-----|
E|-----------------------------------|
   * * *           * * *
e|---------------------------------|
B|---------------------------------|
G|-----------------7p5-8p5---------|
D|-------7p5---5h7---------7p5-8p5-|
A|-0-0-0-----7---------------------|
E|---------------------------------|
   * * *

Guitar 2 comes in with these chords:
                        x2
e|-----------------------|
B|-----------------------|
G|-----------------------|
D|-----------------------|
A|-5-7----8----5-7----8--|
E|-3-5----6----3-5----6--|



Play Riff 1   "Whoa!"



Riff 2
e|---------------------------|
B|---------------------------|
G|---------------------------|
D|-------------8-----------8-|
A|-7-7--7-8-8--6-8-7-5-5-5-6-|
E|-5-5--5-6-6----6-5-3-3-3---|
   * *  * * *    * * * * *
   "Your bodies empty..."


Riff 3
e|---------------------------|
B|---------------------------|
G|---------------------------|
D|---------------------------|
A|-2h4---------2-2-4-4/5-4---|
E|-0h2-2p0-2p0-0-0-2-2/3-2-0-|



Play Riff 2
Play Riff 3  "...death..."
Play Riff 1
Play Riff 2  "If I can't have you..."
Play Riff 3  "...hell..."
Play Riff 2
Play Riff 3  "...death..."


Riff 4
e|----------------------------------|
B|----------------------------------|
G|----------------------------------|
D|---------------------------2--1-0-|
A|-7--6--5--4--3-2--5--4--3--2--1-0-|
E|-5--4--3--2--1-0--3--2--1---------|
   "I...         ...loved you..."
e|-----------------------------------|
B|-----------------------------------|
G|-----------------------------------|
D|-------7p5---5h7-------8p7p5---5h8-|
A|-0-0-0-----7-----0-0-0-------8-----|
E|-----------------------------------|
   * * *           * * *
  "...to deth."
e|---------------------------------|
B|---------------------------------|
G|-----------------7p5-8p5---------|
D|-------7p5---5h7---------7p5-8p5-|
A|-0-0-0-----7---------------------|
E|---------------------------------|
   * * *
e|----------------------------------|
B|----------------------------------|
G|----------------------------------|
D|---------------------------2--1-0-|
A|-7--6--5--4--3-2--5--4--3--2--1-0-|
E|-5--4--3--2--1-0--3--2--1---------|
   "I...         ...loved you..."
e|-----------------------------------|
B|-----------------------------------|
G|-----------------------------------|
D|-------7p5---5h7-------8p7p5---5h8-|
A|-0-0-0-----7-----0-0-0-------8-----|
E|-----------------------------------|
   * * *           * * *
  "...to deth."
e|---------------------------------|
B|---------------------------------|
G|-----------------7p5-8p5---------|
D|-------7p5---5h7---------7p5-8p5-|
A|-0-0-0-----7---------------------|
E|---------------------------------|
   * * *


Play Riff 2  Solo Rhythm
Play Riff 3  Solo Rhythm
Play Riff 2  Solo Rhythm
Play Riff 3  Solo Rhythm


Riff 4a (Solo Rhythm)
e|----------------------------------|
B|----------------------------------|
G|----------------------------------|
D|---------------------------2--1-0-|
A|-7--6--5--4--3-2--5--4--3--2--1-0-|
E|-5--4--3--2--1-0--3--2--1---------|

e|---------------------------|
B|---------------------------|
G|---------------------------|
D|-------------8-----------8-|
A|-7-7--7-8-8--6-8-7-5-5-5-6-|
E|-5-5--5-6-6----6-5-3-3-3---|
   * *  * * *    * * * * *
e|---------------------------|
B|---------------------------|
G|---------------------------|
D|-------------8-----------8-|
A|-7-7--7-8-8--6-8-7-5-5-5-6-|
E|-5-5--5-6-6----6-5-3-3-3---|
   * *  * * *    * * * * *
e|----------------------------------|
B|----------------------------------|
G|----------------------------------|
D|---------------------------2--1-0-|
A|-7--6--5--4--3-2--5--4--3--2--1-0-|
E|-5--4--3--2--1-0--3--2--1---------|

e|-----------------------------------|
B|-----------------------------------|
G|-----------------------------------|
D|-------7p5---5h7-------8p7p5---5h8-|
A|-0-0-0-----7-----0-0-0-------8-----|
E|-----------------------------------|
   * * *           * * *
e|---------------------------------|
B|---------------------------------|
G|-----------------7p5-8p5---------|
D|-------7p5---5h7---------7p5-8p5-|
A|-0-0-0-----7---------------------|
E|---------------------------------|
   * * *


Solo (Mustaine)
e|-----------------------------------|
B|-20------20---------20-------------|
G|-19b21---19b21------19b21-17---17--|
D|-----------------------------------|
A|-----------------------------------|
E|-----------------------------------|

e|-20-22b24--22b24--22b24-22b24--22b24--(24)r22-|
B|----------------------------------------------|
G|----------------------------------------------|
D|----------------------------------------------|
A|----------------------------------------------|
E|----------------------------------------------|

e|-20-23-20----20-------------------------|
B|----------22----22-22-20b22----20b22-22-|
G|----------------------------21----------|
D|----------------------------------------|
A|----------------------------------------|
E|----------------------------------------|

e|-----------------------------------------------|
B|-20b22----20b22-------------17-19--17-19-20-19-|
G|-------21-------21-20-19-17--------------------|
D|-----------------------------------------------|
A|-----------------------------------------------|
E|-----------------------------------------------|

e|-----------------------------------------------------------|
B|-17--------------------------------------------------------|
G|----19-19b20-19--17-19-20--19-17-19--17--------------------|
D|----------------------------------------19b20----(20)r19\--|
A|-----------------------------------------------------------|
E|-----------------------------------------------------------|

e|-------------------------------------------------|
B|-------------------------------------------------|
G|-------------------------------------------------|
D|-10-10-12b13-13b14--14b15-17b19--17b19p16-17-16--|
A|-------------------------------------------------|
E|-------------------------------------------------|

e|------------------------------17-|
B|--------------13-15--13-15b17----|
G|----12-13--14--------------------|
D|-15------------------------------|
A|---------------------------------|
E|---------------------------------|

e|-15-15b17-13-15--17-12-15--12-15b17-|
B|------------------------------------|
G|------------------------------------|
D|------------------------------------|
A|------------------------------------|
E|------------------------------------|

e|-12-15-12--15-12-15b17--17-20--17-20-20-23-|
B|-------------------------------------------|
G|-------------------------------------------|
D|-------------------------------------------|
A|-------------------------------------------|
E|-------------------------------------------|

e|-20-17-17-17-23--20-17-20--17-22-20--|
B|-------------------------------------|
G|-------------------------------------|
D|-------------------------------------|
A|-------------------------------------|
E|-------------------------------------|

e|-17-17-17------------17--------------------|
B|-----------20-17-20-----20p17--18-20p17----|
G|----------------------------------------17-|
D|-------------------------------------------|
A|-------------------------------------------|
E|-------------------------------------------|

e|----------------------------------------------|
B|----------18b20--18p17-15--17----15-----------|
G|-18-19-20---------------------16-----16-14-16-|
D|----------------------------------------------|
A|----------------------------------------------|
E|----------------------------------------------|

e|--------------------------------|
B|--------------------------------|
G|-14----14-----------------------|
D|----13-----13-14-13--12-10------|
A|---------------------------9-12-|
E|--------------------------------|

e|-24b26----24b26----24b26----24b26----(26)r24-|
B|---------------------------------------------|
G|---------------------------------------------|
D|---------------------------------------------|
A|---------------------------------------------|
E|---------------------------------------------|

e|-24b26--24b26--24b26--24b26--24b26--24b26--(26)r24-|
B|---------------------------------------------------|
G|---------------------------------------------------|
D|---------------------------------------------------|
A|---------------------------------------------------|
E|---------------------------------------------------|

e|-22-24-22-24-22-----------------22-------22-24-|
B|----------------24-23--24-23-24----24-23-------|
G|-----------------------------------------------|
D|-----------------------------------------------|
A|-----------------------------------------------|
E|-----------------------------------------------|

e|-28b30----28b30----28b30----28b30--28b30-|
B|-----------------------------------------| [push string against    ]
G|-----------------------------------------| [pickup to get this bend]
D|-----------------------------------------|
A|-----------------------------------------|
E|-----------------------------------------|

e|-21p19----22p21---21----22p21----21---22p21---21------22p20-|
B|-------22-------22---22-------22----22------22---22-22------|
G|------------------------------------------------------------|
D|------------------------------------------------------------|
A|------------------------------------------------------------|
E|------------------------------------------------------------|

e|----20--20-22p20--20----20-22p20--20----20-22p20-----20-22-|
B|-22---22--------22---22---------22---22---------22-24------|
G|-----------------------------------------------------------|
D|-----------------------------------------------------------|
A|-----------------------------------------------------------|
E|-----------------------------------------------------------|

e|-24b26----24b26----24b26----(26)r24-|
B|------------------------------------|
G|------------------------------------|
D|------------------------------------|
A|------------------------------------|
E|------------------------------------|

e|-28b30----28b30----28b30----(30)r28--/12-8-|
B|-------------------------------------------| [push string against    ]
G|-------------------------------------------| [pickup to get this bend]
D|-------------------------------------------|
A|-------------------------------------------|
E|-------------------------------------------|

e|---------------------------------------------------------|
B|---------------------8-10-8-10h11-10-8h10-8-6h8-6-10-----|
G|-------------7-9-7-9---------------------------------/12-|
D|-7-9-10-9-10---------------------------------------------|
A|---------------------------------------------------------|
E|---------------------------------------------------------|

e|-------------11-12----------11-12-14-12-14b16-|
B|-10-13-10-13-------13-12-13-------------------|
G|----------------------------------------------|
D|----------------------------------------------|
A|----------------------------------------------|
E|----------------------------------------------|

e|-11-12----------------------14-12----|
B|-------15b16--(16)r15-13-15-------15-|
G|-------------------------------------|
D|-------------------------------------|
A|-------------------------------------|
E|-------------------------------------|

e|-------------------------------------|
B|-20------20-------20-----------------|
G|-19b21---19b21----19b21-17---17------|
D|----------------------------------19-|
A|-------------------------------------|
E|-------------------------------------|

e|------------------------------------------------------|
B|------------------------------------------------------|
G|-17h19----17-19-17----17------------------------------|
D|-------19----------19----19p18-17---17-17-------------|
A|----------------------------------19-----19-18-17-----|
E|--------------------------------------------------17\-|

e|-22-20-17-17----------17-------------------|
B|-------------20-17-20----20-17-20-17----17-|
G|-------------------------------------19----|
D|-------------------------------------------|
A|-------------------------------------------|
E|-------------------------------------------|

e|-------------------------------|
B|-------17-19-17----------------|
G|-19-17----------19-17----------|
D|-------------------------------|
A|----------------------19-17----|
E|----------------------------20-|

e|----------------------------------------------------------|
B|---------20-17--------------------------------------------|
G|-17-19-20-----20-19-17-19-20-19-17------------------------|
D|----------------------------------19-18-17--17-18-19------|
A|------------------------------------------19--------17-19-|
E|----------------------------------------------------------|

[tremolo pick the following unison bends]
e|-----------------------------------|
B|-20-------20-------20-------20-----|
G|-19b21----19b21----19b21----19b21--|
D|-----------------------------------|
A|-----------------------------------|
E|-----------------------------------|

e|-----------------------------------------------------|
B|-20-------20-------20-------20-----------(20)----19\-|
G|-19b21----19b21----19b21----19b21--------(21)r19-18\-|
D|-----------------------------------------------------|
A|-----------------------------------------------------|
E|-----------------------------------------------------|

End Solo



Riff 5
e|-----------------------------------------------|
B|-----------------------------------------------|
G|-----------------------------------------------|
D|-------------------------------------------9---|
A|-------------------------------4h5p4-------7-8-|
E|-555-666-555-333-55-66-555-666-------6-5-0---6-|
   *** *** *** *** ** ** *** ***       * * *


Play Riff 5   "And now down below..."


Riff 5a
e|---------------------------------------|
B|---------------------------------------|
G|---------------------------------------|
D|-----------------------------------9---|
A|-7--8--7--5--7-8-7--8--4h5p4-------7-8-|
E|-5--6--5--3--5-6-5--6--------6-5-0---6-|
   "And now coming back..."    * * *


Ending:
e|---------------------------------|
B|---------------------------------|
G|---------------------------------|
D|---------------------------------|
A|-1p0-0-3p1p0-5p3p0-6p5p0-6p5p3p0-|
E|---------------------------------|

e|---------------------------------|
B|---------------------------------|
G|---------------------------------|
D|---------------------------------|
A|-1p0-0-3p1p0-5p3p0-6p5p0-5h6p5p3-|
E|---------------------------------|

e|-----------------------|
B|-----------------------|
G|-----------------------|
D|-2--------3------------|
A|-0--------1--------7\--|
E|-------------------5\--|
        "I loved you to deth, whoa!"





KILLING IS MY BUSINESS...AND BUSINESS IS GOOD

Tuning: 1/4 step down


Intro (Starts with feedback from first ghost chord)
e|-------------------------------------|
B|-------------------------------------|
G|-------------------------------------|
D|---------------------------------2-4-|
A|-(11)----11\----10\----9\--------0-2-|
E|-(-9)-----9\-----8\----7\------------|


Riff 1
e|--------------------------------|
B|--------------------------------|
G|----/6--------------------------|
D|-6------6-5-4-2-----------------|
A|-4--------------4-3-2-----------|
E|----------------------4-3-2-1-0-|
                  * * * * * * * *
e|---------------------------|
B|---------------------------|
G|---------------------------|
D|-------------------------4-|
A|---------4--xx---------0-2-|
E|-2h3p2p0-2--xx-2h3p2p0-----|

e|--------------------------------|
B|--------------------------------|
G|----/6--------------------------|
D|-6------6-5-4-2-----------------|
A|-4--------------4-3-2-----------|
E|----------------------4-3-2-1-0-|
                  * * * * * * * *
e|---------------------------|
B|---------------------------|
G|---------------------------|
D|---------------------------|
A|---------4--xx---------4-2-|
E|-2h3p2p0-2--xx-2h3p2p0-2-0-|



Riff 2
e|------------------------|
B|------------------------|
G|----4-------4-----------|
D|-6----6-5-4---6-5-4-----|
A|-4------------------4-2-|
E|--------------------2-0-|

e|-----------------------|
B|-----------------------|
G|----------------9~-----|
D|-6--9h11p9------9~---4-|
A|-4---------11-x----0-2-|
E|--------------x--------|


Final time:
e|------------------------|
B|------------------------|
G|----4-------4-----------|
D|-6----6-5-4---6-5-4-----|
A|-4------------------4-2-|
E|--------------------2-0-|

e|----------------|
B|----------------|
G|----------------|
D|--------------6-|
A|-6-------2----4-|
E|-4--X\\--0------|



Riff 3
e|-----------------------------------------------|
B|-----------------------------------------------|
G|-----------------------------------------------|
D|------------------------4h5p4p2-4p2------------|
A|-4444-77-44----44-99-44-------------44-33-22-4-|
E|------------77-------------------------------2-|
   **** ** ** ** ** ** **             ** ** **
e|-----------------------------------------------|
B|-----------------------------------------------|
G|---------------------------------------------6-|
D|------------------------4h5p4p2-4p2----------4-|
A|-4444-77-44----44-99-44-------------44-33-22---|
E|------------77---------------------------------|
   **** ** ** ** ** ** **             ** ** **


Riff 4
e|--------------------------------|
B|--------------------------------|
G|--------------------------------|
D|--------------9---------------9-|
A|-444444444444-7--444444444444-7-|
E|--------------------------------|
   ************    ************
e|--------------------------------|
B|--------------------------------|
G|--------------------------------|
D|--------------9---------------9-|
A|-444444444444-7--444444444444-7-|
E|--------------------------------|
   ************    ************
e|--------------------------------|
B|--------------------------------|
G|--------------------------------|
D|---------------6--------------9-|
A|-7--9-7--6-7-9-4-444444444444-7-|
E|-5--7-5--4-5-7------------------|
                   ************
e|--------------------------------|
B|--------------------------------|
G|--------------------------------|
D|---------------6--------------9-|
A|-7--9-7--6-7-9-4-444444444444-7-|
E|-5--7-5--4-5-7------------------|
                   ************
e|---------------|
B|---------------|
G|---------------|
D|---------------|
A|-7--9-7--6-4-2-|
E|-5--7-5--4-2-0-|


Play Riff 1

Lead into next section:
e|------------------------------|
B|------------------------------|
G|------------------------------|
D|-7--6---6------5--------------|
A|-5--4---4------3------5-4-5-7-|
E|------5----2/4----2/4---------|



Play Riff 2   "I do the getting rid of..."
Play Riff 3   "...you..."

Final time for Riff 3:
e|-----------------------------------------------|
B|-----------------------------------------------|
G|-----------------------------------------------|
D|------------------------4h5p4p2-4p2------------|
A|-4444-77-44----44-99-44-------------44-33-22-4-|
E|------------77-------------------------------2-|
   **** ** ** ** ** ** **             ** ** **
e|-------------------------------------------------|
B|-------------------------------------------------|
G|-------------------------------------------------|
D|------------------------4h5p4p2-4p2--------------|
A|-4444-77-44----44-99-44-------------44-33-22-4-2-|
E|------------77-------------------------------2-0-|
   **** ** ** ** ** ** **             ** ** **
                                      "Don't ya know..."


Riff 5
e|-------------------------------|
B|-------------------------------|
G|-------------------------------|
D|-9-----------------------------|
A|-7----------5-6-7----------7-9-|
E|---00000000-3-4-5-55555555-5-7-|
     ********       ********
   "Killing, is my business..."
e|----------------------------------|
B|----------------------------------|
G|----------------------------------|
D|---------------5------------------|
A|-10----------5-3-4------------4---|
E|--8-88888888-3---2-2222222222-2-0-|
      ********       **********
    "...and business is good..."


Solo (Poland)
e|----------12----------12----------------|
B|-15b17-------15b17-------15p13-12----12-|
G|----------------------------------12----|
D|----------------------------------------|
A|----------------------------------------|
E|----------------------------------------|

e|---------------------------------------------------|
B|---------------------------------------------------|
G|-14p12----12---------------------------------------|
D|-------14----14p12-14------------------------------|
A|----------------------15-14-14-12-12---------------|
E|-------------------------------------14--13-12-12--|

e|------------------------------------------|
B|------------------------------------------|
G|------------------------------------------|
D|------------------------------------------|
A|------------------------------------12-12-|
E|-12-----12---12---12-12-13-13-14-14-------|

e|----------------------------------------------------------|
B|-------------------------------------------------12-13h15-|
G|----------------------------------12-14p12h14-14----------|
D|----------------12h14p12-14p12-14-------------------------|
A|-12h14p12-14-15-------------------------------------------|
E|----------------------------------------------------------|

e|-15p12h15----12-12-12-------------------------------------|
B|----------15----------15p13-15p13p12----------------------|
G|-------------------------------------14p12h14-12-------12-|
D|-------------------------------------------------14-14----|
A|----------------------------------------------------------|
E|----------------------------------------------------------|

e|--------------------------------------------|
B|--------------------------------------------|
G|-12h14h16-14-14-------14--------------------|
D|----------------12h14----12-14-(14)-(14)----|
A|--------------------------------------------|
E|--------------------------------------------|

e|-12-15b17-------{15}-------15b17-15b17--15~----15p12-15-|
B|--------------------------------------------------------|
G|--------------------------------------------------------|
D|--------------------------------------------------------|
A|--------------------------------------------------------|
E|--------------------------------------------------------|

e|------12-------------------------------------|
B|-15------15-13-12-12-13----------------------|
G|------------------------14-14-12-12-14p12h14-|
D|---------------------------------------------|
A|---------------------------------------------|
E|---------------------------------------------|

e|--------------------------------------------------|
B|--------------------------------------------------|
G|--------------------------------------------------|
D|-14--------------12-14-------15-14----------12-14-|
A|--------15p14p12-------14p12-------15p14p12-------|
E|--------------------------------------------------|

e|----------12-15-------------(15)----|
B|-12----12---------------------------|
G|----14------------------------------|
D|------------------------------------|
A|------------------------------------|
E|------------------------------------|

e|-14-----15---17---22p20p19----19-20p19p17----17--|
B|---------------------------22-------------20-----|
G|-------------------------------------------------|
D|-------------------------------------------------|
A|-------------------------------------------------|
E|-------------------------------------------------|

e|-19p17p15----15-------19-22-22p20p19-19-19-19p17p15-15----|
B|----------19----17-15----------------------------------17-|
G|----------------------------------------------------------|
D|----------------------------------------------------------|
A|----------------------------------------------------------|
E|----------------------------------------------------------|

e|-17p15p12----12-15p12---12-10p8p7------------------------------|
B|----------15----------------------10p8p7-----------------------|
G|-----------------------------------------9p7-7-----------------|
D|------------------------------------------------9--7-----------|
A|-----------------------------------------------------9-7-------|
E|---------------------------------------------------------7-5---|

e|------------|
B|-7--(7)d----|
G|-h----------|
D|------------|
A|------------|
E|------------|


End Solo


Ending:
e|---------------------------|
B|---------------------------|
G|---------------------------|
D|-7p5---5--5p3---3--1p0-----|
A|-----7--------5--------1p0-|
E|---------------------------|

e|-----------------------------|
B|-----------------------------|
G|-----------------------------|
D|-----------------------------|
A|-7p5---5--5p3---3--1p0-----2-|
E|-----7--------5--------3p0-0-|
                     "You better believe it!"




SKULL BENEATH THE SKIN


INTRO: GUITAR 1 (Detuned 1/4 step from normal)

Eb---------2-5p2----------3-6p3----------4-7p4----------5-8p5-----|
Bb-------4-------4------5-------5------6-------6------7-------7---|
Gb--4/5------------5/6------------6/7------------7/8--------------|
Db----------------------------------------------------------------|
Ab----------------------------------------------------------------|
Eb----------------------------------------------------------------|
    * Hold form w/ 1st trhee fingers & slide to each new position using fingers 1 & 4 
for the pull off.

Eb---------6-9p6-----------7-10p7-------------8-11p8--------------9-|
Bb-------8-------8-------9--------9--------10--------10--------11---|
Gb--8/9------------9/10-------------10/11---------------11/12-------|
Db------------------------------------------------------------------|
Ab------------------------------------------------------------------|
Eb------------------------------------------------------------------|


Eb|-12p9----|------------10-13p10--------------11-14p11--------------|
Bb|------11-|---------12----------12--------13----------13--------14-|
Gb|---------|--12/13-----------------13/14-----------------14/15-----|
Db|---------|--------------------------------------------------------|
Ab|---------|--------------------------------------------------------|
Eb|---------|--------------------------------------------------------|


Eb|-12-15p12--------------13-16p13-----|------------14-17p14--------|
Bb|----------14--------15----------15--|---------16----------16-----|
Gb|-------------15/16------------------|--16/17-----------------17--|
Db|------------------------------------|----------------------------|
Ab|------------------------------------|----------------------------|
Eb|------------------------------------|----------------------------|


Eb|--------15-18p15--------------16-19p16--------------17-20p17----|
Bb|-----17----------17--------18----------18--------19----------19-|
Gb|-18-----------------18/19-----------------19/20-----------------|
Db|----------------------------------------------------------------|
Ab|----------------------------------------------------------------|
Eb|----------------------------------------------------------------|


Eb-|------------18-21p18--------------19-22p19--------------20-23p20-|
Bb-|---------20----------20--------21----------21--------22----------|
Gb-|--20/21-----------------21/22-----------------22/23--------------|
Db-|-----------------------------------------------------------------|
Ab-|-----------------------------------------------------------------|
Eb-|-----------------------------------------------------------------|



                             GUITAR 2 ENTERS HERE

Eb|--------------21--24---\--|-------------------------------------|
Bb|-22--------23----(23)--\--|-------------------------------------|
Gb|----23/24--------(21)--\--|---9----------------(9)--------------|
Db|--------------------------|---9----------------(9)--------------|
Ab|--------------------------|---7----------------(7)--------------|
Eb|--------------------------|---0----------------(0)--------------|


Eb--|---------------------------------------|------------------------|
Bb--|---------------------------------------|------------------------|
Gb--|---9----------------(9)----------------|---9----------------(9)-|
Db--|---9----------------(9)----------------|---9----------------(9)-|
Ab--|---7----------------(7)----------------|---7----------------(7)-|
Eb--|---0----------------(0)----------------|---0----------------(0)-|



                                                           SECTION A: BOTH GUITARS

Eb|---------------|----------------------------------------||------|
Bb|---------------|----------------------------------------||*-----|
Gb|---------------|---9----------------(9)-----------------||------|
Db|---------------|---9----------------(9)---\-------------||---9--|
Ab|---------------|---7----------------(7)---\-------------||*--7--|
Eb|---------------|---0----------------(0)-----------------||------|
                                              * Pick Slide

Eb|--------------------------------------------------||------------|
Bb|-------------------------------------------------*||------------|
Gb|--------------------------------------------------||---9--------|
Db|--------------------7--9---------------------10---||---9--------|
Ab|-7--8--9--10--8--9--5--7--7--8--9--10--8--9---8--*||---7--------|
Eb|-5--6--7---8--6--7--------5--6--7---8--6--7-------||---0--------|
                                                4x


                                 LEAD BREAK: GUITAR 1

Eb|----------------------------|-------------------------------------|
Bb|----------------------------|-------------------------------------|
Gb|---------(9)----------------|--2h3-2---2h3-2---3h4-3---3h4-3---4--|h
Db|---------(9)----------------|--------5-------5-------6-------6----|
Ab|---------(7)----------------|-------------------------------------|
Eb|---------(0)----------------|-------------------------------------|



                                    LEAD 1: GUITAR 1

Eb|-------------------------------|-||---17h-12------12--12--12--17--|h
Bb|-------------------------------|-||*----------15------------------|
Gb|-5-4---4h5-4---5h6-5---5h6-5---|-||-------------------------------|
Db|-----7-------7-------8-------8-|-||-------------------------------|
Ab|-------------------------------|-||*------------------------------|
Eb|-------------------------------|-||-------------------------------|


Eb--12------12--12--12--17h-12------12--|--16h-12------12--12--12--|
Bb------15----------------------15------|----------15--------------|
Gb--------------------------------------|--------------------------|
Db--------------------------------------|--------------------------|
Ab--------------------------------------|--------------------------|
Eb--------------------------------------|--------------------------|


Eb|-16h-12------12--12--12--16h-12------12---||---17h-12------12--12-|
Bb|---------15----------------------15------*||-----------15---------|
Gb|------------------------------------------||----------------------|
Db|------------------------------------------||----------------------|
Ab|-----------------------------------------*||----------------------|
Eb|------------------------------------------||----------------------|
                                        3x

Eb--12--17h-12------12--12--12--17h-12------12--|--16h-12------12--|
Bb--------------15----------------------15------|----------15------|
Gb----------------------------------------------|------------------|
Db----------------------------------------------|------------------|
Ab----------------------------------------------|------------------|
Eb----------------------------------------------|------------------|



                                                  LEAD 1 RHYTHM: GUITAR 2

Eb|---------------------------------------------|-||---------------|
Bb|-11h-13--11----------------------------------|-||*--------------|
Gb|--------------10h-12--10---------------------|-||---------------|
Db|--------------------------10h-12--10---------|-||-------------4-|
Ab|---------------------------------------11~---|-||*------------2-|
Eb|---------------------------------------------|-||---0----0------|


Eb|-----------------------------|----------------------------------|
Bb|-----------------------------|----------------------------------|
Gb|-----------------------------|----------------------------------|
Db|---------5-------------------|-----------------4----------------|
Ab|---------3--------------5----|-----------------2--------------3-|
Eb|----0---------0----0----3----|--0----0----0---------0----0----1-|



               SECTION B: BOTH GUITARS

Eb|---------||-||--------------------------------------------------|
Bb|--------*||-||*-------------------------------------------------|
Gb|---------||-||---9---------9--------------9---------9-----------|
Db|---------||-||---9---------9--------------9---------9-----------|
Ab|--------*||-||*--7---------7--------------7---------7-----------|
Eb|---------||-||------0-0-0-----0--0--0--0-----0-0-0-----0--0--0--|
         8x


                                                           SECTION C: BOTH GUITARS

Eb|-----||----------------------------------------------||-||-------|
Bb|----*||----------------------------------------------||-||*------|
Gb|-----||--9---------9---------------------------------||-||---10\-|
Db|-----||--9---------9--------------9--------3---/-----||-||---10\-|
Ab|----*||--7---------7--------------9--------3---/-----||-||*---8\-|
Eb|-0---||-----0-0-0-----0--0--0--0--7--------1---/-----||-||-------|
    3x                                                          "Mean and infectious..."

Eb|----------------------------------------------|-----------------|
Bb|----------------------------------------------|-----------------|
Gb|--9--------9-------------7-----------------7--|--10\-9--------9-|
Db|--9--x--x--9----x--x--x--7--x--8--x--9--x--7--|--10\-9--x--x--9-|
Ab|--7--x--x--7----x--x--x--5--x--8--x--9--x--5--|---8\-7--x--x--7-|
Eb|-------------------------------6-----7--------|-----------------|
                                                           "The evil prophets rise..."


                                         SECTION D: BOTH GUITARS

Eb|-----------------------------------||-||------------------------|
Bb|----------------------------------*||-||*-----------------------|
Gb|-------------7---------------------||-||------------------------|
Db|----x--x--x--7--x--x--8/-9--8/-9---||-||--------------9~--------|
Ab|----x--x--x--5--x--x--8/-9--8/-9--*||-||*-------------7~--------|
Eb|----------------------6/-7--6/-7---||-||---0----0--0--0~------0-|
                                  6x

Eb----------------------|--------------------------------------------|
Bb----------------------|--------------------------------------------|
Gb-------------11~------|--------------10~---------------------------|
Db--------------9~------|---------------8~--------------------11~--\-|
Ab----------------------|--------------------------------------9~--\-|
Eb----0--0--0-----------|---0----0--0-----------0----0--0--0---------|



           LEAD 2: GUITAR 1

Eb|-----||--------------------------------------6--------9----------|
Bb|----*||-8p5------------11p8--------------5h8---8-8h11---11-11h14-|
Gb|-----||-----6-9p6-----------9-12p9-------------------------------|
Db|-----||-----------8-5~-------------11-8~-------------------------|
Ab|----*||----------------------------------------------------------|
Eb|-----||----------------------------------------------------------|
     6x

Eb-12----------15-18p15----|-----------------------------------------|
Bb----14-14h17----------17-|-11p8--------------17p14-----------------|
Gb-------------------------|------9-12p9-------------15-18p15--------|
Db-------------------------|-------------11-8~----------------17-----|
Ab-------------------------|-------------------------------------16~-|
Eb-------------------------|-----------------------------------------|


Eb------9----------12----------15----------18-21p18----|--------------|
Bb-8h11---11-11h14----14-14h17----17-17h20----------20-|-14p11----16--|p
Gb-----------------------------------------------------|-------12-----|
Db-----------------------------------------------------|--------------|
Ab-----------------------------------------------------|--------------|
Eb-----------------------------------------------------|--------------|


Eb-----------16p13-----------------------12----------15----------18-|
Bb-12--------------14--------------11h14----14-14h17----17-17h20----|
Gb----14-11~----------13p10-----------------------------------------|
Db--------------------------11-13~----------------------------------|
Ab------------------------------------------------------------------|
Eb------------------------------------------------------------------|


Eb----------21-24p21----|-9p6-------6--10p7--------7--11p8----------|
Bb-20-20h23----------23-|-----8---8---------9----9---------10----10-|
Gb----------------------|-------9-------------10--------------11----|
Db----------------------|-------------------------------------------|
Ab----------------------|-------------------------------------------|
Eb----------------------|-------------------------------------------|
                          *  Sweep pick the last 3 notes of each ascending, diminshed arpeggio.

Eb-8--12p9----------9-13p10----------10-|--14p11----------11--15p12-|
Bb---------11----11---------12----12----|--------13----13-----------|
Gb------------12---------------13-------|-----------14--------------|
Db--------------------------------------|---------------------------|
Ab--------------------------------------|---------------------------|
Eb--------------------------------------|---------------------------|


Eb----------12--12-13-16-17/---22b24----22b24----22b24----|--------|
Bb-14----14-----------------------------------------------|--------|
Gb----15--------------------------------------------------|--------|
Db--------------------------------------------------------|--------|
Ab--------------------------------------------------------|--------|
Eb--------------------------------------------------------|--------|



                                          SECTION C: BOTH GUITARS

Eb---22~---22--------------(22)-------r-|-||-----------------------|
Bb--------------------------------------|-||*----------------------|
Gb--------------------------------------|-||---10\-9--------9------|
Db--------------------------------------|-||---10\-9--x--x--9----x-|
Ab--------------------------------------|-||*---8\-7--x--x--7----x-|
Eb--------------------------------------|-||-----------------------|
                                               "Seething in agony..."

Eb-----------------------------|-----------------------------------|
Bb-----------------------------|-----------------------------------|
Gb--------7-----------------7--|--10\-9--------9-------------7-----|
Db--x--x--7--x--8--x--9--x--7--|--10\-9--x--x--9----x--x--x--7--x--|
Ab--x--x--5--x--8--x--9--x--5--|---8\-7--x--x--7----x--x--x--5--x--|
Eb--------------6-----7--------|-----------------------------------|
                                         "Necrosis is the fate..."


                       INTERLUDE: BOTH GUITARS w/ BASS LICK

Eb|-----------------||---------------------------------------------|
Bb|----------------*||---------------------------------------------|
Gb|-----------------||---9----------9------------------------------|
Db|-x--8/-9--8/-9---||---9----------9------------------------------|
Ab|-x--8/-9--8/-9--*||---7----------7-------------5----------------|
Eb|----6/-7--6/-7---||---0----0--0--0----0--0--0-----0--6--0--7--0-|
                4x       "Help me..."


                                                               SECTION E: BOTH GUITARS

Eb-----|-----------------------------------------------------|-||--|
Bb-----|-----------------------------------------------------|-||*-|
Gb-----|-----------------------------------------------------|-||--|
Db-----|---------------------------9-----10------12------14--|-||--|
Ab--5--|--8--7--------7---------7-----8------10------12------|-||*-|
Eb-----|--------0--0-------0---------------------------------|-||--|


Eb|--------------------------------------------------|-------------|
Bb|--------------------------------------------------|-------------|
Gb|--------------------------------------------------|-------------|
Db|--2--x-----2--x--x--2--2--3\-2--x--2--x-----2--2--|--5--x--x--5-|
Ab|--2--x-----2--x--x--2--2--3\-2--x--2--x-----2--2--|--5--x--x--5-|
Eb|--------0--------------------------------0--------|--3--x--x--3-|
           "Prepare the patient's scalp..."                   "To peel away..."


                                       SECTION F: BOTH GUITARS

Eb|---------------------------------||-||--------------------------|
Bb|--------------------------------*||-||*-------------------------|
Gb|----------------4----------------||-||--------------------------|
Db|--x--x--5-------4--------3-------||-||------------------4-----3-|
Ab|--x--x--5-------2--------3------*||-||*-----------------2-----1-|
Eb|--x--x--3----0-----------1-------||-||---0--0--0--0--0-----0----|
                                 4x

Eb|------------------------|---------------------------------------|
Bb|------------------------|---------------------------------------|
Gb|------------------------|---------------------------------------|
Db|------------------------|-----------------4-----3---------------|
Ab|----------5-------------|-----------------2-----1----------5----|
Eb|----0--0--3----0--0--0--|--0--0--0--0--0-----0-------0--0--3----|
                                             "The skull beneath the skin..."


                 LEAD 3: GUITAR 1

Eb|-----------||----------------------------------------------------|
Bb|----------*||----------------------------------------------------|
Gb|-----------||----------------------------------------------------|
Db|-----------||-------------------0-2p0---0-------------------0-2--|p
Ab|----------*||-------0-1-2--1~-1-------2---1b--------2--1~-1------|
Eb|-0--0--0---||-0-1-3---------------------------3-0-3--------------|
          4x

Eb-----------------|-----------------------------------------------|
Bb-----------------|---------------------------r-------------------|
Gb-----------------|----------12-14-15-14b15-12---------r------12--|
Db-0---0-----------|-12-13-15-------------------14b15-12-----------|
Ab---2----12-13-15-|-------------------------------------14-12-----|
Eb-----------------|-----------------------------------------------|


Eb--------------15-17----------17b19----------24b26--24b26-|-24b26-|
Bb----15-17--17-------17-15--------------------------------|-------|
Gb-16-----------------------17-----------------------------|-------|
Db---------------------------------------------------------|-------|
Ab-----------------------------------0---------------------|-------|
Eb-------------------------------------3---p0--------------|-------|


Eb--24b26--24b26--r-24-24-22-20-19--17----17-19-19b20--r17-15-15----|
Bb-------------------------------------20------------------------18-|
Gb------------------------------------------------------------------|
Db------------------------------------------------------------------|
Ab------------------------------------------------------------------|
Eb------------------------------------------------------------------|


Eb--------------------16----------|-12-17-----------13-18-----------|
Bb-17-19b20--r-b1-r-\----13-12-13-|--------14-13-14--------15-14-15-|
Gb--------------------------------|---------------------------------|
Db--------------------------------|---------------------------------|
Ab--------------------------------|---------------------------------|
Eb--------------------------------|---------------------------------|


Eb-14-19-----------15-20-----------16---21-----------17-|-22--------|
Bb--------16-15-16--------17-16-17----------18-17-18----|-----19-18-|
Gb------------------------------------------------------|-----------|
Db------------------------------------------------------|-----------|
Ab------------------------------------------------------|-----------|
Eb------------------------------------------------------|-----------|


Eb----18-23-----------19-24-----------20-24b26--24b26--24b26--24b26-|
Bb-19--------20-19-20--------21-20-21-------------------------------|
Gb------------------------------------------------------------------|
Db------------------------------------------------------------------|
Ab------------------------------------------------------------------|
Eb------------------------------------------------------------------|


Eb--24b26--r--24--r-24~|-24p17-24p17-24p17-24p16-24p16-24p16-24p15-|
Bb---------------------|-------------------------------------------|
Gb---------------------|-------------------------------------------|
Db---------------------|-------------------------------------------|
Ab---------------------|-------------------------------------------|
Eb---------------------|-------------------------------------------|
                         *  Tap w/ edge of pick

Eb-24p15-24p15-24p14-24p14-24p14/-24p13-24p13-24p13-24p12-|-24p12-24--|p
Bb--------------------------------------------------------|-----------|
Gb--------------------------------------------------------|-----------|
Db--------------------------------------------------------|-----------|
Ab--------------------------------------------------------|-----------|
Eb--------------------------------------------------------|-----------|


Eb-12-24p11-24p11-24p11-24p10-24p10-24p10/-24p9-24p9-24p9-24p8-24p8-|
Bb------------------------------------------------------------------|
Gb------------------------------------------------------------------|
Db------------------------------------------------------------------|
Ab------------------------------------------------------------------|
Eb------------------------------------------------------------------|


Eb-24p8-24p7-24p7-24p|-7-24p6-24p6-24p6-24p5-24p5-24p5-24p4-24p4-24--|p
Bb-------------------|-----------------------------------------------|
Gb-------------------|-----------------------------------------------|
Db-------------------|-----------------------------------------------|
Ab-------------------|-----------------------------------------------|
Eb-------------------|-----------------------------------------------|



                                        LEAD 3 RHYTHM: GUITAR 2

Eb-4-24p3-24p3-24p3-24p2-24p2-24p2-0--|-||---------------------------|
Bb---------------------------------0--|-||*--------------------------|
Gb------------------------------------|-||---------------------------|
Db------------------------------------|-||---------------------------|
Ab------------------------------------|-||*-----------------2-----1~-|
Eb------------------------------------|-||---0--0--0--0--0-----0-----|


Eb|-------------------------|----------------------------------------|
Bb|-------------------------|----------------------------------------|
Gb|-------------------------|----------------------------------------|
Db|----------0--2p-0-----0--|-----------------4-----3----------0--2--|p
Ab|----0--2-----------2-----|-----------------2-----1----0--2--------|
Eb|-------------------------|--0--0--0--0--0-----0-------------------|



                  END: GUITAR 2

Eb|------------||--------------------------------------------------|
Bb|-----------*||--------------------------------------------------|
Gb|------------||--------------------------------------------------|
Db|--0-----0---||------------------4-----3----------0--2p-0-----0--|
Ab|-----2-----*||------------------2-----1----0--2-----------2-----|
Eb|------------||---0--0--0--0--0-----0----------------------------|
           7x

Eb-|--------------------------------------------*-|
Bb-|--------------------------------------------*-|
Gb-|-----------------------3--------------------*-|
Db-|-----------------4-----3------5--------2----*-|
Ab-|-----------------2-----1------5--------2----*-|
Eb-|--0--0--0--0--0-----0---------3--------0----*-|
                     "The skull beneath the skin..."





THE BOOTS...

Tuning: 1/4 step down


Riff 1 (Solo Rhythm)
Guitar 1           x4
e|------------------|
B|------------------|
G|-9----9----9----9-|
D|-9----9----9----9-|
A|-7----7----7----7-|
E|------------------|


Guitar 2          x2
e|------------------|
B|------------------|
G|-9----9----9----9-|
D|-9----9----9----9-|
A|-7----7----7----7-|
E|------------------|
                 x4
e|----------------|
B|----------------|
G|----------------|
D|-2---5-2----5---|
A|-2---5-2----5---|
E|---0------0---0-|
     *      *   *


Solo (Poland)
e|-24b26---------------------------|
B|---------------------------------|
G|---------------------------------|
D|--------------4b5r4-2-2----------|
A|------------------------5b7------|
E|----------------------------4-3\-|

e|-----------------------------|
B|-----------------------------|
G|-9-14p9-12p9---9-14p9-12p9---|
D|-------------9-------------9-|
A|-----------------------------|
E|-----------------------------|

e|----------------------------|
B|----------------------------|
G|-9-14p9-12p9---9-14p9-12~~--|
D|-------------9--------------|
A|----------------------------|
E|----------------------------|

e|-------------------------------------|
B|-------------------------------------|
G|-------------------------------------|
D|-[not finished]----------------------|
A|-------------------------------------|
E|-------------------------------------|

e|-------------------------------------|
B|-------------------------------------|
G|-------------------------------------|
D|-------------------------------------|
A|-------------------------------------|
E|-------------------------------------|

End Solo



Riff 2
e|-------------------------|
B|-------------------------|
G|-------------------------|
D|-9-----------------------|
A|-7--------[let ring]-----|
E|-0-------------------X\\-|
                                  x3
e|---------------------------------|
B|---------------------------------|
G|---------------------------------|
D|-9-9-9----(9)\-------------------|
A|-7-7-7----(7)\-------------------|
E|----------------0000000000000000-|
                  ****************


Riff 3
e|--------------------------------|
B|--------------------------------|
G|--------------------------------|
D|--------------------------------|
A|--------------------------------|
E|-121212-111111-101010-999-88-77-|
    * * *  * * *  * * * *** ** **
e|--------------------------|
B|--------------------------|
G|--------------------------|
D|--------------------------|
A|-----------------------2--|
E|-666-555-444-333-22-11-0--|
   *** *** *** *** ** **
e|--------------------------------|
B|--------------------------------|
G|--------------------------------|
D|--------------------------------|
A|--------------------------------|
E|-121212-111111-101010-999-88-77-|
    * * *  * * *  * * * *** ** **
e|-----------------------|
B|-----------------------|
G|-----------------------|
D|-----------------------|
A|-----------------------|
E|-666-555-444-333-22-11-|
   *** *** *** *** ** **
e|--------------------------|
B|--------------------------|
G|-------------------7------|
D|-------------7-8-9-7------|
A|-77777777...-7-8-9----9p7-|
E|--------------------------|
   ********
e|--------------------------|
B|--------------------------|
G|-------------------7------|
D|-------------7-8-9-7------|
A|-77777777...-7-8-9----9p7-|
E|--------------------------|
   ********


Riff 4
e|--------------------------|
B|--------------------------|
G|-------------------7------|
D|-------------7-8-9-7------|
A|-77777777...-7-8-9----9p7-|
E|--------------------------|
   ********
  "You keep saying..."
e|--------------------------|
B|--------------------------|
G|-------------------7------|
D|-------------7-8-9-7------|
A|-77777777...-7-8-9----9p7-|
E|--------------------------|
   ********
  "Some things you call..."
e|--------------------------|
B|--------------------------|
G|--------------------------|
D|-------------------5------|
A|-------------5-6-7-5------|
E|-55555555...-5-6-7----7p5-|
   ********
  "You've been kissing..."
e|--------------------------|
B|--------------------------|
G|-------------------7------|
D|-------------7-8-9-7------|
A|-77777777...-7-8-9----9p7-|
E|--------------------------|
   ********
  "...and now someone else..."



Riff 5
e|-------------------------|
B|-------------------------|
G|-------------------------|
D|-------------------------|
A|-5---5-------2---2-------|
E|-3-3-3-3-3-2-0-0-0-0-0-2-|
     *   * * *   *   * *
  "These boots..."
e|--------------0-0------|
B|--------------0-0------|
G|-----------------------|
D|-----------------------|
A|-5---5-----2-----------|
E|-3-3-3-3-2-0-------0-2-|
     *   * *         * *
  "...and that's just..."
e|---------------|
B|---------------|
G|---------------|
D|---------------|
A|-5---5-------2-|
E|-3-3-3-3-3-2-0-|
     *   * * *
   "One of these days..."



Play Riff 1   Solo Rhythm

Solo (Poland)
e|-------------------------------------|
B|-------------------------------------|
G|-------------------------------------|
D|-------------------------------------|
A|-------------------------------------|
E|-------------------------------------|

e|-------------------------------------|
B|-------------------------------------|
G|-------------------------------------|
D|-------------------------------------|
A|-------------------------------------|
E|-------------------------------------|

e|-------------------------------------|
B|-------------------------------------|
G|-------------------------------------|
D|-------------------------------------|
A|-------------------------------------|
E|-------------------------------------|

e|-------------------------------------|
B|-------------------------------------|
G|-------------------------------------|
D|-------------------------------------|
A|-------------------------------------|
E|-------------------------------------|

End Solo


Riff 3a
e|--------------------------------|
B|--------------------------------|
G|--------------------------------|
D|--------------------------------|
A|--------------------------------|
E|-121212-111111-101010-999-88-77-|
    * * *  * * *  * * * *** ** **
e|-----------------------|
B|-----------------------|
G|-----------------------|
D|-----------------------|
A|-----------------------|
E|-666-555-444-333-22-11-|
   *** *** *** *** ** **
e|--------------------------|
B|--------------------------|
G|-------------------7------|
D|-------------7-8-9-7------|
A|-77777777...-7-8-9----9p7-|
E|--------------------------|
   ********
e|--------------------------|
B|--------------------------|
G|-------------------7------|
D|-------------7-8-9-7------|
A|-77777777...-7-8-9----9p7-|
E|--------------------------|
   ********


Play Riff 4   "You keep lying..."
Play Riff 5   "These boots..."
Play Riff 3   Solo Rhythm

Solo (Poland)
e|-------------------------------------|
B|-------------------------------------|
G|-------------------------------------|
D|-------------------------------------|
A|-------------------------------------|
E|-------------------------------------|

e|-------------------------------------|
B|-------------------------------------|
G|-------------------------------------|
D|-------------------------------------|
A|-------------------------------------|
E|-------------------------------------|

End Solo


Play Riff 4   "You keep dressing..."
Play Riff 5   "These boots..."


Riff 3b
e|--------------------------------|
B|--------------------------------|
G|--------------------------------|
D|--------------------------------|
A|--------------------------------|
E|-121212-111111-101010-999-88-77-|
    * * *  * * *  * * * *** ** **
e|--------------------------|
B|--------------------------|
G|--------------------------|
D|--------------------------|
A|-----------------------2--|
E|-666-555-444-333-22-11-0--|
   *** *** *** *** ** **
                       "Yeah!"
e|--------------------------------|
B|--------------------------------|
G|--------------------------------|
D|--------------------------------|
A|--------------------------------|
E|-121212-111111-101010-999-88-77-|
    * * *  * * *  * * * *** ** **
e|-----------------------|
B|-----------------------|
G|-----------------------|
D|-----------------------|
A|-----------------------|
E|-666-555-444-333-22-11-|
   *** *** *** *** ** **



Riff 6
e|--------------------------|
B|--------------------------|
G|-------------------7------|
D|-------------7-8-9-7------|
A|-77777777...-7-8-9----9p7-|
E|--------------------------|
   ********
  "Are you ready boots?"



Riff 7 (Solo Rhythm)
e|-------------------------|
B|-------------------------|
G|-------------------------|
D|-------------------------|
A|-7-------5-6-7-------5-6-|
E|----0--7--------0--7-----|



Solo (Poland)
e|-------------------------------------|
B|-------------------------------------|
G|-------------------------------------|
D|-[not finished]----------------------|
A|-------------------------------------|
E|-------------------------------------|

e|-------------------------------------|
B|-------------------------------------|
G|-------------------------------------|
D|-------------------------------------|
A|-------------------------------------|
E|-------------------------------------|

e|------------------------------------|
B|------------------------------------|
G|------------------------------------|
D|--------------4-5-6------4-5-6------|
A|---5-6-7------------7--7-------7--7-|
E|-7-------7--7-----------------------|

e|-------------------------------------------------|
B|-------------------------------------------------|
G|---------------------------7-8-9------7-8-9------|
D|-7-8-9--------7-8-9--------------9--9-------9--9-|
A|-------11--11-------11--11-----------------------|
E|-------------------------------------------------|

e|-----------------------------------------------------------------|
B|---------------------------------10-11-12--------10-11-12--------|
G|-11-12-13--------11-12-13-----------------13--13----------13--13-|
D|----------14--14----------14--14---------------------------------|
A|-----------------------------------------------------------------|
E|-----------------------------------------------------------------|

e|---------------------------------------14-15-16-----------|
B|-15-16-17--------15-16-17-----15-16-17-----------17--17~\-|
G|----------16--16----------16-------------------------16~\-|
D|----------------------------------------------------------|
A|----------------------------------------------------------|
E|----------------------------------------------------------|

End Solo


Ending:
e|-----------|
B|-----------|
G|-----------|
D|--9--------|
A|--7--9--2--|
E|-----7--0--|





RATTLEHEAD



    INTRO: BOTH GUITARS

Eb|---------------------------------------------------------------------|
Bb|---------------------------------------------------------------------|
Gb|---------------------------------------------------------------------|
Db|------0-7-7-0-5-5--0-8-8-0-7-7-0-5-5--0-0-7-7-0-5-5--0-8-8-0-7-7-0-0-|
Ab|---------------------------------------------------------------------|
Eb|---------------------------------------------------------------------|
    *  Detuned by 1/4 step from normal.


                                               SECTION A: BOTH GUITARS

Eb-|-----------------------------------------|-||----------------------|
Bb-|-----------------------------------------|-||*---------------------|
Gb-|-5---------------------(5)---------------|-||----------------------|
Db-|-5---------------------(5)---------------|-||---0-0-7-7-0-5-5--0-8-|
Ab-|-3---------------------(3)---------------|-||*---------------------|
Eb-|-----------------------------------------|-||----------------------|
              "Here I come..."

Eb|--------------------------------------------------|------------------|
Bb|--------------------------------------------------|------------------|
Gb|--------------------------------------------------|------------------|
Db|-8-0-7-7-0-5-5--0-0-7-7-0-5-5--0-8-8-0-7-7-0-5-0--|-5----------------|
Ab|--------------------------------------------------|-3-3-3-3--3-3-3-3-|
Eb|--------------------------------------------------|------------------|
                                                                "Stand up, and plant 
your feet..."

Eb|------------------------------------------------||------------------|
Bb|-----------------------------------------------*||------------------|
Gb|--------------------------------------5--5--5---||------------------|
Db|--------------------3-----------------5--5--5---||---0-0-7-7-0-5-5--|
Ab|--3-3-3-3--3-3-3-3--1-1-1-1--1-1-1-1--3--3--3--*||------------------|
Eb|------------------------------------------------||------------------|
                                               3x

Eb|------------------------------------------------------|--------------|
Bb|------------------------------------------------------|--------------|
Gb|------------------------------------------------------|--------------|
Db|-0-8-8-0-7-7-0-5-5--0-0-7-7-0-5-5--0-8-8-0-7-7-0-5-0--|-5------------|
Ab|------------------------------------------------------|-3-3-3-3--3-3-|
Eb|------------------------------------------------------|--------------|
                                                                    "Let it loose, I
don't fuckin' care..."


                                                          LEAD 1 & 2 RHYTHM: GUITAR 1

Eb|----------------------------------------------------||-||-----------|
Bb|---------------------------------------------------*||-||*----------|
Gb|------------------------------------------2---------||-||-----------|
Db|------------------------3-----------------2--5--5---||-||-----------|
Ab|-3-3--3-3-3-3--3-3-3-3--1-1-1-1--1-1-1-1--0--5--5--*||-||*----------|
Eb|---------------------------------------------3--3---||-||---0-0-0-0-|


Eb|---------------------------------------------------------|-----------|
Bb|---------------------------------------------------------|-----------|
Gb|---------------------------------------------------------|-----------|
Db|------2---------------3---------------4---------------5--|-----------|
Ab|------2---------------3---------------4---------------5--|-----------|
Eb|-0-0--0--0-0-0-0-0-0--1--0-0-0-0-0-0--2--0-0-0-0-0-0--3--|-0-0-0-0-0-|



                                                              LEAD 1: GUITAR 2

Eb|--------------------------------------------------------||----------|
Bb|-------------------------------------------------------*||----------|
Gb|--------------------------------------------------------||-6--7--9--|
Db|----2---------------3---------------4---------------5---||----------|
Ab|----2---------------3---------------4---------------5--*||----------|
Eb|-0--0--0-0-0-0-0-0--1--0-0-0-0-0-0--2--0-0-0-0-0-0--3---||----------|


Eb|-----------------8--10--12--9b10---------r10-8-10-8-7------|-7------|
Bb|-7~---8--10--12---------------------------------------10-8-|---10-8-|
Gb|-----------------------------------------------------------|--------|
Db|-----------------------------------------------------------|--------|
Ab|-----------------------------------------------------------|--------|
Eb|-----------------------------------------------------------|--------|


Eb|--------------------------------------------------------------------|
Bb|-7-8-7b8---10-8-7-------7-------------------------------------------|
Gb|------------------9-7-9---9-7---------------------------------------|
Db|------------------------------10-9-7--------------------------------|
Ab|-------------------------------------10-9-7-------------------------|
Eb|--------------------------------------------10---(10)b12----r---\---|


Eb-|--------------12---15---15b17-----------------r-17b19--------|-r-18b20-|
Bb-|-10b12---r---------------------------------------------------|---------|
Gb-|-------------------------------------------------------------|---------|
Db-|-------------------------------------------------------------|---------|
Ab-|-------------------------------------------------------------|---------|
Eb-|-------------------------------------------------------------|---------|



                                                     SECTION B: BOTH GUITARS

Eb--------r-20b22------r-b4---------(24)----r------|-------------------|
Bb-------------------------------------------------|-------------------|
Gb-------------------------------------------------|-------------------|
Db-------------------------------------------------|---0-0-7-7-0-0-5-5-|
Ab-------------------------------------------------|-------------------|
Eb-------------------------------------------------|-------------------|


Eb-----------------------------------------------------|----------------|
Bb-----------------------------------------------------|----------------|
Gb-----------------------------------------------------|----------------|
Db--7-8-7-5-0-0------0-0-7-7-0-0-5-5--7-8-7-5-0-0------|--0-0-7-7-0-0-5-|
Ab--------------3-3-------------------------------3-3--|----------------|
Eb-----------------------------------------------------|----------------|


Eb------------------------------------------------------|--------------|
Bb------------------------------------------------------|--------------|
Gb------------------------------------------------------|--------------|
Db-5--7-8-7-5-0-0------0-0-7-7-0-0-5-5--7-8-7-5-0-0-----|--------------|
Ab----------------3-3-------------------------------3-3-|--------------|
Eb------------------------------------------------------|--------------|



                                                                  LEAD 2: GUITAR 2

Eb----------------------------------------------------------------------|
Bb----------------------------------------------------------------12-15-|
Gb----------------------------------------------------------------------|
Db----------------------------------------------------------------------|
Ab----------------------------------------------------------------------|
Eb----------------------------------------------------------------------|


Eb|-12-13----------13-12-13-------13-12-13-------13-12-13-------13-12-13-|
Bb|-------15-12-------------15-12----------15-12----------15-12----------|
Gb|----------------------------------------------------------------------|
Db|-------------14-------------------------------------------------------|
Ab|----------------------------------------------------------------------|
Eb|----------------------------------------------------------------------|


Eb|-------13-12-13-------13-12--18-15--|-------------------------------|
Bb|-15-12----------15-12---------------|-17-18-17-18-15----14----14----|
Gb|------------------------------------|----------------16----15----15-|
Db|------------------------------------|-------------------------------|
Ab|------------------------------------|-------------------------------|
Eb|------------------------------------|-------------------------------|


Eb|-----------------------------------------------------10-11-12-11-10-|
Bb|----9----9----------------10-11-12-11-10----12-11-12----------------|
Gb|------10---10----12-10-12----------------12-------------------------|
Db|-17-----------12----------------------------------------------------|
Ab|--------------------------------------------------------------------|
Eb|--------------------------------------------------------------------|


Eb|------|-10-11-12-14b16-------r-12-10-12-11b13---r---14b15--14--13b14-|
Bb|-12---|--------------------------------------------------------------|
Gb|------|--------------------------------------------------------------|
Db|------|--------------------------------------------------------------|
Ab|------|--------------------------------------------------------------|
Eb|------|--------------------------------------------------------------|


Eb---15-14-15-14----14-15-17-15-14----|-14-15-17-15-14----15-17-19-17-15-|
Bb---------------15----------------15-|----------------17----------------|
Gb------------------------------------|----------------------------------|
Db------------------------------------|----------------------------------|
Ab------------------------------------|----------------------------------|
Eb------------------------------------|----------------------------------|



                      *  Harmony

Eb----15-17/-20-19~---19-17-19b20----20-22b24------------|-------------|
Bb-17-----------------------------17-19-20b22-------r----|-------------|
Gb--------------------16-17-19---------------------------|-------------|
Db-------------------------------------------------------|-------------|
Ab-------------------------------------------------------|-------10h12-|
Eb-------------------------------------------------------|-10h13-------|
                                                           "Rattlehead..."

Eb----------------------------------------------------------------------|
Bb-------------------------------------------------------9-10-9-------9-|
Gb-------------------------------------10----------10h12--------12-10---|
Db-------------10----------10h12-10h12----12-10h12----------------------|
Ab-------10h12----12-10h12----------------------------------------------|
Eb-10h13----------------------------------------------------------------|


Eb-------8-10-8b10--r-10-10b11--r|--13-12b13--r--13-12-13-17-15-13----15-|
Bb-10-12-------------------------|---------------------------------17----|
Gb-------------------------------|---------------------------------------|
Db-------------------------------|---------------------------------------|
Ab-------------------------------|---------------------------------------|
Eb-------------------------------|---------------------------------------|



                                              SECTION C: BOTH GUITARS

Eb-13-----------17/-20---20b22------------r-|-||------------------------|
Bb----17-15-13------------------------------|-||*-----------------------|
Gb------------------------------------------|-||------------5---------7-|
Db------------------------------------------|-||----5--7----3----7----5-|
Ab------------------------------------------|-||*---3--5---------5------|
Eb------------------------------------------|-||------------------------|
                                                            "You..."  "Your..."

Eb|---------------------------|----------------------------------------|
Bb|---------------------------|----------------------------------------|
Gb|---------5-----------------|-----------5---------7---------5--------|
Db|----7----3----7----x--x--x-|-5--6-7----3----7----5----7----3----7---|
Ab|----5---------5----x--x--x-|-3--4-5---------5---------5---------5---|
Eb|-------------------x--x--x-|----------------------------------------|
            "Head..."                     "Is pounding with pain..."

Eb-----------||--------------------------------------------------------|
Bb----------*||--------------------------------------------------------|
Gb-7/-8\-7---||-------------5------------7-5---------5-----------------|
Db-5/-6\-5---||---5--6-7----3-----7------5-3---7-----3----7----x--x--x-|
Ab----------*||---3--4-5--------x-5--x-x-------5---x------5----x--x--x-|
Eb-----------||-----------------x----x-x-----------x-----------x--x--x-|
                            "Winning..." "sinning..." "beginning..."

Eb-|------------------------------------------------------|------------|
Bb-|------------------------------------------------------|------------|
Gb-|-----------5------------7-5---------5--------7/-8\-7--|------------|
Db-|-5--6-7----3-----7------5-3---7-----3----7---5/-6\-5--|---5--6-7---|
Ab-|-3--4-5--------x-5--x-x-------5---x------5------------|---3--4-5---|
Eb-|---------------x----x-x-----------x-------------------|------------|
               "Feeding..." "the needing..." "for bleeding..."

Eb|---------------------------------------------|-----------------------|
Bb|---------------------------------------------|-----------------------|
Gb|--5------------7-5---------5-----------------|-----------5---------7-|
Db|--3-----7------5-3---7-----3----7----x--x--x-|-5--6-7----3-----7-5-5-|
Ab|------x-5--x-x-------5---x------5----x--x--x-|-3--4-5--------x-5-----|
Eb|------x----x-x-----------x-----------x--x--x-|---------------x-------|
     "Bashing..." "smashing..." "crashing..."               "Frying..."


                                     LEAD 3: GUITAR 2

Eb|--------------------------------|------------------------------------|
Bb|--------------------------------|------------------------------------|
Gb|-7-7-5--------8-----------------|-7h10-7-10-7-10-7-10-7-10-7-10-7-10-|
Db|-5-5-3---7----6----7------(7)---|------------------------------------|
Ab|---------5---------5------(5)---|------------------------------------|
Eb|--------------------------------|------------------------------------|
      "Annihilating you..."

Eb|------------------------------------------|----------r----------14-13-|
Bb|---------------r--------------------------|-13b15------15-13-15-------|
Gb|-7-10--10--------7----7-------------------|---------------------------|
Db|-------------------10---10-7--------------|---------------------------|
Ab|-----------------------------10-8-8-------|---------------------------|
Eb|------------------------------------------|---------------------------|


Eb|-------13-----------------------------------------------------------|
Bb|-15-14----15-14-13--14-15-14-13-------12----------------------------|
Gb|--------------------------------14-13----14-13-12-13-14-13-12-------|
Db|--------------------------------------------------------------15-12-|
Ab|--------------------------------------------------------------------|
Eb|--------------------------------------------------------------------|


Eb|----------|-------------------------------r-13-12-13-17-15-13----15-|
Bb|----------|----------12-13-14-15b17---------------------------17----|
Gb|----------|-11-12-14------------------------------------------------|
Db|----12-15-|---------------------------------------------------------|
Ab|-15-------|---------------------------------------------------------|
Eb|----------|---------------------------------------------------------|


Eb-13-----------17/-20---20b22------|--r-b2---r-b2---------r-----------|
Bb----17-15-13----------------------|----------------------------------|
Gb----------------------------------|----------------------------------|
Db----------------------------------|----------------------------------|
Ab----------------------------------|----------------------------------|
Eb----------------------------------|----------------------------------|



               LEAD 3 RHYTHM: GUITAR 1

Eb-----------|-||------------------------------------------------------|
Bb-----------|-||*-----------------------------------------------------|
Gb-----------|-||---2---2-----2----------------2---2-----2-------2-----|
Db-----------|-||---0---0-----0---3-2-3-2-0----3---3-----3---3-5---5-3-|
Ab-----------|-||*--------------------------3--------------------------|
Eb-----------|-||------------------------------------------------------|



                                                                SECTION D: BOTH GUITARS

Eb|----|-----------------------------------------------------||-||-----|
Bb|----|----------------------------------------------------*||-||*----|
Gb|----|-2---2-----2----------------2---2-----4--5-----------||-||---2-|
Db|-2--|-0---0-----0---3-2-3-2-0----3---3-----2--3---5---5---||-||---0-|
Ab|----|-------------------------3-------------------3---4--*||-||*----|
Eb|----|-----------------------------------------------------||-||-----|


Eb|-----------------------------------------------------|--------------|
Bb|-----------------------------------------------------|--------------|
Gb|---2----2----4-5-4-3-2-0--2---2----2----5-3-5-3-2-0--|--------------|
Db|---0----0-----------------0---0----0-----------------|-5---5----5---|
Ab|-----------------------------------------------------|-3---3----3---|
Eb|-----------------------------------------------------|--------------|
           "There's someone back in the shadows..."                   "You feel though
you can't see his eyes..."


                                                  SECTION E: BOTH GUITARS

Eb|--------------------------------------------||-||--------------------|
Bb|-------------------------------------------*||-||*-------------------|
Gb|--2-3-2-3-2-0--2---2----2---5-3-2-0-2-3-5---||-||--------------------|
Db|---------------0---0----0-------------------||-||---7---------5----7-|
Ab|-------------------------------------------*||-||*--5----6----3----5-|
Eb|--------------------------------------------||-||--------4-----------|
                                           4x

Eb----------------------------------------|-----------------------------|
Bb----------------------------------------|-----------------------------|
Gb----------------------------------------|-----------------------------|
Db----------------------------------------|-7---------5----7------------|
Ab----------------------------------------|-5----6----3----5------------|
Eb----4-4-4-4--4-4-4-4--4-4-4-4--4-4-4-4--|------4--------------4-4-4-4-|
                                                                "Rattlehead..."


                                   SECTION F: BOTH GUITARS

Eb------------------------------||-------------------------------------|
Bb-----------------------------*||---------------------1p0-------------|
Gb------------------------------||---2---2-----2---5p0-----2p0--2---2--|
Db------------------------------||---0---0-----0----------------0---0--|
Ab-----------------------------*||-------------------------------------|
Eb--4-4-4-4--4-4-4-4--4-4-4-4---||-------------------------------------|


Eb|---------------------|-----------------------------------------------|
Bb|--------1h3----------|-------------------1p0-------------------------|
Gb|----2-------2p0-2p0--|-2---2-----2---5p0-----2p0--2---2-----2--5-----|
Db|----0----------------|-0---0-----0----------------0---0-----0--5---5-|
Ab|---------------------|---------------------------------------------5-|
Eb|---------------------|-----------------------------------------------|



           LEAD 4: GUITAR 1

Eb|------|-------------------------------------------------------------|
Bb|------|-------------------------------------------------------------|
Gb|---7--|-------------7p0-----------------------------7p0-------------|
Db|---7--|---------7p0-----7p0-----7p0-------------7p0-----7p0-----7p0-|
Ab|------|-5p0-5p0-------------5p0-----5p0-5p0-5p0-------------5p0-----|
Eb|------|-------------------------------------------------------------|


Eb|-----------------|--------------------------------------------------|
Bb|-----------------|--------------------------------------------------|
Gb|-----7-7-7-7-7-7-|-7-7--7-7-7-7-7-7-7-7--7-7-7-6-6-6-5-5--3-3-3-5-5-|
Db|-----------------|--------------------------------------------------|
Ab|-5p0-------------|--------------------------------------------------|
Eb|-----------------|--------------------------------------------------|


Eb|-------------------|--------------------------------------------------|
Bb|----------15--15~--|-------------15--15~---------15-15-15-15-15-15-15-|
Gb|-5-6-6-7--14--13~--|---5--5-6-7--14--13~---5--x-----------------------|
Db|-------------------|--------------------------------------------------|
Ab|-------------------|--------------------------------------------------|
Eb|-------------------|--------------------------------------------------|


Eb|----------------15p14-13--------------|-----------------------------|
Bb|-15-13h14-13h14----------15--13-12-11-|-10--------------------------|
Gb|--------------------------------------|----12-11-10-9---------------|
Db|--------------------------------------|---------------12-11-10-9----|
Ab|--------------------------------------|--------------------------12-|
Eb|--------------------------------------|-----------------------------|


Eb|----------20b22----20~20-20-20---r--19-18-20--19-18-17----17--|-----|
Bb|-------------------------------------------------------20-----|-18--|
Gb|--------------------------------------------------------------|-----|
Db|--------------------------------------------------------------|-----|
Ab|-11-10-9------------------------------------------------------|-----|
Eb|--------------------------------------------------------------|-----|


Eb|--------------------r-------------------------------------------------|
Bb|-20--18--17h18----------17-17~--17--15------15--17--17-15----15-------|
Gb|----------------------------------------17----------------17----16-17-|
Db|----------------------------------------------------------------------|
Ab|----------------------------------------------------------------------|
Eb|----------------------------------------------------------------------|


Eb|----------|---------r-20-20-18-17-20p18-17--17p15----15---------------|
Bb|-15-16b17-|---(16)--------------------------------18----18-17--15-15--|p
Gb|----------|-----------------------------------------------------------|
Db|----------|-----------------------------------------------------------|
Ab|----------|-----------------------------------------------------------|
Eb|----------|-----------------------------------------------------------|


Eb|----------------------------------------|---------------------------|
Bb|-13-----13-13p11------------------------|---------------------------|
Gb|----15-----------14--14-14p12-----12-12-|---------------------------|
Db|------------------------------15--------|-15-14--15-15p14-12--12-12-|
Ab|----------------------------------------|---------------------------|
Eb|----------------------------------------|---------------------------|


Eb|--------------------------------------------------------------------|
Bb|--------------------------------------------------------------------|
Gb|--------------------------------------------------10h12-14-15-16-17-|
Db|-----------------------------------------10h12-14-------------------|
Ab|-15p12--13-12-------------------10h12-13----------------------------|
Eb|--------------15-13-12-10h12-13-------------------------------------|


Eb|----------17h20-||----20b22--20b22---18h20-18-17--------------------|
Bb|-15-16-17-------||*------------------------------20p18-17-17--------|
Gb|----------------||--------------------------------------------------|
Db|----------------||--------------------------------------------------|
Ab|----------------||*-------------------------------------------11-12-|
Eb|----------------||--------------------------------------------------|



                                                          LEAD 4 RHYTHM: GUITAR 2

Eb|-------------------------------------20--17h20-17---||-||-----------|
Bb|----------------------------15h17-18---------------*||-||*----------|
Gb|-------------------14-15-17-------------------------||-||---2---2---|
Db|-------13-14-16h17----------------------------------||-||---0---0---|
Ab|-14h15---------------------------------------------*||-||*----------|
Eb|----------------------------------------------------||-||-----------|
                                                  4x

Eb|-----------------------------------------------|---------------------|
Bb|-----------------------------------------------|---------------------|
Gb|---2---5-3-5-3-2-0--2---2-----2---5-3-5-3-2-0--|---------------3-2-3-|
Db|---0----------------0---0-----0----------------|-5---5-----5---------|
Ab|-----------------------------------------------|-3---3-----3---------|
Eb|-----------------------------------------------|---------------------|


Eb|--------------------------------------||-||-------------------------|
Bb|-------------------------------------*||-||*------------------------|
Gb|-2-0-0--2---2----2--5-3-2-0-2-3-2-0---||-||---2---2-----2---5-4-5-4-|
Db|--------0---0----0--------------------||-||---0---0-----0-----------|
Ab|-------------------------------------*||-||*------------------------|
Eb|--------------------------------------||-||-------------------------|


Eb|---------------------------------|----------------------------------|
Bb|---------------------------------|----------------------------------|
Gb|-2-0--2---2-----2---5-4-5-4-2-0--|---------------4-2-4-2-0-0--2---2-|
Db|------0---0-----0----------------|-5---5-----5----------------0---0-|
Ab|---------------------------------|-3---3-----3----------------------|
Eb|---------------------------------|----------------------------------|


Eb|-------------------------||-||--------------------------------------|
Bb|------------------------*||-||*-------------------------------------|
Gb|----2--5-4-2-0-2-3-2-0---||-||--------------------------------------|
Db|----0--------------------||-||---7---------5----7-------------------|
Ab|------------------------*||-||*--5----6----3----5-------------------|
Eb|-------------------------||-||--------4--------------4-4-4-4--4-4-4-|


Eb----------------------|-----------------------------------------------|
Bb----------------------|-----------------------------------------------|
Gb----------------------|-----------------------------------------------|
Db----------------------|-7---------5----7------------------------------|
Ab----------------------|-5----6----3----5------------------------------|
Eb-4--4-4-4-4--4-4-4-4--|------4--------------4-4-4-4--4-4-4-4--4-4-4-4-|
                                              "I'm a rattlehead..."


                 SECTION G: BOTH GUITARS

Eb------------||--------------------------------------------------------|
Bb-----------*||--------------------------------------------------------|
Gb------------||--------------------------------------------------------|
Db------------||---0-0-7-7-0-5-5--0-8-8-0-7-7-0-5-5--0-0-7-7-0-5-5--0-8-|
Ab-----------*||--------------------------------------------------------|
Eb--4-4-4-4---||--------------------------------------------------------|


Eb----------------|-----------------------------------------------------|
Bb----------------|-----------------------------------------------------|
Gb----------------|-----------------------------------------------------|
Db-8-0-7-7-0-5-5--|--0-0-7-7-0-5-5--0-8-8-0-7-7-0-5-5--0-0-7-7-0-5-5--0-|
Ab----------------|-----------------------------------------------------|
Eb----------------|-----------------------------------------------------|


Eb-----------------|---------------------------------------------------|
Bb-----------------|---------------------------------------------------|
Gb-----------------|---------------------------------------------------|
Db-8-8-0-7-7-0-5-5-|---0-0-7-7-0-5-5--0-8-8-0-7-7-0-5-5--0-0-7-7-0-5-5-|
Ab-----------------|---------------------------------------------------|
Eb-----------------|---------------------------------------------------|


Eb---------------------|-----------------------------------------------|
Bb---------------------|-----------------------------------------------|
Gb---------------------|------------------------------------7-----7----|
Db--0-8-8-0-7-7-0-5-5--|--0-0-7-7-0-5-5--0-8-0-------3------7-----7----|
Ab---------------------|-----------------------3-4-5---5-3--5-----5----|
Eb---------------------|-----------------------------------------------|



               END: BOTH GUITARS

Eb-----------|---------------------------------------------------------|
Bb-----------|---------------------------------------------------------|
Gb--7-----7--|---------------------------------------------------------|
Db--7-----7--|---7------------7------------7------------7------------7-|
Ab--5-----5--|---5-5-5-5-5-5--5-5-5-5-5-5--5-5-5-5-5-5--5-5-5-5-5-5--5-|
Eb-----------|---------------------------------------------------------|


Eb|-------------|------------------------------------------------------|
Bb|-------------|------------------------------------------------------|
Gb|-------------|----------------------------------------7----------7--|
Db|-------------|-7------------7------------7------------7----------7--|
Ab|-5-5-5-5-5---|-5-5-5-5-5-5--5-5-5-5-5-5--5-5-5-5-5-5--5----------5--|
Eb|-------------|------------------------------------------------------|
                                                            "Rattle your goddamn head..."

Eb-----*-|
Bb-----*-|
Gb-7\--*|-
Db-7\--*|-
Ab-5\--*|-
Eb-----*|-




CHOSEN ONES



   SECTION A: BOTH GUITARS (detune 1/4 step from normal)

Eb-||----------------------------------------------------|-------------|
Bb-||*---------------------------------------------------|-------------|
Gb-||---5b-----------------------5-----------------------|-5-----------|
Db-||-------------7-----5-----------------7-----5--------|----------7--|
Ab-||*------0--0-----0-----6--7-----0--0-----0-----6--7--|----0--0-----|
Eb-||----------------------------------------------------|-------------|
               "You doubt your strength or courage..."           "Don't come to join 
with me..."


                                              SECTION B: BOTH GUITARS

Eb-----------------------------------------||---------------------------|
Bb----------------------------------------*||---9---------7-------------|
Gb------------7--6--5----------------------||---9---------7---------5---|
Db----5----------------7--6--5-------------||---9------x--7----8--------|
Ab-0-----6--7-------------------7--6p5-0--*||---7------x--5----8------0-|
Eb-----------------------------------------||------------------6--------|
                                       4x          "An animal so vicious..."

Eb-----------------------------|----------------------------------------|
Bb-----------------------------|-9-------7----10------------------------|
Gb-------------5---------------|-9-------7----10----5---------------7-6-|
Db---7---5-----------7---5-----|-9-------7----10----------7---5---------|
Ab-0---0---6-7---0-0---0---6-7-|-7-------5-----8------0-0---0---6-7-----|
Eb-----------------------------|---------------8------------------------|
   "No others fought and won..."    "So on the fields of battle..." "We are the chosen ones..."


                     SECTION C: GUITAR 1 Interlude Lick:

Eb-----------------|-----------||--------------------------------------|
Bb-----------------|-----------||*-------------------------------------|
Gb-5---------------|---2-------||---0h2-4-5-4-2-0----------------5p4-2-|
Db---7-6-5---------|---2-------||-----------------5p4-2-0--------------|
Ab---------7-6p5-0-|---0-------||*-------------------------0h2-3-------|
Eb-----------------|-----------||--------------------------------------|
                                   "Black shadows fill the sky..."

Eb|-----------|--------------------------------------------------------|
Bb|-----------|--------------------------------------------------------|
Gb|-0---------|---------5p4-2-0------------------5p4-2-0-2---0---------|
Db|---5p4-2-0-|-----------------5p4-2-0--------------------------2---0-|
Ab|-----------|---0h2-3--------------------0h2-3-----------------------|
Eb|-----------|--------------------------------------------------------|
                "As the creature's eyes grow near..."               4x


       SECTION C: GUITAR 2

Eb--||-----------||----------------------------|-----------------------|
Bb-*||-----------||*---------------------------|-----------------------|
Gb--||---2-------||--2-----------5-------------|-4--------------3------|
Db--||---2-------||--2-----------5-------------|-4--------------3------|
Ab-*||---0-------||*-0-----------3-------------|-2--------------1------|
Eb--||-----------||----------------------------|-----------------------|

                         SECTION C EXTENSION: GUITAR 1

Eb|-------------------||-||---------------------------------------------|
Bb|------------------*||-||*--------------------------------------------|
Gb|----2---0----------||-||---------0h5-4-2-0-------------------0h5-4-2-|
Db|------------2---0--||-||-------------------5p4-2-0-------------------|
Ab|------------------*||-||*--0h2-3-----------------------0h2-3---------|
Eb|-------------------||-||---------------------------------------------|
                  4x          "Heaven's powers fill my arms..."

Eb|---------------|----------------------------------------------------|
Bb|---------------|----------------------------------------------------|
Gb|-0-------------|-------0h5-4-2-0-------------------0h5-4-2-0-2---0--|
Db|---5p4-2-0-----|-----------------5p4-2-0----------------------------|
Ab|---------------|-0h2-3-----------------------0h2-3------------------|
Eb|---------------|----------------------------------------------------|
                    "Onward now to fight I'm sent..."


             SECTION C EXTENSION: GUITAR 2

Eb--------||-||-----------------------------------------------------|---|
Bb-------*||-||*----------------------------------------------------|---|
Gb--------||-||-----------------------5------------------------4----|---|
Db-2---0--||-||---2---------2---------5----2---------2---------4----|-2-|
Ab-------*||-||*--0--0-0-0--0--0-0-0--3----0--0-0-0--0--0-0-0--2----|-0-|
Eb--------||-||-----------------------------------------------------|---|

                                                         LEAD: GUITAR 1

Eb|---------------------------------------------------||---------------|
Bb|--------------------------------------------------*||---9b10--------|
Gb|-------------------3-------------------------------||---9b10--------|
Db|---------2---------3----2-----------7---5----------||---------------|
Ab|--0-0-0--0--0-0-0--1----0--0-0-0--0---------7---5-*||---------------|
Eb|---------------------------------------------------||---------------|


Eb---------------------------------------------|-------------------------|
Bb---------------9--7--------------------------|---------------7h8-10-10-|
Gb--9p8-9p7-9----9--7-7h9-7-9-7-9-7-9-7-9-7-9--|---------7--10-----------|
Db------------9--------------------------------|-7h8-9-9-----------------|
Ab---------------------------------------------|-------------------------|
Eb---------------------------------------------|-------------------------|


Eb-----7-----------------------------------------|-----------------------|
Bb--10---10-7-10-7-10-7--------------------------|-----------------------|
Gb----------------------9b--7-9-7---7------------|--------9-8------------|
Db--------------------------------9---9-7---7-9--|---7h10-----7------10--|h
Ab----------------------------------------9------|--------------10-------|
Eb-----------------------------------------------|-----------------------|


Eb--------------------------------------------15-14--15--17-|-20p19-17--|p
Bb------------------------14-13---------13h17---------------|-----------|
Gb----12-11---------11h14----------11-----------------------|-----------|
Db-13----------12---------------14--------------------------|-----------|
Ab----------13----------------------------------------------|-----------|
Eb----------------------------------------------------------|-----------|


Eb-15--------14h15-17-20p19-17--------------------14h15-17-15-14-15-17--|p
Bb----15b16--------------------20p19-17--------16-----------------------|
Gb--------------------------------------19b20---------------------------|
Db----------------------------------------------------------------------|
Ab----------------------------------------------------------------------|
Eb----------------------------------------------------------------------|


Eb-15-14-15-14-------------|---------------------------------r------22-|
Bb-------------17-15-14----|--22b24------22b24--------22b24---p19------|
Gb----------------------16-|-------------------------------------------|
Db-------------------------|-------------------------------------------|
Ab-------------------------|-------------------------------------------|
Eb-------------------------|-------------------------------------------|


Eb-----22---r---22--19--|-22-20-19--------------------------12--15p12-----|
Bb----------------------|----------22-20-19---------------------------15--|p
Gb----------------------|-------------------20b22-------------------------|
Db----------------------|-------------------------------------------------|
Ab----------------------|-------------------------------------------------|
Eb----------------------|-------------------------------------------------|


Eb-------------------------|--------------------------------------------|
Bb-12----------------------|--------------------------------------------|
Gb----14p12----------------|--------------------------------------------|
Db----------14b15----------|-----------------------------14-15-14-------|
Ab-------------------------|--------------14-15-14-15-17----------17-15-|
Eb-------------------------|-15--17-15-17-------------------------------|


Eb----------------------------------------------------------|----------|
Bb----------------------------------------------------------|----------|
Gb-------------------------14----14-16-17-16-14-16-14----14-|-14-16-17-|
Db----------------14-16-17----17----------------------17----|----------|
Ab-14-------16-17-------------------------------------------|----------|
Eb----17-15-------------------------------------------------|----------|


Eb-------------------------------------------------15-17-19-19-20-22-22-|
Bb-14-15-16-17-18-19-19-18-17-------------15-17-19----------------------|
Gb----------------------------19-18-17----------------------------------|
Db-------------------------------------19-------------------------------|
Ab----------------------------------------------------------------------|
Eb----------------------------------------------------------------------|


Eb-20-19--------------|--------------------------------------------------|
Bb-------20-22-20-19--|--------------------------------------------------|
Gb--------------------|--------------------------------------------------|
Db--------------------|--------------------------------------------------|
Ab--------------------|--------------------------------------10-11-12-13-|
Eb--------------------|--10-11-12-13-12-13-14-15-13-14-15-16-------------|


Eb--------------------------------------------------|-------------------|
Bb--------------------------------------------------|-------------------|
Gb--------------------------------------------------|-------------10h12-|
Db-------------------------10-11-12-13-12-13-14-15--|-14-15-16-17-------|
Ab-12-13-14-15-13-14-15-16--------------------------|-------------------|
Eb--------------------------------------------------|-------------------|


Eb----------------------------------------13----------------------13-15-|
Bb-------------------13h15-13----13-15-16----16-15-13----13-15-16-------|
Gb-10----10-12-14-15----------15----------------------15----------------|
Db----14----------------------------------------------------------------|
Ab----------------------------------------------------------------------|
Eb----------------------------------------------------------------------|


Eb-13-15-13--|-17-18-17-15-17-15--14-15-14----14-----------------------|
Bb-----------|-----------------------------17----15--14-15-14----14----|
Gb-----------|------------------------------------------------16----15-|
Db-----------|---------------------------------------------------------|
Ab-----------|---------------------------------------------------------|
Eb-----------|---------------------------------------------------------|


Eb---------------------------------------|-----------------------------|
Bb---------------------------------------|-----------------------------|
Gb--14-15-14----14-----------------------|-----------------------------|
Db-----------17----17--14-15-14----14----|-----------------------------|
Ab------------------------------17----15-|-----------------------------|
Eb---------------------------------------|--17-17-16-16-15-15-14-14-13-|


Eb------------------------------------------------------|-||---------17-|
Bb------------------------------------------------------|-||*--17h20----|
Gb------------------------------------------------------|-||------------|
Db------------------------------------------------------|-||------------|
Ab------------------------------------------------------|-||*-----------|
Eb-13-12-12-11-11-10-10-9-9-8-8-7-7-6-6-5-5-4-4-3-3-2-2-|-||------------|


Eb--22p20-17--20p19-17--20p19-17--------17--22p20-17--20p19-17--20p19-17-|
Bb--------------------------------17h20----------------------------------|
Gb-----------------------------------------------------------------------|
Db-----------------------------------------------------------------------|
Ab-----------------------------------------------------------------------|
Eb-----------------------------------------------------------------------|


Eb--|-------17--22p20-17--20p19-17--20p19-17-----17--------------------|
Bb--|-17h20-----------------------------------16----16h19--17h20/-21---|
Gb--|------------------------------------------------------------------|
Db--|------------------------------------------------------------------|
Ab--|------------------------------------------------------------------|
Eb--|------------------------------------------------------------------|

              LEAD RHYTHM: GUITAR 2

Eb---------||-||-------------------------------------------------------|
Bb--------*||-||*------------------------------------------------------|
Gb---------||-||-------------------------------------------------------|
Db---------||-||-------------------------------------------------------|
Ab--------*||-||*--2-2-2-2-0-0-2-2-3-3-3-3-5-5-3-3-2-2-2-2-0-0-2-2-3-3-|
Eb---------||-||-------------------------------------------------------|


Eb|-------------|------------------------------------------------------|
Bb|-------------|------------------------------------------------------|
Gb|-------------|------------------------------------------------------|
Db|-------------|-------------------------------------------------4----|
Ab|-3-3-5-5-3-3-|-2-2-2-2-0-0-2-2-3-3-3-3-5-5-3-3-2-2-2-2-0-0-3-3-2----|
Eb|-------------|------------------------------------------------------|


Eb|-------||-----------------------------------------------------------|
Bb|------*||-----------------------------------------------------------|
Gb|-------||-----------------------------------------------------------|
Db|-------||---------------------------3-3-----------------------------|
Ab|------*||---5-5-5-5-3-3-5-5-6-6-6-6-----6-6-5-5-5-5-3-3-5-5-6-6-6-6-|
Eb|-------||-----------------------------------------------------------|
       4x

Eb|---------|-----------------------------------------------------------|
Bb|---------|-----------------------------------------------------------|
Gb|---------|-----------------------------------------------------------|
Db|-3-3-----|-------------------------3-3-----------------------------3-|
Ab|-----6-6-|-5-5-5-5-3-3-5-5-6-6-6-6-----6-6-5-5-5-5-3-3-5-5-6-6-6-6---|
Eb|---------|-----------------------------------------------------------|


Eb|--------|-----------------------------------------------------------|
Bb|--------|-----------------------------------------------------------|
Gb|--------|-----------------------------------------------------------|
Db|-3------|---------------------------3-3-----------------------------|
Ab|---6-6--|---5-5-5-5-3-3-5-5-6-6-6-6-----6-6-5-5-5-5-3-3-5-5-6-6-6-6-|
Eb|--------|-----------------------------------------------------------|


Eb|---------|----------------------------------------------------------|
Bb|---------|----------------------------------------------------------|
Gb|---------|----------------------------------------------------------|
Db|-3-3-----|-------------------------3-3-------------------7------7---|
Ab|-----6-6-|-5-5-5-5-3-3-5-5-6-6-6-6-----6-6-5-5-5-5-3-3-x-5--x-x-5---|
Eb|---------|----------------------------------------------------------|

         SECTION D: BOTH GUITARS

Eb|----|---------0----0--------------0----0---------|-------0----0------|
Bb|----|-------------------0-------------------0----|-----------------0-|
Gb|----|---10-------------------9-------------------|--8----------------|
Db|----|---10-------------------9-------------------|--8----------------|
Ab|----|----8-------------------7-------------------|--6----------------|
Eb|----|--------------------------------------------|-------------------|
                           "I reign..."        "for now..."           "I stay..."


                             SECTION E: GUITAR 1

Eb|---------0----0---------|--------------------------------------------|
Bb|-------------------0----|--------------------------------------------|
Gb|----5-------------------|--------4-3-2----------5-4-3----------6-5-4-|
Db|----5-------------------|--------------4-3------------5-4------------|
Ab|----3-------------------|---2--2-----------3--3-----------4--4-------|
Eb|------------------------|--------------------------------------------|


Eb|--------------------|-----------------------------------------------|
Bb|--------------------|--------------------------------8-----8-----8--|
Gb|----------7-6-5-----|------8-7-6----------9-8-7------7-----7-----7--|
Db|-6-5------------7-6-|------------8-7------------9-8--6-----6-----6--|
Ab|-----5--5-----------|-6--6-----------7--7------------7-----7-----7--|
Eb|--------------------|-----------------------------------------------|
                                                   "I stay to kill..."


            SECTION E: GUITAR 2

Eb|------||-------------------------------------------------------------|
Bb|--\---||-------------------------------------------------------------|
Gb|--\---||-------------------------------------------------------------|
Db|--\---||-------------------------------------------------------------|
Ab|--\---||---2--2-2-1-0-----3--3-3-2-1-----4--4-4-3-2-----5--5-5-4-3---|
Eb|------||--------------2-1------------3-2------------4-3------------5-|

                                                             SECTION F: BASS LICK

Eb|---|---------------------------------------------------||-----------|
Bb|---|---------------------------------------------------||-----------|
Gb|---|--------------------------------9------------------||-3/--9--8--|
Db|---|--------------------------------9-----9-----2------||-----------|
Ab|---|-6--6-6-5-4-----7--7-7-6-5------7-----9-----2------||-----------|
Eb|-4-|------------6-5------------7-6--------7-----0------||-----------|


Eb|--------------------------------------------|------------------------|
Bb|--------------------------------------------|------------------------|
Gb|-7------------------7--6--5-----------------|--5--4--3---------------|
Db|----9--8--7--8-7-6-----------7--6--5--6-5-4-|-----------5--4--3--4-3-|
Ab|--------------------------------------------|------------------------|
Eb|--------------------------------------------|------------------------|

                                  END: BOTH GUITARS

Eb|-----------------------------|---------------------------------------|
Bb|-----------------------------|---9---------7-------------------------|
Gb|----3--2--1------------------|---9---------7---------5---------------|
Db|-2-----------3--2--1--2-1-0--|---9------x--7----8----------7---5-----|
Ab|-----------------------------|---7------x--5----8------0-0---0---6-7-|
Eb|-----------------------------|------------------6--------------------|
                                       "You doubt your strength or courage..." "Don't
to join with me..."

Eb-----------------|-----------------------------------------------------|
Bb-----------------|-9-------7----10-------------------------------------|
Gb-5---------------|-9-------7----10----5---------------7-6-5------------|
Db-------7---5-----|-9-------7----10----------7---5-----------7-6-5------|
Ab---0-0---0---6-7-|-7-------5-----8------0-0---0---6-7-------------7-6--|p
Eb-----------------|---------------8-------------------------------------|
                         "For Deth surely waits you..." "With sharp and pointy teeth..."

Eb-----|-------------------------------------------------------|-------|
Bb-----|---9---------7-----------------------------------------|-9-----|
Gb-----|---9---------7---------5---------------5---------------|-9-----|
Db-----|---9------x--7----8----------7---5-----------7---5-----|-9-----|
Ab-5-0-|---7------x--5----8------0-0---0---6-7---0-0---0---6-7-|-7-----|
Eb-----|------------------6------------------------------------|-------|
              "An animal so vicious..." "No others fought and won..." "So on the
 fields of battle..."

Eb--------------------------------------------------|------------------|
Bb---7----10----------------------------------------|------------------|
Gb---7----10----5---------------7-6-5---------------|--2--------2------|
Db---7----10----------7---5-----------7-6-5---------|--2--------2------|
Ab---5-----8------0-0---0---6-7-------------7-6p5-0-|--0--------0------|
Eb---------8----------------------------------------|------------------|
                    "We are the chosen ones..."

Eb|-----------------------|------------------------------------*-|
Bb|-----------------------|------------------------------------*-|
Gb|--------------(2)------|--2---------------------------------*-|
Db|--------------(2)------|--2---------------------7\----------*-|
Ab|--------------(0)------|--0---------------------7\----------*-|
Eb|-----------------------|------------------------5\----------*-|




LOOKING DOWN THE CROSS


Riff 1
Guitar 1
e|-7----------------------6----------------------|
B|-----------------------------------------------|
G|----<24>-<24>-<24>-<24>----<24>-<24>-<24>-<24>-|
D|-----------------------------------------------|
A|-----------------------------------------------|
E|-7----------------------6----------------------|

e|-7----------------------6----------------------|
B|-----------------------------------------------|
G|----<24>-<24>-<24>-<24>----<24>-<24>-<24>-<24>-|
D|-----------------------------------------------|
A|-----------------------------------------------|
E|-7----------------------6----------------------|

e|-10---------------------9----------------------|
B|-----------------------------------------------|
G|----<24>-<24>-<24>-<24>----<24>-<24>-<24>-<24>-|
D|-----------------------------------------------|
A|-----------------------------------------------|
E|-10---------------------9----------------------|

e|-10---------------------9----------------------|
B|-----------------------------------------------|
G|----<24>-<24>-<24>-<24>----<24>-<24>-<24>-<24>-|
D|-----------------------------------------------|
A|-----------------------------------------------|
E|-10---------------------9----------------------|

Guitar 2
e|---------------------------|
B|---------------------------|
G|---------------------------|
D|---------------------------|
A|-2------------1------------|
E|---3--3--3--3---3--3--3--3-|

e|----------------------------|
B|----------------------------|
G|----------------------------|
D|----------------------------|
A|-2------------1-------------|
E|---3--3--3--3---3--3--3-0-3-|

e|---------------------------|
B|---------------------------|
G|---------------------------|
D|---------------------------|
A|-5------------4------------|
E|---3--3--3--3---3--3--3--3-|

e|---------------------------|
B|---------------------------|
G|---------------------------|
D|---------------------------|
A|-5------------4------------|
E|---3--3--3--3---3--3--3--3-|



Riff 1a
Guitar 1
e|-19t15p12-19t15p12--------19t15p12-19t15p12--------19t15p12---------|
B|------------------19t15p12-----------------19p15t12--------19t15p12-|
G|--------------------------------------------------------------------|
D|--------------------------------------------------------------------|
A|--------------------------------------------------------------------|
E|--------------------------------------------------------------------|

e|-18t15p12-18t15p12--------18t15p12-18t15p12--------18t15p12---------|
B|------------------18t15p12-----------------18p15t12--------18t15p12-|
G|--------------------------------------------------------------------|
D|--------------------------------------------------------------------|
A|--------------------------------------------------------------------|
E|--------------------------------------------------------------------|

e|-19t15p12-19t15p12--------19t15p12-19t15p12--------19t15p12---------|
B|------------------19t15p12-----------------19p15t12--------19t15p12-|
G|--------------------------------------------------------------------|
D|--------------------------------------------------------------------|
A|--------------------------------------------------------------------|
E|--------------------------------------------------------------------|

e|-18t15p12-18t15p12--------18t15p12-18t15p12--------18t15p12---------|
B|------------------18t15p12-----------------18p15t12--------18t15p12-|
G|--------------------------------------------------------------------|
D|--------------------------------------------------------------------|
A|--------------------------------------------------------------------|
E|--------------------------------------------------------------------|

e|-22t18p15-22t18p15--------22t18p15-22t18p15--------22t18p15---------|
B|------------------22t18p15-----------------22p18t15--------22t18p15-|
G|--------------------------------------------------------------------|
D|--------------------------------------------------------------------|
A|--------------------------------------------------------------------|
E|--------------------------------------------------------------------|

e|-21t18p15-21t18p15--------21t18p15-21t18p15--------21t18p15---------|
B|------------------21t18p15-----------------21p18t15--------21t18p15-|
G|--------------------------------------------------------------------|
D|--------------------------------------------------------------------|
A|--------------------------------------------------------------------|
E|--------------------------------------------------------------------|

e|-22t18p15-22t18p15--------22t18p15-22t18p15--------22t18p15---------|
B|------------------22t18p15-----------------22p18t15--------22t18p15-|
G|--------------------------------------------------------------------|
D|--------------------------------------------------------------------|
A|--------------------------------------------------------------------|
E|--------------------------------------------------------------------|

e|-21t18p15-21t18p15--------21t18p15-21t18p15--------21t18p15---------|
B|------------------21t18p15-----------------21p18t15--------21t18p15-|
G|--------------------------------------------------------------------|
D|--------------------------------------------------------------------|
A|--------------------------------------------------------------------|
E|--------------------------------------------------------------------|


Guitar 2 keeps playing Riff 1


Riff 1b
Guitar 1 keeps playing Riff 1a

Guitar 2
e|-----------------------------------|
B|-----------------------------------|
G|-----------------------------------|
D|-----------------------------------|
A|-9--------8\--------9--------8\----|
E|-7--------6\--------7--------6\----|
                              "Whoaaaaa..."
e|-----------------------------------|
B|-----------------------------------|
G|-----------------------------------|
D|-----------------------------------|
A|-12-------11\------12-------11\----|
E|-10--------9\------10--------9\----|


Riff 1c
e|------------------------------------|
B|------------------------------------|
G|------------------------------------|
D|------------------------------------|
A|-9--------8-8\------9--------8/9-8--|
E|-7--------6-6\------7--------6/7-6--|
   "Now before they take me..."
e|---------------------------------------|
B|---------------------------------------|
G|---------------------------------------|
D|---------------------------------------|
A|-12-------11-11\----12----12/14-12-11--|
E|-10--------9--9\----10----10/12-10--9--|
   "I'll recall my perils..."
e|------------|
B|------------|
G|------------|
D|------------|
A|-9----9--5--|
E|-7----7--3--|


Riff 2
e|--------------------------|
B|--------------------------|
G|---------4---5-------6----|
D|-2-------4-x-5-------6-x--|
A|-0-0-0-0-2-x-3-0-0-0-4-x--|
E|--------------------------|
     * * *       * * *
  "Whoaaaa..."
e|-------------------------------|
B|-------------------------------|
G|-7-------9---10-----12-----14\-|
D|-7-------9-x-10-----12-----14\-|
A|-5-0-0-0-7-x--8-0-0-10-0-0-12\-|
E|-------------------------------|
     * * *        * *    * *
e|------------------------|
B|------------------------|
G|-------4---5-------6----|
D|-------4-x-5-------6-x--|
A|-0-0-0-2-x-3-0-0-0-4-x--|
E|------------------------|
   * * *       * * *
e|---------------------------|
B|---------------------------|
G|-7-------9---10------7-5-4-|
D|-7-------9-x-10------------|
A|-5-0-0-0-7-x--8-0-0--------|
E|---------------------------|
     * * *        * *

Riff 3
e|------------------------------------------------------|
B|-5------5------5------5--4------4------4--------------|
G|-5------5------5------5--5------5------5------7-5-4-5-|
D|------------------------------------------------------|
A|----0-0----0-0----0-0-------0-0----0-0----0-0---------|
E|------------------------------------------------------|
      * *    * *    * *       * *    * *    * *
  "Though too much to live for..."
e|------------------------------------------------------|
B|-5------5------5------5--7------7------7--------------|
G|-5------5------5------5--5------5------5------7-4-5-4-|
D|------------------------------------------------------|
A|----0-0----0-0----0-0-------0-0----0-0----0-0---------|
E|------------------------------------------------------|
      * *    * *    * *       * *    * *    * *
  "Ask not for salvation..."



Riff 2a
e|--------------------------|
B|--------------------------|
G|---------4---5-------6----|
D|-2-------4-x-5-------6-x--|
A|-0-0-0-0-2-x-3-0-0-0-4-x--|
E|--------------------------|
     * * *       * * *
e|-------------------------------|
B|-------------------------------|
G|-7-------9---10-----12-----14\-|
D|-7-------9-x-10-----12-----14\-|
A|-5-0-0-0-7-x--8-0-0-10-0-0-12\-|
E|-------------------------------|
     * * *        * *    * *
            "Beckoning you in..."
e|------------------------|
B|------------------------|
G|-------4---5-------6----|
D|-------4-x-5-------6-x--|
A|-0-0-0-2-x-3-0-0-0-4-x--|
E|------------------------|
   * * *       * * *
e|----------------------------|
B|--------------------3-------|
G|-7-------9---10-------5-4-3-|
D|-7-------9-x-10-------------|
A|-5-0-0-0-7-x--8-0-0---------|
E|----------------------------|
     * * *        * *



Riff 4 (Solo Rhythm, listen for the rhythm "groove")
e|-------------------------------------------|
B|---------------------------------------4/5-|
G|-2~--4-5~--xx--5-4-2-------2--/4--xxxx-4/5-|
D|---------------------5-3------/3--xxxx-----|
A|-------------------------3-----------------|
E|-------------------------------------------|

e|------------------------------------------------|
B|------------------------------------------------|
G|---22-4-5~--4h5-7p5-4h5-----2-1tr2-xx-5p4p3-4---|
D|------------------------3---------------------3-|
A|-0------------------------3---------------------|
E|------------------------------------------------|

e|--------------------------------------------|
B|---------------[solo begins]------------4/5-|
G|---22-4-5~--4h5-7p5-5p4-----2--/4--xxxx-4/5-|
D|------------------------3------/3--xxxx-----|
A|-0------------------------3-----------------|
E|--------------------------------------------|

e|------------------------------------------------|
B|------------------------------------------------|
G|---22-4-5~--4h5-7p5-4h5-----2-1tr2-xx-5p4p3-4---|
D|------------------------3---------------------3-|
A|-0------------------------3---------------------|
E|------------------------------------------------|


Riff 3a (Solo Rhythm)
e|------------------------------------------------------|
B|-5------5------5------5--4------4------4--------------|
G|-5------5------5------5--5------5------5------7-5-4-5-|
D|------------------------------------------------------|
A|----0-0----0-0----0-0-------0-0----0-0----0-0---------|
E|------------------------------------------------------|
      * *    * *    * *       * *    * *    * *
e|------------------------------------------------------|
B|-5------5------5------5--7------7------7--------------|
G|-5------5------5------5--5------5------5------7-4-5-4-|
D|------------------------------------------------------|
A|----0-0----0-0----0-0-------0-0----0-0----0-0---------|
E|------------------------------------------------------|
      * *    * *    * *       * *    * *    * *
e|------------------------------------------------------|
B|-5------5------5------5--4------4------4--------------|
G|-5------5------5------5--5------5------5--------------|
D|------------------------------------------------------|
A|----0-0----0-0----0-0-------0-0----0-0----0-0-0-0-0-0-|
E|------------------------------------------------------|
      * *    * *    * *       * *    * *    * * * * * *



Solo (Mustaine, comes in where noted above)
e|-----------------------12h13-12-|
B|-5-3----------------------------|
G|-----5-4-2~---------------------|
D|--------------------------------|
A|--------------------------------|
E|--------------------------------|

e|--------------------------------10---10h12-10h12h13-12h13h15-13-15-|
B|-12p10p9h10h12--10h12-13--12h13----13------------------------------|
G|-------------------------------------------------------------------|
D|-------------------------------------------------------------------|
A|-------------------------------------------------------------------|
E|-------------------------------------------------------------------|

e|-15b17-15b17-15b17-15b17-15b17-15b17-15b17~~--15b17-15b17--(17)r15-|
B|-------------------------------------------------------------------|
G|-------------------------------------------------------------------|
D|-------------------------------------------------------------------|
A|-------------------------------------------------------------------|
E|-------------------------------------------------------------------|

[tremolo pick entire bar]
e|-12-13-15-13-12----------------------------------------------|
B|----------------15-13-12-------------------------------------|
G|------------------------14-12-10-----------------------------|
D|--------------------------------13-11-10---------------------|
A|-----------------------------------------13-11-10------------|
E|--------------------------------------------------13-11-10-8-|

e|--------------------------|
B|--------------------------|
G|--------------------------|
D|--------------------------|
A|--------------------------|
E|--X\\--[long pick slide]--|

End Solo


Riff 2b
e|--------------------------|
B|--------------------------|
G|---------4---5-------6----|
D|-2-------4-x-5-------6-x--|
A|-0-0-0-0-2-x-3-0-0-0-4-x--|
E|--------------------------|
     * * *       * * *
   "Down the walkways..."
e|-------------------------------|
B|-------------------------------|
G|-7-------9---10-----12-----14\-|
D|-7-------9-x-10-----12-----14\-|
A|-5-0-0-0-7-x--8-0-0-10-0-0-12\-|
E|-------------------------------|
     * * *        * *    * *
  "...through the blood-stained town..."
e|------------------------|
B|------------------------|
G|-------4---5-------6----|
D|-------4-x-5-------6-x--|
A|-0-0-0-2-x-3-0-0-0-4-x--|
E|------------------------|
   * * *       * * *
  "Looking down the cross.."
e|-------------------------------|
B|-------------------------------|
G|-7-------9---10-----12-----14\-|
D|-7-------9-x-10-----12-----14\-|
A|-5-0-0-0-7-x--8-0-0-10-0-0-12\-|
E|-------------------------------|
     * * *        * *    * *
  "...bleeding from the crown..."
e|------------------------|
B|------------------------|
G|-------4---5-------6----|
D|-------4-x-5-------6-x--|
A|-0-0-0-2-x-3-0-0-0-4-x--|
E|------------------------|
   * * *       * * *
  "Led to slay.."
e|-------------------------------|
B|-------------------------------|
G|-7-------9---10-----12-----14\-|
D|-7-------9-x-10-----12-----14\-|
A|-5-0-0-0-7-x--8-0-0-10-0-0-12\-|
E|-------------------------------|
     * * *        * *    * *
  "...die beside the theives..."
e|------------------------|
B|------------------------|
G|-------4---5-------6----|
D|-------4-x-5-------6-x--|
A|-0-0-0-2-x-3-0-0-0-4-x--|
E|------------------------|
   * * *       * * *
  "Kill the king..."
e|-----------------------------------------------|
B|-----------------------------------------------|
G|-7-------9---10-----12-----14------------------|
D|-7-------9-x-10-----12-----14------------------|
A|-5-0-0-0-7-x--8-0-0-10-0-0-12--[let ring]------|
E|-------------------------------------------X\\-|
     * * *        * *    * *
  "...of the world to be!"


Riff 5
e|---------------------------------|
B|---------------------------------|
G|---------------------------------|
D|-5-----------------5----7--------|
A|-3--------7\-------3----5----7\--|
E|----------5\-----------------5\--|
   "More corrupt..."
                  x8
e|-----------------|
B|-----------------|
G|-----------------|
D|-----------------|
A|-0-0-0-3-0-0-1-0-|
E|-----------------|
   * * * * * * * * *
  "The putrefaction..."
e|---------------------------------|
B|---------------------------------|
G|---------------------------------|
D|-5-----------------5----7--------|
A|-3--------7\-------3----5----7\--|
E|----------5\-----------------5\--|
  "Crushing the bones of a hundred-fold..."



Riff 6                          x3
e|-------------------------------|
B|-------------------------------|
G|-------------------------------|
D|---7\6---5\4---2p0-------------|
A|-0-----0-----0-----3-0h3-2p0---|
E|-----------------------------3-|

e|------------------------------|
B|------------------------------|
G|------------------------------|
D|---7\6---5\4p0----7\6---5\4p0-|
A|-0-----0-------0------0-------|
E|------------------------------|

e|-------------------------------|
B|-------------------------------|
G|-------------------------------|
D|---7\6---5\4---2p0-------------|
A|-0-----0-----0-----3-0h3-2p0---|
E|-----------------------------3-|

e|------------------------------|
B|------------------------------|
G|------------------------------|
D|---7\6---5\4p0----7\6---5\4p0-|
A|-0-----0-------0------0-------|
E|------------------------------|

e|-------------------------------|
B|-------------------------------|
G|-------------------------------|
D|---7\6---5\4---2p0-------------|
A|-0-----0-----0-----3-0h3-2p0---|
E|-----------------------------3-|



Riff 7
e|--------------------------|
B|--------------------------|
G|---------4-5-------6-7----|
D|-2-------4-5-------6-7----|
A|-0-------2-3-------4-5----|
E|--------------------------|
   "And this was all you got..."
e|--------------------|
B|--------------------|
G|-9-10-----12----14\-|
D|-9-10-----12----14\-|
A|-7--8-----10----12\-|
E|--------------------|
   "...bells of Hades rings..."
e|------------------|
B|------------------|
G|-4-5-------6-7----|
D|-4-5-------6-7----|
A|-2-3-------4-5----|
E|------------------|
   "Is this a nightmare..."
e|--------------------|
B|--------------------|
G|-9-10-----12----14\-|
D|-9-10-----12----14\-|
A|-7--8-----10----12\-|
E|--------------------|
   "...dancing in the flames..."
e|------------------|
B|------------------|
G|-4-5-------6-7----|
D|-4-5-------6-7----|
A|-2-3-------4-5----|
E|------------------|
   "No help now..."
e|--------------------|
B|--------------------|
G|-9-10-----12----14\-|
D|-9-10-----12----14\-|
A|-7--8-----10----12\-|
E|--------------------|
   "...has got you by the ass..."
e|------------------|
B|------------------|
G|-4-5-------6-7----|
D|-4-5-------6-7----|
A|-2-3-------4-5----|
E|------------------|
   "Set free..."
e|----------------|
B|----------------|
G|-9-10-----12----|
D|-9-10-----12----|
A|-7--8-----10----|
E|----------------|
   "...you're weeping all alone..."


Guitar fill over Riff 7
e|-------------------------------|
B|-------------------------------|
G|-2-2-2-2-2-2-2-2-2-2-2-2-2-...-|
D|---[tremolo pick]--------------|
A|-------------------------------|
E|-------------------------------|
   "No help now..."



Riff 8 (Solo Rhythm)                      x4
e|-----------------------------------------|
B|-----------------------------------------|
G|-----------------------------------------|
D|-14-----14-13-----13-12-----12-----------|
A|-12-----12-11-----11-10-----10-12--------|
E|-----0---------0---------0-----10--11-12-|
       *         *         *
                                 x4
e|--------------------------------|
B|--------------------------------|
G|--------------------------------|
D|--------------------------------|
A|-7-----7-6-----6-5-----5-5--6-7-|
E|-5--0--5-4--0--4-3--0--3-5--6-7-|
      *       *       *

Solo (Mustaine)
e|----------------------------------|
B|----------------------------------|
G|-14-----14-13-----13-12-----12-11-|
D|-14-----14-13-----13-12-----12-11-|
A|----------------------------------|
E|----------------------------------|

e|--------------------------------------------------|
B|--------------------------------------------------|
G|-----------------------------------------14-16-18-|
D|-----------------12-14-16--------14-16-18---------|
A|---------12-14-15--------12-14-15-----------------|
E|-12-14-15-----------------------------------------|

e|---------15-17-19-22b24--22b24-22b24--22b24-22b24--22b24-|
B|-15-17-19------------------------------------------------|
G|---------------------------------------------------------|
D|---------------------------------------------------------|
A|---------------------------------------------------------|
E|---------------------------------------------------------|

e|-20h22-20h22-20p19------------------|
B|------------------20h22-20h22-20p19-|
G|------------------------------------|
D|------------------------------------|
A|------------------------------------|
E|------------------------------------|

e|-------------------------------------|
B|-13h17-13h16-13----------------------|
G|----------------16-11h15-11h14-11----|
D|----------------------------------15-|
A|-------------------------------------|
E|-------------------------------------|

e|-------------------------------------------------------------------|
B|-------------------------------------------------------------------|
G|-------------------------------------------------------------------|
D|-10h14-10h13-10----------------------------------------------10----|
A|----------------14-9h13-9h12-9-------------------12p10-12-14----14-|
E|-------------------------------13-8h12-8h11-8h10-------------------|

e|-------------------------------------------------------------------|
B|-------------------------------------------------------------------|
G|---------10h12-14-12p10-12p10---------------------12h14-12---------|
D|-10h12-14--------------------14p12-10-----12h14-16--------16p14-12-|
A|-------------------------------------14p12-------------------------|
E|-------------------------------------------------------------------|

e|-------------------------------------------------15-17-18-19s22--|
B|----------------------------------------15h17-19-----------------|
G|----------16h17-16-17h19-17-16-16h17-19--------------------------|
D|-----------------------------------------------------------------|
A|-16p12-14--------------------------------------------------------|
E|-----------------------------------------------------------------|

e|-22b24-22p20-17-22-20-17----------------17-17-------------------------|
B|-------------------------15-17----17h20-------20-17-20-19-20----------|
G|-------------------------------14----------------------------17-19-19-|
D|----------------------------------------------------------------------|
A|----------------------------------------------------------------------|
E|----------------------------------------------------------------------|

e|---------------------------------------------------------------------|
B|-17-19-17-19-20-19-17-19---------------------------------------------|
G|------------------------19b20-17-19-19b20-17-19-17--------17h19-17---|
D|--------------------------------------------------19-17h19--------19-|
A|---------------------------------------------------------------------|
E|---------------------------------------------------------------------|

e|----------------------------------------------------------------------|
B|----------------------------------------------------------------------|
G|----------------------------------12h14-12----13h14-13-12-13p12-13-14-|
D|---------------13p12-10-12-13/-14----------14-------------------------|
A|-12-15-12-15-x--------------------------------------------------------|
E|----------------------------------------------------------------------|

e|--------15b16-13--------13-13----13----------------------------13-15-|
B|-13--13-15----13--13h15-15-13-15-13-15-15-15-13-15-15-13-15-17-------|
G|---14-----------14---------------------------------------------------|
D|---------------------------------------------------------------------|
A|---------------------------------------------------------------------|
E|---------------------------------------------------------------------|

e|-17----17----17----17----17----17-17----17-17----17-17----17-|
B|-20b22-20b22-20b22-20b22-20b22----20b22----20b22----20b22----|
G|-------------------------------------------------------------|
D|-------------------------------------------------------------|
A|-------------------------------------------------------------|
E|-------------------------------------------------------------|

e|-20b24r20-17-17-17-------17-17-------17---------------------|
B|-------------------20b22-------20b22---20p17----------20-17-|
G|--------------------------------------------19p17--17-------|
D|-------------------------------------------------19---------|
A|------------------------------------------------------------|
E|------------------------------------------------------------|

e|-----------------------------------------------------------------------|
B|-18-17-16-15-14-15-16-17-16-14h15-14--------------14-15-16-17-16-15h17-|
G|------------------------------------16-15-14-13-14---------------------|
D|-----------------------------------------------------------------------|
A|-----------------------------------------------------------------------|
E|-----------------------------------------------------------------------|

e|----------17-------15-------17--------------17------20p17--------------|
B|-20-17-20----20-17----17-15----20-17--17-20---20-17-------20p17--------|
G|------------------------------------20--------------------------19p17\-|
D|-----------------------------------------------------------------------|
A|-----------------------------------------------------------------------|
E|-----------------------------------------------------------------------|

End Solo


Riff 8a
e|--------------------------------|
B|--------------------------------|
G|--------------------------------|
D|--------------------------------|
A|-7-----7-6-----6-5-----5-5--6-7-|
E|-5--0--5-4--0--4-3--0--3-5--6-7-|
      *       *       *
   "Looking down the cross..."

Last time:
e|--------------------------------|
B|--------------------------------|
G|--------------------------------|
D|-------------------------7--5-4-|
A|-7-----7-6-----6-5-----5-5--3-2-|
E|-5--0--5-4--0--4-3--0--3--------|
      *       *       *
   "I am looking down the cross..."


Riff 9
e|--------------------------|
B|--------------------------|
G|---------4---5-------6----|
D|-2-------4-x-5-------6-x--|
A|-0-0-0-0-2-x-3-0-0-0-4-x--|
E|--------------------------|
     * * *       * * *
e|------------------------------|
B|------------------------------|
G|---------9---10-----12-----14-|
D|-2-------9-x-10-----12-----14-|
A|-0-0-0-0-7-x--8-0-0-10-0-0-12-|
E|------------------------------|
     * * *        * *    * *
e|------------------------|
B|------------------------|
G|-------4---5-------6----|
D|-------4-x-5-------6-x--|
A|-0-0-0-2-x-3-0-0-0-4-x--|
E|------------------------|
   * * *       * * *
e|--------------------------|
B|--------------------------|
G|---------9---10-----7-5-4-|
D|-2-------9-x-10-----------|
A|-0-0-0-0-7-x--8-0-0-------|
E|--------------------------|
     * * *        * *
e|-----------|
B|-----------|
G|-----------|
D|--2--2-----|
A|--0--0--3--|
E|--------1--|
         "Whoaaa!"





MECHANIX



|-------------------------|
|-------------------------|
|-------------------------|
|-4~---5~-----------------|
|-2~---3~-----4/5----5----|
|-----------0-2/3--0-3----|
             *      *
|--------------------|
|--------------------|
|-4~---5~------------|
|-4~---5~------------|
|-2~---3~---------2--|
|-----------0-2-3-0--|

|-----------------------------------|
|-----------------------------------|
|-4~---5~---------------------------|
|-4~---5~---------------------------|
|-2~---3~-----4/5----5--x-x-x-x-x-x-|
|-----------0-2/3--0-3--------------|
             *      *
|--------------------------|
|--------------------------|
|-4~---5~------------------|
|-4~---5~------------------|
|-2~---3~---------2--------|
|-----------0-2-3-0----X\\-|

|-----------------||-||------------------------------------------------|
|-----------------||-||*-----------------------------------------------|
|-----------------||-||------------------------------------------------|
|-----(2)---x\----||-||------------------------------------------------|
|-----(2)---x\----||-||*--7p5-7p5-7p5-7p5-7p5-7p5-7p5---5---7p5-7p5-7--|p
|-----(0)---------||-||---0-0-0-0-0-0-0-0-0-0-0-0-0-0-7-----0-0-0-0-0--|
              *  Guitar 1 pickslide
---------------------|-------------------------------------------|
---------------------|-------------------------------------------|
---------------------|-------------------------------------------|
-----------7p5-------|---------------------------------------5---|
-5-7p5---5-----7p5---|---7p5-7p5-7p5---5---7p5-7p5-7p5---5---3---|
-0-0-0-7-------------|---0-0-0-0-0-0-7-----0-0-0-0-0-0-7---------|
SECTION B: GUITAR 2
Eb----------------||-----------------------------------------|---------|
Bb---------------*||-----------------------------------------|---------|
Gb----------------||-----------------------------------------|---------|
Db-------7----5---||-------------------------------2----2----|---------|
Ab--5----5----3--*||-------------------------------2----2----|---------|
Eb--3-------------||-------------------------------0----0----|---------|
                                        SECTION C: BOTH GUITARS
Eb|---------------------------------|-||--------------------------------|
Bb|---------------------------------|-||*------9-------9-------9--7-7-7-|
Gb|---------------------------------|-||-------9-------9-------9--7-7-7-|
Db|---------------5---------7----5--|-||-------9-------9-------9--7-7-7-|
Ab|---------------3----5----5----3--|-||*------7-------7-------7--5-5-5-|
Eb|--------------------3------------|-||-0-0-0---0-0-0---0-0-0----------|
*  Merge w/ Guitar 1 for the repeat. "Imagine you were at my station..."

Eb---------------------------------|---------------------------------------|
Bb--------9-------9-------9--------|---------9-------9-------9---12--9-----|
Gb--------9-------9-------9--------|---------9-------9-------9---12--9-----|
Db--------9-------9-------9--5--7--|---------9-------9-------9---12--9---5-|
Ab--------7-------7-------7--3--5--|---------7-------7-------7---10--7---3-|
Eb--0-0-0---0-0-0---0-0-0----------|---0-0-0---0-0-0---0-0-0---------------|
"And you brought your motor to me" "You're a burner, yeah, a real motor car"
                        SECTION D: BOTH GUITARS
Eb------------------||---------------------------------------------|---|
Bb-----------------*||---9---------------------7-------------------|-5-|
Gb------------------||---9----------------x-9--7---------------x-7-|-5-|
Db---------7----5---||---9----------------x-9--7---------------x-7-|-5-|
Ab----5----5----3--*||---7----------------x-7--5---------------x-5-|-3-|
Eb----3-------------||---------------------------------------------|---|
       "Who ever thought you'd be better..." "At turning a screw than me..."
Eb|----------------------------------------|---------------------------|
Bb|---------------------4------------------|---9---------------------7-|
Gb|----------------x-5--4------------------|---9----------------x-9--7-|
Db|----------------x-5--4------x\----------|---9----------------x-9--7-|
Ab|----------------x-3--2------x\----------|---7----------------x-7--5-|
Eb|----------------------------------------|---------------------------|
"Well, I do it for my life..." *  Pick Slide  "Made my drive shaft crank..."
Eb|-------------------|------------------------------------------|-----|
Bb|-------------------|-5----------------------------------------|-----|
Gb|---------------x-7-|-5----------------------------------------|-----|
Db|---------------x-7-|-5----------------------4----5----4-------|-----|
Ab|---------------x-5-|-3----------------------2----3----2----5--|-----|
Eb|-------------------|---------------------------------------3--|-----|
"Made my pistons bulge..." "Made my ball bearings melt from the heat...."
Eb---------------------------------------------------------------------|
Bb---------------------------------------------------------------------|
Gb---------------------------------------------------------------------|
Db---------------------------------------------------------------------|
Ab---------------------------------------------------------------------|
Eb---------------------------------------------------------------------|
          SECTION E: BOTH GUITARS
Eb--------------------------------------------|------------------------|
Bb--------------------------------------------|------------------------|
Gb--------------------------------------------|------------------------|
Db-------2------------------------------------|--(2)-------------------|
Ab-------2------------------------------------|--(2)-------------------|
Eb-------0------------------------------------|--(0)----------0--0-0-0-|
                                                 *  Guitar 2 out.
Eb|--------------------------------------|-----------------------------|
Bb|--------------------------------------|-----------------------------|
Gb|--------------------------------------|-----------------------------|
Db|--------------------------------------|-----------------------------|
Ab|--------------------------------------|-----------------------------|
Eb|-0-0--0-0-0-0-0--0-0-0-0-0--0-0-0-0-0-|---0-0-0-0-0--0-0-0-0-0--0-0-|

Eb|-----------------------------------------|--------------------------|
Bb|-----------------------------------------|--------------------------|
Gb|-----------------------------------------|--------------------------|
Db|-----------------------------------------|--------------------------|
Ab|-----------------------------------------|--------------------------|
Eb|-0-0-0--0-0-0-0-0--0-0-0-0-0--0-0-0-0-0--|--0-0-0-0-0--0-0-0-0-0--0-|

SECTION F: BOTH GUITARS
Eb|----------------------------------------|----------------------------|
Bb|------------------------------------9~--|----------------------------|
Gb|-----------------------------10\-9--9~--|----------------------------|
Db|-----------------------------10\-9--9~--|----------------------------|
Ab|------------------------------8\-7--7~--|----------------------------|
Eb|-0-0-0-0--0-0-0-0-0--0-0-0-0------------|-0--0-0-0-0-0--0-0-0-0-0--0-|
                                *  Guitar 2 enters.
Eb|-----------------|--------------------------------------------|-----|
Bb|--------------9~-|--------------------------------------------|-----|
Gb|-------10\-9--9~-|----------------------------------10---10~--|-----|
Db|-------10\-9--9~-|----------------------------------10---10~--|-----|
Ab|--------8\-7--7~-|-----------------------------------8----8~--|-----|
Eb|-0-0-0-----------|-0--0-0-0-0-0--0-0-0-0-0--0-0-0-0-----------|--0--|

Eb|-----------------------------------------|--------------------------|
Bb|--------------------------------------9~-|--------------------------|
Gb|-------------------------------10\-9--9~-|--------------------------|
Db|-------------------------------10\-9--9~-|--------------------------|
Ab|--------------------------------8\-7--7~-|--------------------------|
Eb|-0-0-0-0-0--0-0-0-0-0--0-0-0-0-----------|-0--0-0-0-0-0--0-0-0-0-0--|

Eb|-------------------|--------------------------------------------|---|
Bb|-------------------|-----------------------------------------9~-|---|
Gb|---------10---10~--|----------------------------------10\-9--9~-|---|
Db|---------10---10~--|----------------------------------10\-9--9~-|---|
Ab|----------8----8~--|-----------------------------------8\-7--7~-|---|
Eb|-0-0-0-0-----------|-0--0-0-0-0-0--0-0-0-0-0--0-0-0-0-----------|-0-|

Eb|-------------------------------------------|-------------------------|
Bb|-------------------------------------------|-------------------------|
Gb|--------------------------------10---10~---|-------------------------|
Db|--------------------------------10---10~---|-------------------------|
Ab|---------------------------------8----8~---|-------------------------|
Eb|--0-0-0-0-0--0-0-0-0-0--0-0-0-0------------|-0--0-0-0-0-0--0-0-0-0-0-|

Eb|--------------------|--------------------------------------------|--|
Bb|-----------------9~-|--------------------------------------------|--|
Gb|----------10\-9--9~-|----------------------------------10---10~--|--|
Db|----------10\-9--9~-|----------------------------------10---10~--|--|
Ab|-----------8\-7--7~-|-----------------------------------8----8~--|--|
Eb|--0-0-0-0-----------|-0--0-0-0-0-0--0-0-0-0-0--0-0-0-0-----------|--|
                                                       LEAD 1: GUITAR 1
Eb|-------------------------------------------------|--------------------|
Bb|-------------------------------------------------|--------------------|
Gb|-------------------------------------------------|--------------------|
Db|-------------------------------------------------|------------14------|
Ab|-7-5---5-----------------7-5---5-----------------|-------13--------12-|
Eb|-----7---7-6-5-3-5-0-3-5-----7---7-6-5-3-5-0-3-5-|--12----------------|
                                 *  Guitar 2 plays Section F throughout.
Eb|--------------------------------------14----|-15p12----15h17-12-15p12-|
Bb|-----------------------14--------13---------|-------15----------------|
Gb|--------14--------13--------12--------------|-------------------------|
Db|---13--------12-----------------------------|-------------------------|
Ab|--------------------------------------------|-------------------------|
Eb|--------------------------------------------|-------------------------|


Eb|-------------12h15-12-15h17-12-15p12----------------12h15-12-15h17-15-|
Bb|-15-17-12-15-------------------------15-17p12-15h17-------------------|
Gb|----------------------------------------------------------------------|
Db|----------------------------------------------------------------------|
Ab|----------------------------------------------------------------------|
Eb|----------------------------------------------------------------------|

Eb|-12-----------|-------------------------------------------------------|
Bb|----17p15-12--|-15h17-15-12-------------------------------15p12-------|
Gb|--------------|-------------16-15-15p14-12----12-14-15-16-------16-15-|
Db|--------------|----------------------------14-------------------------|
Ab|--------------|-------------------------------------------------------|
Eb|--------------|-------------------------------------------------------|

Eb|---------------------------------------------------------|-12-------|
Bb|---------------------------------------------------------|----15p12-|
Gb|-14-12-14-15-14-12----12---------------------------------|----------|
Db|-------------------14----14-13-12-13-14-13-12------------|----------|
Ab|----------------------------------------------14-13-12~--|----------|
Eb|---------------------------------------------------------|----------|

Eb|--------12--------------12--------------12--------------12-------------|
Bb|-----------15p12-----------15p12-----------15p12-----------15p12-------|
Gb|-14b16-----------14b16-----------14b16-----------14b16-----------14b16-|
Db|-----------------------------------------------------------------------|
Ab|-----------------------------------------------------------------------|
Eb|-----------------------------------------------------------------------|

Eb|--12--------------12---------------|-12-----------------------------|
Bb|-----15p12-----------15p12---------|----15p12--------12-------------|
Gb|-----------14b16-----------14b16---|----------14b16-----15p12-14p12-|
Db|-----------------------------------|--------------------------------|
Ab|-----------------------------------|--------------------------------|
Eb|-----------------------------------|--------------------------------|

Eb|----------------------------------------------------------------------|
Bb|-------------------12-------------------------------------------------|
Gb|----12h14-12-14-15----12-14-15p14-12----------------------------------|
Db|-14----------------------------------14p12----12-14-14-14p12----12----|
Ab|-------------------------------------------14----------------14----14-|
Eb|----------------------------------------------------------------------|

Eb|----------------|------------------24p22-19-19-19-19-24p22-19-19-19-|
Bb|----------------|---------------------------------------------------|
Gb|----------------|---------------------------------------------------|
Db|----------------|---------------------------------------------------|
Ab|-13-12-13-14-13-|-12------------------------------------------------|
Eb|----------------|----15-12\-----------------------------------------|
         *  Tremolo pick all the way down slide to encompass all notes.
Eb|-19-24p22-19-19-19-19-24p22-19--------19-22-|-24p22-19--------19-22-|
Bb|-------------------------------22b24--------|----------22b24--------|
Gb|--------------------------------------------|-----------------------|
Db|--------------------------------------------|-----------------------|
Ab|--------------------------------------------|-----------------------|
Eb|--------------------------------------------|-----------------------|


Eb|-24p22-19--------19-22-24p22-19--------19-22-24p22-19--------19-19-24--|p
Bb|----------22b24-----------------22b24-----------------22b24------------|
Gb|-----------------------------------------------------------------------|
Db|-----------------------------------------------------------------------|
Ab|-----------------------------------------------------------------------|
Eb|-----------------------------------------------------------------------|

Eb|-22-19--------19-24p22-19-------|-19-24p22-19--------19-24p22-19-------|
Bb|-------22b24--------------22b24-|-------------22b24--------------22b24-|
Gb|--------------------------------|--------------------------------------|
Db|--------------------------------|--------------------------------------|
Ab|--------------------------------|--------------------------------------|
Eb|--------------------------------|--------------------------------------|

Eb|--19-24p22-19----19--24p22-19-----24p22-19-24p22-19-24p22-19-24p22-19-|
Bb|--------------22--------------19--------------------------------------|
Gb|----------------------------------------------------------------------|
Db|----------------------------------------------------------------------|
Ab|----------------------------------------------------------------------|
Eb|----------------------------------------------------------------------|

Eb-|-------------15p12----12-15p12-15p12-12-12-15p12-17p12----12-17p12-|
Bb-|-17b19-------------12----------------------------------15----------|
Gb-|-------------------------------------------------------------------|
Db-|-------------------------------------------------------------------|
Ab-|-------------------------------------------------------------------|
Eb-|-------------------------------------------------------------------|

Eb|-15p12-----------------------------------|----------------------------|
Bb|-------15p12----15p12-15p12-------15p12--|-15p12----12-15p12-17p12----|
Gb|-------------15-------------15-14--------|-------15----------------15-|
Db|-----------------------------------------|----------------------------|
Ab|-----------------------------------------|----------------------------|
Eb|-----------------------------------------|----------------------------|

Eb|-------------------------------12-12-15p12-15-17p15-12-18--------13--|h
Bb|-12-17p12-15p12----15p12-12-15----------------------------15/-17-----|
Gb|----------------15---------------------------------------------------|
Db|---------------------------------------------------------------------|
Ab|---------------------------------------------------------------------|
Eb|---------------------------------------------------------------------|

Eb|-15-17-18p17-|-15h17-15-------17-18-20-18-17-18--------r------------|
Bb|-------------|----------15--r-------------------20b22---17-20-17-18-|
Gb|-------------|------------------------------------------------------|
Db|-------------|------------------------------------------------------|
Ab|-------------|------------------------------------------------------|
Eb|-------------|------------------------------------------------------|

Eb|-20h22-20p18----18h22-22b24----22~-22--22--22--22-|-22---r-----24b26-|
Bb|-------------20-----------------------------------|------------------|
Gb|--------------------------------------------------|------------------|
Db|--------------------------------------------------|------------------|
Ab|--------------------------------------------------|------------------|
Eb|--------------------------------------------------|------------------|

                                           END: GUITAR 2
|----24--24--24--24---r-----\----------*|------------------------------|
|--------------------------------------*|------------------------------|
|--------------------------------------*|------------------------------|
|--------------------------------------*|------------------------------|
|--------------------------------------*|---7p5-7p5-7p5-7p5-7p5-7p5-7--|p
|--------------------------------------*|---0-0-0-0-0-0-0-0-0-0-0-0-0--|

|----------------------------------------|-------------------------|
|----------------------------------------|-------------------------|
|----------------------------------------|-------------------------|
|------------------------------7p5-------|-------------------------|
|-5---5---7p5-7p5-7p5-7p5---5------7p5---|---7p5-7p5-7p5---5---7p5-|
|---7-----0-0-0-0-0-0-0-0-7--------------|---0-0-0-0-0---7-----0-0-|

|----------------------------------*-|
|----------------------------------*-|
|-------------------------------9--*-|
|---------------5-------7---5---9--*-|
|-7p5-7p5---5---3---5---5---3---7--*-|
|-0-0-0-0-7---------3-----------0--*-|



Notation:

10^        = bend a quarter step.
10b11      = bend a half step.
10b12      = bend a full step.
10b12r10   = bend and release.
[10]12     = pre-bend.
[10]12r10  = pre-bend and release.
{14}       = pick the 14th fret while holding the most
             previous bend.
<17>       = touch the string above the 17th fret while
             previous note(s) is(are) still ringing.

10b13*     = tremolo bar bend, from the 10th fret to the 13th fret.
7d4*       = tremolo bar dive, from the 7th fret to the 4th fret.
12~*       = tremolo bar vibrato.

x   =  mute with fret-hand
*   =  palm mute
X\\ =  pick slide
h   =  hammer-on
p   =  pull-off
~   =  vibrato
t   =  finger tap
/   =  slide up
\   =  slide down
h.  =  natural harmonics
a   =  artificial harmonics
(9) =  ghost note
tm  =  trem picking
tr  =  trill
comments
We did not receive enough feedback on this tab! Please rate:
print report bad tab
1 2 3 4 5
I want to post or [tab]
guest
You may want to rate the tab now too:
select rating
Please do not post tabs as comments. Select "correction" instead!