Oops, an error
Loading. Please wait.

Never Dead Tab

2,578 views 18 this week
no commentswrite comment
1 2 3 4 5
excellent!
x 2
Autoscroll
+/-
esc
set tempo
stop
Contributor
Difficulty
intermediate
WARNING: You are trying to view
                                    content from Ultimate-Guitar.com
                                    in an unauthorized application,
                                    which is prohibited.

                                    Please use an official Ultimate
                                    Guitar Tabs application for iPhone,
                                    iPad or Android to access legitimate
                                    chords, guitar, bass, and drum tabs
                                    from Ultimate-Guitar.com database.

                                    Type "ultimate guitar tabs" in Apple
                                    App Store's or Android Market's
                                    search to find the application.
Tabbed by: Joshua Garcia (joshuag523@aol.com)

Tabs for the song: Never Dead by Megadeth
Please rate and let me know if you have any corrections. Thank you.

Did just a tiny improvisation on the solo. Nonetheless, it sounds flawless.
Did my best. Enjoy!


Tuning: Standard (E A D G B E)


Interlude
Guitar 1:
E||---------|
B||---------|
G||---------|
D||--5-5-5--| x8
A||--5-5-5--|
E||--3-3-3--|



Intro
Guitar 1:
E||------------------------------------|
B||------------------------------------|
G||------------------------------------|
D||------------------------------------| x4
A||------------------------------------|
E||--22222222222222222222222222222222--|
     ................................


Main Riff
Guitar 1/2:
E||---------------------------------|------------------------------|
B||---------------------------------|------------------------------|
G||---------------------------------|------------------------------|
D||---------------------------------|------------------------------|
A||-----3-2h3p2p0-2-----------------|--3-2h3p2p0-2-----------------|
E||--2--------------5p3p2p0--2h3p2--|--------------5p3p2p0--2h3p2--|


E||------------------------------|------------------------------|
B||------------------------------|------------------------------|
G||------------------------------|------------------------------|
D||------------------------------|------------------------------|
A||--3-2h3p2p0-2-----------------|--3-2h3p2p0-2-----------------|
E||--------------5p3p2p0--2h3p2--|--------------5p3p2p0--2h3p2--|


E||------------------------------|------------------------------|
B||------------------------------|------------------------------|
G||------------------------------|------------------------------|
D||------------------------------|------------------------------|
A||--3-2h3p2p0-2-----------------|--3-2h3p2p0-2-----------------|
E||--------------5p3p2p0--2h3p2--|--------------5p3p2p0--2h3p2--|


E||------------------------------|------------------------------|
B||------------------------------|------------------------------|
G||------------------------------|------------------------------|
D||------------------------------|------------------------------|
A||--3-2h3p2p0-2-----------------|--3-2h3p2p0-2-----------------|
E||--------------5p3p2p0--2h3p2--|--------------5p3p2p0--2h3p2--|



Verse
Guitar 1/2:
E||-------------------------------------------------------------------------------------------|
B||-------------------------------------------------------------------------------------------|
G||-------------------------------------------------------------------------------------------|
D||-------------------------------------------------------------------------------------------| x3
A||--------------------------------------------------------------3-2h3p2p0-2------------------|
E||--2222222222222-2h3p2-2222222222222-2h3p2-2222222222222-2h3p2--------------5p3p2p0--2h3p2--|
     .............       .............       .............


E||------------------------------|
B||------------------------------|
G||------------------------------|
D||------------------------------|
A||--3-2h3p2p0-2-----------------|
E||--------------5p3p2p0--2h3p2--|



Pre-Chorus
Guitar 1/2:
E||-------------------------------------|
B||-------------------------------------|
G||---------3~-----------3~---------3~--|
D||---------3~-----------3~---------3~--|
A||---------1~-----------1~---------1~--|
E||--000000-------000000-------0000-----|
     ......       ......       ....

E||---------------------------------|----------------------------|
B||---------------------------------|----------------------------|
G||---------------------------------|----------------------------|
D||---------------------------------|----------------------------|
A||-----3-2h3p2p0-2-----------------|--3-2h3p2p0-2---------------|
E||--2--------------5p3p2p0--2h3p2--|--------------5p3p2p0--2h3--|


E||-------------------------------------|
B||-------------------------------------|
G||---------3~-----------3~---------3~--|
D||---------3~-----------3~---------3~--|
A||---------1~-----------1~---------1~--|
E||--000000-------000000-------0000-----|
     ......       ......       ....

E||---------------------------------------------|
B||---------------------------------------------|
G||---------------------------------------------|
D||---------------------------------------------|
A||--45------57------79------910----------------|
E||--23--00--35--00--57--00--78---00--44445555--|
     ..  ..  ..  ..  ..  ..  ..   ..  ........


Chorus
Guitar 1/2:
E||-----------------------------------------------------------------------------|
B||-----------------------------------------------------------------------------|
G||-----------------------------------------------------------------------------|
D||-----4------------------------4-----------------------5----5----5----5----5--|
A||----------3------------------------3-----------------------------------------|
E||--2-----2----2-5--2-0--2-3-0-----0---0-5--2-0--2-0-3-----3----3----3----3----|


E||--------------------------------|
B||--------------------------------|
G||--------------------------------|
D||-----4----4----4----2~---4-5-4--|
A||----------4---------2~---4-5-4--|
E||--5-----5----4----4-0~---2-3-2--|


E||-----------------------------------------------------------------------------|
B||-----------------------------------------------------------------------------|
G||-----------------------------------------------------------------------------|
D||-----4------------------------4-----------------------5----5----5----5----5--|
A||----------3------------------------3-----------------------------------------|
E||--2-----2----2-5--2-0--2-3-0-----0---0-5--2-0--2-0-3-----3----3----3----3----|


E||----------------------------|
B||----------------------------|
G||----------------------------|
D||-----7----7----6----5----5--|
A||----------------------------|
E||--5-----5----4----3----3----|



Pre-Verse
Guitar 1/2:
E||---------------------------------|------------------------------|
B||---------------------------------|------------------------------|
G||---------------------------------|------------------------------|
D||---------------------------------|------------------------------|
A||-----3-2h3p2p0-2-----------------|--3-2h3p2p0-2-----------------|
E||--2--------------5p3p2p0--2h3p2--|--------------5p3p2p0--2h3p2--|


E||------------------------------|------------------------------|
B||------------------------------|------------------------------|
G||------------------------------|------------------------------|
D||------------------------------|------------------------------|
A||--3-2h3p2p0-2-----------------|--3-2h3p2p0-2-----------------|
E||--------------5p3p2p0--2h3p2--|--------------5p3p2p0--2h3p2--|



Verse
Guitar 1/2:
E||-------------------------------------------------------------------------------------------|
B||-------------------------------------------------------------------------------------------|
G||-------------------------------------------------------------------------------------------|
D||-------------------------------------------------------------------------------------------| x3
A||--------------------------------------------------------------3-2h3p2p0-2------------------|
E||--2222222222222-2h3p2-2222222222222-2h3p2-2222222222222-2h3p2--------------5p3p2p0--2h3p2--|
     .............       .............       .............


E||------------------------------|
B||------------------------------|
G||------------------------------|
D||------------------------------|
A||--3-2h3p2p0-2-----------------|
E||--------------5p3p2p0--2h3p2--|



Pre-Chorus
Guitar 1/2:
E||-------------------------------------|
B||-------------------------------------|
G||---------3~-----------3~---------3~--|
D||---------3~-----------3~---------3~--|
A||---------1~-----------1~---------1~--|
E||--000000-------000000-------0000-----|
     ......       ......       ....

E||---------------------------------|----------------------------|
B||---------------------------------|----------------------------|
G||---------------------------------|----------------------------|
D||---------------------------------|----------------------------|
A||-----3-2h3p2p0-2-----------------|--3-2h3p2p0-2---------------|
E||--2--------------5p3p2p0--2h3p2--|--------------5p3p2p0--2h3--|


E||-------------------------------------|
B||-------------------------------------|
G||---------3~-----------3~---------3~--|
D||---------3~-----------3~---------3~--|
A||---------1~-----------1~---------1~--|
E||--000000-------000000-------0000-----|
     ......       ......       ....

E||---------------------------------------------|
B||---------------------------------------------|
G||---------------------------------------------|
D||---------------------------------------------|
A||--45------57------79------910----------------|
E||--23--00--35--00--57--00--78---00--44445555--|
     ..  ..  ..  ..  ..  ..  ..   ..  ........


Chorus
Guitar 1/2:
E||-----------------------------------------------------------------------------|
B||-----------------------------------------------------------------------------|
G||-----------------------------------------------------------------------------|
D||-----4------------------------4-----------------------5----5----5----5----5--|
A||----------3------------------------3-----------------------------------------|
E||--2-----2----2-5--2-0--2-3-0-----0---0-5--2-0--2-0-3-----3----3----3----3----|


E||--------------------------------|
B||--------------------------------|
G||--------------------------------|
D||-----4----4----4----2~---4-5-4--|
A||----------4---------2~---4-5-4--|
E||--5-----5----4----4-0~---2-3-2--|


E||-----------------------------------------------------------------------------|
B||-----------------------------------------------------------------------------|
G||-----------------------------------------------------------------------------|
D||-----4------------------------4-----------------------5----5----5----5----5--|
A||----------3------------------------3-----------------------------------------|
E||--2-----2----2-5--2-0--2-3-0-----0---0-5--2-0--2-0-3-----3----3----3----3----|


E||----------------------------|
B||----------------------------|
G||----------------------------|
D||-----7----7----6----5----5--|
A||----------------------------|
E||--5-----5----4----3----3----|



Bridge
Guitar 1:
E||-----------------|
B||-----------------|
G||-----------------|
D||--2---2---2---2--| x4
A||--2---2---2---2--|
E||--0---0---0---0--|


Guitar 2:
E||----------------|
B||----------------|
G||----------------|
D||--//pick//////--|
A||--////slide//---|
E||----------------|


E||-----------------------------------|
B||-----------------------------------|
G||-----------------------------------|
D||-----------------------------------| x2
A||-----------------------------------|
E||--0-2-3-0-5-6-0-2-3-0-5-6-0-2-3-2--|
     . . . . . . . . . . . . . . . .


Guitar 1:
E||-----------------|
B||-----------------|
G||-----------------|
D||--4---4---4---4--| x2
A||--4---4---4---4--|
E||--2---2---2---2--|


Guitar 2:
E||-----------------------------------|
B||-----------------------------------|
G||-----------------------------------|
D||-----------------------------------| x2
A||----------2-3---------2-3----------|
E||--2-4-5-2-----2-4-5-2-----2-4-5-4--|
     . . . . . . . . . . . . . . . .


Pre-Solo
Guitar 1:
E||-----------------------------------|----------------------------------------------------|
B||-----------------------------------|----------------------------------------------------|
G||--/9-------------------------------|----------/11---------------------------------------|
D||-----9-8~---8h9p8h9p8h9p8h9p8h9p8--|--------------11-10---------------------------------|
A||-----------------------------------|--/9~----------------9------------------------------|
E||-----------------------------------|-----------------------9-8---8h9p8h9p8h9p8h9p8h9p8--|


Guitar 2:
E||----------------------------------------|----------------------------------------|
B||----------------------------------------|----------------------------------------|
G||----------------------------------------|----------------------------------------|
D||------------------------------------x2--|------------------------------------x2--|
A||----------------------------------------|----------------------------------------|
E||--00000000000000000000000000000000------|--22224455222244552222445522224455------|
     ................................         ................................



Solo
Guitar 1:
E||--pb19r18b19~---18b19-18-15-14-----------------14-15~--|
B||-------------------------------17--pb19r17--17---------|
G||-------------------------------------------------------|
D||-------------------------------------------------------|
A||-------------------------------------------------------|
E||-------------------------------------------------------|


E||----------1416171614---------1517181715---------1719201917--1517191715--192219----23b~--|
B||------------------------------------------------------------------------------20--------|
G||--/141617------------/151718------------/171920-----------------------------------------|
D||----------------------------------------------------------------------------------------|
A||----------------------------------------------------------------------------------------|
E||----------------------------------------------------------------------------------------|


E||--23---20---19-20-19----19----------19--------------------------------|
B||---------------------22----22-19-22----22-19-17-19-20-19-17--19--17~--|
G||----------------------------------------------------------------------|
D||----------------------------------------------------------------------|
A||----------------------------------------------------------------------|
E||----------------------------------------------------------------------|


                   T                  T                  T                  T
E||-------12/14h17-19-p17p14--------------------------------------------------------------|
B||--12h13------------------h17p14h17-19-p17p14-------------------------------------------|
G||--------------------------------------------h16p12h16-19-p16p12------------------------|
D||---------------------------------------------------------------h16p12h16-19-p16p12\11--|
A||---------------------------------------------------------------------------------------|
E||---------------------------------------------------------------------------------------|


Guitar 2:
E||-------------------------------------------|
B||-------------------------------------------|
G||-------------------------------------------|
D||-------------------------------------------| x4
A||-------------------3p2h3p2h3p2h3p2h3p2-----|
E||--0000223300002233----------------------3--|
     ................



Guitar 1 (Tremlo pick):
E||--21-17----21-17----21-17----21-17----20-17----20-17----20-17----20-17-----|
B||--------19-------19-------19-------19-------19-------19-------19-------19--|
G||---------------------------------------------------------------------------|
D||---------------------------------------------------------------------------|
A||---------------------------------------------------------------------------|
E||---------------------------------------------------------------------------|


E||--19-17----17------------------------------------------------------------------------|
B||--------19----19-17-19-17----17-19-17----------------141614------------141614--------|
G||--------------------------18----------18-16\14---1617------171614-16-17------171614--|
D||-------------------------------------------------------------------------------------|
A||-------------------------------------------------------------------------------------|
E||-------------------------------------------------------------------------------------|


Guitar 2:
E||---------------------------------|------------------------------|
B||---------------------------------|------------------------------|
G||---------------------------------|------------------------------|
D||---------------------------------|------------------------------|
A||-----3-2h3p2p0-2-----------------|--3-2h3p2p0-2-----------------|
E||--2--------------5p3p2p0--2h3p2--|--------------5p3p2p0--2h3p2--|


E||------------------------------|-------------------|
B||------------------------------|-------------------|
G||------------------------------|-------------------|
D||------------------------------|-------------------|
A||--3-2h3p2p0-2-----------------|--3-2h3p2p0-2------|
E||--------------5p3p2p0--2h3p2--|--------------5p3--|



Guitar 1:
E||-------------------------------------------------------------------------------------------|
B||-------------------------------------------------------------------------------------------|
G||--16b~~~~18----18---18---18---18--18--18-18-1818181818181818~r~--1614----------------------|
D||---------------------------------------------------------------------171614----------------|
A||---------------------------------------------------------------------------171614----------|
E||---------------------------------------------------------------------------------171614~\--|


Guitar 2:
E||---------------------------------------------|
B||---------------------------------------------|
G||---------------------------------------------|
D||---------------------------------------------| x2
A||--45------57------79------910----------------|
E||--23--00--35--00--57--00--78---00--44445555--|
     ..  ..  ..  ..  ..  ..  ..   ..  ........



Chorus / Outro
Guitar 1/2:
E||-----------------------------------------------------------------------------|
B||-----------------------------------------------------------------------------|
G||-----------------------------------------------------------------------------|
D||-----4------------------------4-----------------------5----5----5----5----5--|
A||----------3------------------------3-----------------------------------------|
E||--2-----2----2-5--2-0--2-3-0-----0---0-5--2-0--2-0-3-----3----3----3----3----|


E||--------------------------------|
B||--------------------------------|
G||--------------------------------|
D||-----4----4----4----2~---4-5-4--|
A||----------4---------2~---4-5-4--|
E||--5-----5----4----4-0~---2-3-2--|


E||-----------------------------------------------------------------------------|
B||-----------------------------------------------------------------------------|
G||-----------------------------------------------------------------------------|
D||-----4------------------------4-----------------------5----5----5----5----5--|
A||----------3------------------------3-----------------------------------------|
E||--2-----2----2-5--2-0--2-3-0-----0---0-5--2-0--2-0-3-----3----3----3----3----|


E||---------------------------------------------------|
B||---------------------------------------------------|
G||---------------------------------------------------|
D||-----7----7----6----2~---4-5-4------2~---4-5-4~-\--|
A||--------------------2~---4-5-4------2~---4-5-4~-\--|
E||--5-----5----4----3-0~---2-3-2------0~---2-3-2~-\--|




Tablature Legend
----------------
 h   hammer-on
 p   pull-off
 b   bend
 pb  pre-bend
 r   release bend
 ~   hold / vibrato
 .   palm mute
 /   slide up
 \   slide down
 *   pinch harmonic
 '   natural harmonic
 x   mute note
 T   tap
comments
We did not receive enough feedback on this tab! Please rate:
print report bad tab
1 2 3 4 5
I want to post or [tab]
guest
You may want to rate the tab now too:
select rating
Please do not post tabs as comments. Select "correction" instead!