Oops, an error
Loading. Please wait.

Never Walk Alone A Call To Arms Tab

ver1
ver1

Whole song

Interactive

More versions @911Tabs.com
37,671 views 22 this week
10 commentsread comments
1 2 3 4 5
excellent!
x 16
Autoscroll
+/-
esc
set tempo
stop
Contributor
Difficulty
advanced
Hey! There's an official Ultimate Guitar app which is ideal
for learning songs when you're away from computer. Get the app
WARNING: You are trying to view
                                    content from Ultimate-Guitar.com
                                    in an unauthorized application,
                                    which is prohibited.

                                    Please use an official Ultimate
                                    Guitar Tabs application for iPhone,
                                    iPad or Android to access legitimate
                                    chords, guitar, bass, and drum tabs
                                    from Ultimate-Guitar.com database.

                                    Type "ultimate guitar tabs" in Apple
                                    App Store's or Android Market's
                                    search to find the application.
                     NEVER WALK ALONE... A CALL TO ARMS
                                  Megadeth
                 (From The 2007 Album United Abominations)


Transcribed by Jonathan Casper (confinedforever)

Gtr 1 - Tuning Standard - (E A D G B E)

/ - SLIDE UP TO          h - HAMMER ON
\ - SLIDE DOWN TO        p - PULL OFF
~ - HOLD NOTE            * - PALM MUTE
t - TREMOLO PICKING      a - ARTIFICAL PINCH HARMONIC
b - BEND FULL STEP      h. - NATURAL HARMONIC


This what i could make out of it.. hope u like it


Intro
  Guitar 2
|------------------------------------------------------------------|
|------------------------------------------------------------------|
|------------------------------------------------------------------|
|-4-------------------------------5--------------------------------|
|-2-------------------------------3--------------------------------|
|------------------------------------------------------------------|

  Guitar 1
|------------------------------------------------------------------|
|------------------------------------------------------------------|
|------------------------------------------------------------------|
|-4-----3-----2-------------------4-----3-----2--------------------|
|---0-2---0-2---2-5-3-2-0-2~--0-3---0-2---0-2---2-5-3-2-0-2~--0-4--|
|------------------------------------------------------------------|
    * *   * *   *   * * *     * *   * *   * *   *   * * *     * *

  Guitar 2
|------------------------------------------------------------------|
|------------------------------------------------------------------|
|------------------------------------------------------------------|
|-6-----3-----2-------------------4-----3-----2--------------------|
|-4-0-2---0-2---2-5-3-2-0-2~--0-3---0-2---0-2---2-5-3-2-0-2-----2--|
|-----------------------------------------------------------0-2----|
    * *   * *   *   * * *     * *   * *   * *   *   * * *

   Guitar 1
|------------------------------------------------------------------|
|------------------------------------------------------------------|
|------------------------------------------------------------------|
|-4-----3-----2-------------------4-----3-----2--------------------|
|---0-2---0-2---2-5-3-2-0-2~--0-3---0-2---0-2---2-5-3-2-0-2-----2--|
|-----------------------------------------------------------0-2----|
    * *   * *   *   * * *     * *   * *   * *   *   * * *

Verse
  Guitar 1 & 2
|------------------------------------------------------------------|
|------------------------------------------------------------------|
|------------------------------------------------------------------| x4
|-4-----3-----2-------------------4-----3-----2--------------------|
|---0-2---0-2---2-5-3-2-0-2~--0-3---0-2---0-2---2-5-3-2-0-2-----2--|
|-----------------------------------------------------------0-2----|
    * *   * *   *   * * *     * *   * *   * *   *   * * *

Pre - Chorus
  Guitar 1 & 2
|-------------------------------------|
|-------------------------------------|
|-------------------------------------|
|-4--3--2-----0--2--4--3--2-----0--2--|
|-4--3--2--2--0--2--4--3--2--2--0--2--|
|----------2-----------------2--------|
           *                 *

Chorus
  Guitar 1 & 2
|----------------------------------------------------------|
|----------------------------------------------------------|
|----------------------------------------------------------| x4
|---------4---------------------5h7------------------------|
|-2~--0-2-----5------5-4--5h7---------5h7--9-8----7h9------|
|-----------5-3--2-3---2------0-----0----------9~-----10\--|
      * *   *    * *          *     *

|-------------------|
|-------------------|
|-------------------|
|----------------5--|
|-5--------2-----3--|
|-3--------0--------|

Pre - Verse (Drover)
  Guitar 2
|--------------------------------------------------------------------|
|-12~~~~~~~~~~~~~~~~~~~~~~15--13~~~~~~~~~~~~----17b----17-15-12--13--|
|--------------------------------------------------------------------|
|--------------------------------------------------------------------|
|--------------------------------------------------------------------|
|--------------------------------------------------------------------|

  Guitar 1
|--------------------------------------------------------------------|
|--------------------------------------------------------------------|
|--------------------------------------------------------------------|
|-4-----3-----2-------------------4-----3-----2----------------------|
|---0-2---0-2---2-5-3-2-0-2~--0-3---0-2---0-2---2-5-3-2--0-2~---0-4--|
|--------------------------------------------------------------------|
    * *   * *   *   * * *     * *   * *   * *   *   * *         * *

  Guitar 2
|------------------14b-14b~------------------------------------------|
|-14~~~~~~~~~~~~~------------14-13~~~~~~~~~~~~~---15b-15b~-----12h15-|
|--------------------------------------------------------------------|
|--------------------------------------------------------------------|
|--------------------------------------------------------------------|
|--------------------------------------------------------------------|


  Guitar 1
|--------------------------------------------------------------------|
|--------------------------------------------------------------------|
|--------------------------------------------------------------------|
|-4-----3-----2-------------------4-----3-----2----------------------|
|---0-2---0-2---2-5-3-2-0-2~--0-3---0-2---0-2---2-5-3-2--0-2~---0-2--|
|--------------------------------------------------------------------|
    * *   * *   *   * * *     * *   * *   * *   *   * *         * *

  Guitar 2
|------------------------------------------------------------------|
|-12~~~~~~~~~~~~~~~\\\\\-------------------------------------------|
|------------------------------------------------------------------|
|------------------------------------------------------------------|
|------------------------------------------------------------------|
|------------------------------------------------------------------|


  Guitar 1
|------------------------------------------------------------------|
|------------------------------------------------------------------|
|------------------------------------------------------------------|
|-4-----3-----2-------------------4-----3-----2--------------------|
|---0-2---0-2---2-5-3-2-0-2~--0-3---0-2---0-2---2-5-3-2-0-2-----2--|
|-----------------------------------------------------------0-2----|
    * *   * *   *   * * *     * *   * *   * *   *   * * *


Verse x3

Pre - Chorus x3

|--------------------|
|--------------------|
|--------------------|
|-4a-4a--------------|
|---------4-------7--|
|---------2-------5--|

Chorus x4

|-------------------|
|-------------------|
|-------------------|
|----------------5--|
|-5--------2-----3--|
|-3--------0--------|

(Solo - Drover)
  Guitar 2
|------------------------------------------------------------------|
|------------------------------------------------------------------|
|-12a-(Pull up on dive bomb)-------------------4b-4p2--4a~~~~------|
|-------------------------------------------------------------2/4--|
|------------------------------------------------------------------|
|------------------------------------------------------------------|

  Guitar 1
|------------------------------------------------------------------|
|------------------------------------------------------------------|
|------------------------------------------------------------------|
|------------------------------------------------------------------|
|-------4-----------3---------3---------4-----------3---------3----|
|-2-0-2---2-0-2-0-2---2-0-2-0---0-2-0-2---2-0-2-0-2---2-0-2-0---0--|
  * * *   * * * * *   * * * *     * * *   * * * * *   * * * *

  Guitar 2
|------------------------------------------------------------------|
|------------------------------------------------------------------|
|-6p4-----7p4-7p4-----6p4-6p4-----7p4-----6p4-----6p4-----6p4---4--|
|-----7p4---------7p4---------7p4-----7p4-----7p4-----7p4-----7----|
|------------------------------------------------------------------|
|------------------------------------------------------------------|

  Guitar 1
|------------------------------------------------------------------|
|------------------------------------------------------------------|
|------------------------------------------------------------------|
|------------------------------------------------------------------|
|-------------4-----------------------3-------------------3--------|
|-2---0---2-------2---0---2---0---2-------2---0---2---0-------0----|
  *   *   *       *   *   *   *   *       *   *   *   *

  Guitar 2
|-------------------------------------------------------------------------------------------|
|-------------------------------------------------------------------------------------------|
|-11p9------11p9-11p9----9-11p9-11p9-------14p11----11-14p11-------16p14----------16b---14--|
|------11p9-----------11-------------11-11-------14----------14p11-------16p14--------------|
|-------------------------------------------------------------------------------------------|
|-------------------------------------------------------------------------------------------|

  Guitar 1
|------------------------------------------------------------------|
|------------------------------------------------------------------|
|------------------------------------------------------------------|
|------------------------------------------------------------------|
|-------------4-----------------------3-------------------3--------|
|-2---0---2-------2---0---2---0---2-------2---0---2---0-------0----|
  *   *   *       *   *   *   *   *       *   *   *   *

(Solo - Mustaine)
  Guitar
|----------------------------------------------------------------------------------------|
|----------------------------------------------------------------------------------------|
|----------------------------------------------------------------------------------------|
|-------------------------------------------------------------------14h16p14-------------|
|----------------------------13h14p13----14h161616161617p1616161616------------------16--|
|-12h141414141415p1414141414----------15-------------------------------------------------|

  Guitar 1
|------------------------------------------------------------------|
|------------------------------------------------------------------|
|------------------------------------------------------------------|
|------------------------------------------------------------------|
|-------------4-----------------------3-------------------3--------|
|-2---0---2-------2---0---2---0---2-------2---0---2---0-------0----|
  *   *   *       *   *   *   *   *       *   *   *   *

  Guitar 2
|--------------------------------------------------------------------19222323\-----------|
|-------------------------------------------------------161719171920---------------------|
|--------------------------------15h16p15----1516181618----------------------------------|
|-14h1616161616161617p1616161617----------17---------------------------------------------|
|----------------------------------------------------------------------------------------|
|----------------------------------------------------------------------------------------|

  Guitar 1
|------------------------------------------------------------------|
|------------------------------------------------------------------|
|------------------------------------------------------------------|
|------------------------------------------------------------------|
|-------------4-----------------------3-------------------3--------|
|-2---0---2-------2---0---2---0---2-------2---0---2---0-------0----|
  *   *   *       *   *   *   *   *       *   *   *   *

  Guitar 2
|--------------------------19171414------------------------------------|
|-191919191714191919191714----------191919191714191919191714-----------|
|------------------------------------------------------------18161618--|
|----------------------------------------------------------------------|
|----------------------------------------------------------------------|
|----------------------------------------------------------------------|

  Guitar 1
|------------------------------------------------------------------|
|------------------------------------------------------------------|
|------------------------------------------------------------------|
|------------------------------------------------------------------|
|-------------4-----------------------3-------------------3--------|
|-2---0---2-------2---0---2---0---2-------2---0---2---0-------0----|
  *   *   *       *   *   *   *   *       *   *   *   *

  Guitar 2
|--------------------------19171414-----------------------------------|
|-191919191714191919191714----------19191919171419191919171419191714--|
|---------------------------------------------------------------------|
|---------------------------------------------------------------------|
|---------------------------------------------------------------------|
|---------------------------------------------------------------------|

  Guitar 1
|------------------------------------------------------------------|
|------------------------------------------------------------------|
|------------------------------------------------------------------|
|------------------------------------------------------------------|
|-------------4-----------------------3-------------------3--------|
|-2---0---2-------2---0---2---0---2-------2---0---2---0-------0----|

  Guitar 2
|-19-17p14---------------------------------------------------------|
|----------17-19-17p14---------------------------------------------|
|----------------------16-14~~~~~~~~~~~~~~~~~~~~~~~~~~~~~~~~~~~~~--|
|------------------------------------------------------------------|
|------------------------------------------------------------------|
|------------------------------------------------------------------|

  Guitar 1
|------------------------------------------------------------------|
|------------------------------------------------------------------|
|------------------------------------------------------------------|
|-/4---------------------------------------------------------------|
|-/5-----------4----------2----------------------------------------|
|--------------5----------3----------------------------------------|

Interlude
  Guitar 2
|-------------------------------------------------------------------------|
|-------------------------------------------------------------------------|
|-/12~~~~-16--14~~~~~~~~~~~------------------12--11~~~~~--11/16--14~~~~~--|
|----------------------------12-------14~~~~------------------------------|
|-------------------------------------------------------------------------|
|-------------------------------------------------------------------------|

  Guitar 3
|-------------------------------------------------------------------------|
|-------------------------------------------------------------------------|
|-/9~~~~~-12--11~~~~~~~~~~~------------------9------------9/12---11~~~~~--|
|----------------------------9--------10~~~~-----12~~~~~------------------|
|-------------------------------------------------------------------------|
|-------------------------------------------------------------------------|

  Guitar 1
|----------------------------------------------------------------0--------|
|----------------------------0-------------------------------------0------|
|-------0-----------0----------0-------------0-----------0-----------0----|
|-----4---4-------4---4----------4---------4---4-------4----4----------4--|
|---2-------2---3-------3----------3-----2-------2---3--------3-----------|
|-0-----------0-----------0------------0-----------0----------------------|

  Guitar 2
|------------------------------------------------------------------------|
|---------------------------13/15----13~~~~-15--17~~~~~--15----13--------|
|-12~~~~-14--16~~~~~~~~~~~----------------------------------------16-14--|
|------------------------------------------------------------------------|
|------------------------------------------------------------------------|
|------------------------------------------------------------------------|

  Guitar 3
|------------------------------------------------------------------------|
|---------------------------10/12----10~~~~-12--13~~~~~--12----10--------|
|-9~~~~~-11--12~~~~~~~~~~~----------------------------------------12-11--|
|------------------------------------------------------------------------|
|------------------------------------------------------------------------|
|------------------------------------------------------------------------|

  Guitar 1
|----------------------------------------------------------------0--------|
|----------------------------0-------------------------------------0------|
|-------0-----------0----------0-------------0-----------0-----------0----|
|-----4---4-------4---4----------4---------4---4-------4----4----------4--|
|---2-------2---3-------3----------3-----2-------2---3--------3-----------|
|-0-----------0-----------0------------0-----------0----------------------|

  Guitar 2
|------------------------------------------------------------------------|
|------------------------------------------------------------------------|
|-12~~~~-16--14~~~~~~~~~~~------------------12--11~~~~~--11/16--14~~~~~--|
|---------------------------12-------14~~~~------------------------------|
|------------------------------------------------------------------------|
|------------------------------------------------------------------------|

  Guitar 3
|------------------------------------------------------------------------|
|------------------------------------------------------------------------|
|-9~~~~~-12--11~~~~~~~~~~~------------------9------------9/12---11~~~~~--|
|---------------------------9--------10~~~~-----12~~~~~------------------|
|------------------------------------------------------------------------|
|------------------------------------------------------------------------|

  Guitar 1
|----------------------------------------------------------------0--------|
|----------------------------0-------------------------------------0------|
|-------0-----------0----------0-------------0-----------0-----------0----|
|-----4---4-------4---4----------4---------4---4-------4----4----------4--|
|---2-------2---3-------3----------3-----2-------2---3--------3-----------|
|-0-----------0-----------0------------0-----------0----------------------|

  Guitar 2
|------------19~~~~~~~~~~~--20--22---20~~~~-22--24~~~~~--22----20-19-----|
|-20~~~~-22----------------------------------------------------------22--|
|------------------------------------------------------------------------|
|------------------------------------------------------------------------|
|------------------------------------------------------------------------|
|------------------------------------------------------------------------|

  Guitar 3
|---------------------------8-//10---8-~~~~-10--12~~~~~--10----8---------|
|-8~~~~~-10--12~~~~~~~~~~~--10//12---10~~~~-12--13~~~~~--12----10-12-10--|
|-9~~~~~-11--12~~~~~~~~~~~----------------------------------------12-11--|
|------------------------------------------------------------------------|
|------------------------------------------------------------------------|
|------------------------------------------------------------------------|

  Guitar 1
|----------------------------------------------------------------0--------|
|----------------------------0-------------------------------------0------|
|-------0-----------0----------0-------------0-----------0-----------0----|
|-----4---4-------4---4----------4---------4---4-------4----4----------4--|
|---2-------2---3-------3----------3-----2-------2---3--------3-----------|
|-0-----------0-----------0------------0-----------0----------------------|

Bridge
  Guitar 2
|-14h15p14p12/11-12h14h15p14p12p11-12h14h15p14p12p11-12h14h15p14p12p11-12h14p12p11--------------------------------------|
|---------------------------------------------------------------------------------------1310h12h13p12p10----------------|
|--------------------------------------------------------------------------------------------------------12p11p9h11h12--|
|-----------------------------------------------------------------------------------------------------------------------|
|-----------------------------------------------------------------------------------------------------------------------|
|-----------------------------------------------------------------------------------------------------------------------|

  Guitar 1
|--------------------------------------------------------|
|--------------------------------------------------------|
|--------------------------------------------------------|
|--------------------------------------------------------|
|-9---------------9---------------9---------------9---7--|
|-7---7---7---7---7---7---7---7---7---7---7---7---7---5--|
      *   *   *       *   *   *       *   *   *

  Guitar 2
|----------------------------------------------------------------------|
|-10h12h13p12p10----10-------------------------------------------------|
|----------------12----12p11p9\8h9h11p9p8------------------------------|
|-----------------------------------------10-9---7---------------------|
|----------------------------------------------------9----7-6~~~~~~\\--|
|----------------------------------------------------------------------|

  Guitar 1
|-----------------------------------------------------------|
|-----------------------------------------------------------|
|-----------------------------------------------------------|
|-----------------------------------------------------------|
|-9---------------9---------------9---------------9---10\\--|
|-7---7---7---7---7---7---7---7---7---7---7---7---7---8-\\--|
      *   *   *       *   *   *       *   *   *


Chorus x4

Outro Chorus (PLAY x4)
  Guitar 2
|------------------------------------------------------------------|
|------------------------------------------------------------------|
|------------------------------------------------------------------|
|---------4----------------------9h10------------------------------|
|-2~--0-2-----5------5-4--9h10----------9h10--12-11-----10h12------|
|-----------5-3--2-3---2-------0------0-------------13~-------14\--|
      * *   *    * *           *      *


  Guitar 1
|----------------------------------------------------------|
|----------------------------------------------------------|
|----------------------------------------------------------|
|---------4---------------------5h7------------------------|
|-2~--0-2-----5------5-4--5h7---------5h7--9-8----7h9------|
|-----------5-3--2-3---2------0-----0----------9~-----10\--|
      * *   *    * *          *     *

|---------------------------|
|---------------------------|
|---------------------------|
|----------------5----4\\---|
|-5--------2-----3----2\\---|
|-3--------0----------------|
comments
print report bad tab
10 comments total. Showing first comments.
+1 reply
harrymee wrote on May 21 2007, 08:15 am

fantastic tab 5*

+1 reply
stringsofdoom wrote on May 21 2007, 08:20 am

this has got to my favorite song on the album and u tabbed it perfect, nice job

+2 reply
dale-banez wrote on July 4 2007, 09:08 pm

purty goooood

I want to post or [tab]
guest
You may want to rate the tab now too:
select rating
Please do not post tabs as comments. Select "correction" instead!