Oops, an error
Loading. Please wait.

Never Walk Alone A Call To Arms Tab

ver3
ver3

Whole song

Interactive

More versions @911Tabs.com
2,433 views 1 this week
no commentswrite comment
1 2 3 4 5
excellent!
x 2
Autoscroll
+/-
esc
set tempo
stop
Contributor
Hey! There's an official Ultimate Guitar app which is ideal
for learning songs when you're away from computer. Get the app
WARNING: You are trying to view
                                    content from Ultimate-Guitar.com
                                    in an unauthorized application,
                                    which is prohibited.

                                    Please use an official Ultimate
                                    Guitar Tabs application for iPhone,
                                    iPad or Android to access legitimate
                                    chords, guitar, bass, and drum tabs
                                    from Ultimate-Guitar.com database.

                                    Type "ultimate guitar tabs" in Apple
                                    App Store's or Android Market's
                                    search to find the application.
#----------------------------------PLEASE NOTE---------------------------------#
#This file is the author's own work and represents their interpretation of the #
#song. You may only use this file for private study, scholarship, or research. #
#------------------------------------------------------------------------------#

NEVER WALK ALONE...A CALL TO ARMS
As recorded by Megadeth
(From the 2007 Album UNITED ABOMINATIONS)

Transcribed by Russ Elton (webmaster@abysslord.com)
        

Words and Music by Dave Mustaine
Arranged by Megadeth

Gtr I (E A D G B E) - 'Distortion Guitar'
Gtr II (E A D G B E) - 'Distortion Guitar'
Gtr III (E A D G B E) - 'Lead Guitar'
Gtr IV (E A D G B E) - 'Lead Guitar'
Gtr V (E A D G B E) - 'Clean Guitar'
Gtr VI (E A D G B E) - 'Lead Guitar'

 Intro
  Q=184
  B5N.C.                             C5N.C.
 4/4
  Gtr II
  E E Q   H         W                E E Q   H         W
|-----------------|----------------|-----------------|----------------|
|-----------------|----------------|-----------------|----------------|
|-----------------|----------------|-----------------|----------------|
|-4---------------|----------------|-5---------------|----------------|
|-2---------------|----------------|-3---------------|----------------|
|-----------------|----------------|-----------------|----------------|
|
| Gtr I
|   PM|   PM|   PM    PM--| ~  PM|     PM|   PM|   PM    PM--| ~  PM|
| E E E E E E E E   E E E E Q  E E   E E E E E E E E   E E E E Q  E E
|-----------------|----------------|-----------------|----------------|
|-----------------|----------------|-----------------|----------------|
|-----------------|----------------|-----------------|----------------|
|-4-----3-----2---|----------------|-4-----3-----2---|----------------|
|---0-2---0-2---2-|-5-3-2-0-2--0-3-|---0-2---0-2---2-|-5-3-2-0-2--0-4-|
|-----------------|----------------|-----------------|----------------|


  C#N.C.
    PM|   PM|   PM    PM--| ~  PM|     PM|   PM|   PM    PM--|
  E E E E E E E E   E E E E Q  E E   E E E E E E E E   E E E E E E E E
|-----------------|----------------|-----------------|------------------||
|-----------------|----------------|-----------------|------------------||
|-----------------|----------------|-----------------|------------------||
|-6-----3-----2---|----------------|-4-----3-----2---|------------------||
|-4-0-2---0-2---2-|-5-3-2-0-2--0-3-|---0-2---0-2---2-|-5-3-2-0-2-----2--||
|-----------------|----------------|-----------------|-----------0-2----||
|
|   PM|   PM|   PM    PM--| ~  PM|     PM|   PM|   PM    PM--|
| E E E E E E E E   E E E E Q  E E   E E E E E E E E   E E E E E E E E
|-----------------|----------------|-----------------|------------------||
|-----------------|----------------|-----------------|------------------||
|-----------------|----------------|-----------------|------------------||
|-4-----3-----2---|----------------|-4-----3-----2---|------------------||
|---0-2---0-2---2-|-5-3-2-0-2--0-3-|---0-2---0-2---2-|-5-3-2-0-2-----2--||
|-----------------|----------------|-----------------|-----------0-2----||


   Verse
    N.C.
    Gtrs I, II
      PM|   PM|   PM    PM--|             PM|   PM|   PM    PM--|
    E E E E E E E E   E E E E E E E E   E E E E E E E E   E E E E E E E E  4x
||------------------|-----------------|-----------------|------------------||
||o-----------------|-----------------|-----------------|-----------------o||
||------------------|-----------------|-----------------|------------------||
||--4-----3-----2---|-----------------|-4-----3-----2---|------------------||
||o---0-2---0-2---2-|-5-3-2-0-2-----2-|---0-2---0-2---2-|-5-3-2-0-2-----2-o||
||------------------|-----------0-2---|-----------------|-----------0-2----||


 Pre-Chorus
  F#5/CF5/C   E5/B     B5/F#D5/E5/B F#5/CF5/C   E5/B     B5/F#D5/E5/B
                       PM                                PM
  Q.   E +Q   Q    +E  Q.   Q  Q    Q.   E +Q   Q    +E  Q.   Q  Q
|----------------|----------------|----------------|-----------------||
|----------------|----------------|----------------|-----------------||
|----------------|----------------|----------------|-----------------||
|-4----3-(3)--2--|-(2)------0--2--|-4----3-(3)--2--|-(2)------0--2---||
|-4----3-(3)--2--|-(2)-2----0--2--|-4----3-(3)--2--|-(2)-2----0--2---||
|----------------|-----2----------|----------------|-----2-----------||


   Chorus
    Q=180
    $
    N.C.       D5/A  N.C.       F#5  N.C.
    ~  PM|   PM  PM  ~  PM|              PM    PM          ~
    Q  E E E E E E   Q  E E E E q    E E E E E E E E   E E Q  E E  Q    4x
||-----------------|---------------|-----------------|------------------||
||o----------------|---------------|-----------------|-----------------o||
||-----------------|---------------|-----------------|------------------||
||---------4-------|---------------|-------5h7-------|------------------||
||o-2--0-2-----5---|--------5---4--|-5h7---------5h7-|-9-8----7h9------o||
||-----------3-5-0-|-3--2-3-----2--|-----0-----0-----|-----9------10\---||


             To Coda
  G5         E5   C5
  W          H    H
|----------|-----------||
|----------|-----------||
|----------|-----------||
|----------|------5----||
|-5--------|-2----3----||
|-3--------|-0---------||


 Pre-Verse (Drover)
  Q=184
  N.C.
  Gtr III
   ~~~~~~~~~~~~~~~~~~~~~~~~~~~~~~~~~~      ~~~
   W                  +H         +E   Q    E
|------------------|-------------------------|
|-12---------------|-(12)-------(12)-15---13-|
|------------------|-------------------------|
|------------------|-------------------------|
|------------------|-------------------------|
|------------------|-------------------------|
|
| Gtrs I, II
|    PM|   PM|   PM       PM--|   ~~~~  PM|
|  E E E E E E E E     E  E E E   Q     E  E
|------------------|-------------------------|
|------------------|-------------------------|
|------------------|-------------------------|
|--4-----3-----2---|-------------------------|
|----0-2---0-2---2-|---5--3-2-0---2-----0--3-|
|------------------|-------------------------|


 ~~~~~~
                                            |---3---|
   +W                  E  E      +S   S  E  Q  Q    Q
|--------------------|-----------------------------------|
|-(13)---------------|---17b19==(17)r---17-15-12---13----|
|--------------------|-----------------------------------|
|--------------------|-----------------------------------|
|--------------------|-----------------------------------|
|--------------------|-----------------------------------|
|
|      PM|   PM|   PM     PM------------|   ~~   PM---|
|   E  E E E E E E E   E  E       E      E  Q    E    E
|--------------------|-----------------------------------|
|--------------------|-----------------------------------|
|--------------------|-----------------------------------|
|---4------3-----2---|-----------------------------------|
|------0-2---0-2---2-|-5--3-------2------0--2----0----4--|
|--------------------|-----------------------------------|


   ~~
   W                 E  E     +E   +E       +E   +Q      a   E
|------------------|---14b16r(14)-(14)b16==(14)-(14)r==(14)----|
|-14---------------|----------------------------------------14-|
|------------------|-------------------------------------------|
|------------------|-------------------------------------------|
|------------------|-------------------------------------------|
|------------------|-------------------------------------------|
|
|    PM|   PM|   PM     PM--------|          ~~~~    PM-----|
|  E E E E E E E E   E  E      E    E        Q       E       E
|------------------|-------------------------------------------|
|------------------|-------------------------------------------|
|------------------|-------------------------------------------|
|--4-----3-----2---|-------------------------------------------|
|----0-2---0-2---2-|-5--3------2----0--------2-------0-------3-|
|------------------|-------------------------------------------|


   ~~
   W                 E  E     +E   +E       +E   +Q      a   S  S
|------------------|----------------------------------------------||
|-13---------------|---15b17r(15)-(15)b17==(15)-(15)r==(15)-12h15-||
|------------------|----------------------------------------------||
|------------------|----------------------------------------------||
|------------------|----------------------------------------------||
|------------------|----------------------------------------------||
|
|    PM|   PM|   PM     PM--------|          ~~~~    PM-----|
|  E E E E E E E E   E  E      E    E        Q       E       E
|------------------|----------------------------------------------||
|------------------|----------------------------------------------||
|------------------|----------------------------------------------||
|--4-----3-----2---|----------------------------------------------||
|----0-2---0-2---2-|-5--3------2----0--------2-------0-------2----||
|------------------|----------------------------------------------||


 2nd Verse
  N.C.
   ~~
   W                  +Q     Q   H         W                 W
|------------------|---------------------|-----------------|------------------|
|-12---------------|-(12)\---------------|-----------------|------------------|
|------------------|---------------------|-----------------|------------------|
|------------------|---------------------|-----------------|------------------|
|------------------|---------------------|-----------------|------------------|
|------------------|---------------------|-----------------|------------------|
|
|    PM|   PM|   PM        PM--|             PM|   PM|   PM    PM--|
|  E E E E E E E E     E   E E E E E E E   E E E E E E E E   E E E E E E E E
|------------------|---------------------|-----------------|------------------|
|------------------|---------------------|-----------------|------------------|
|------------------|---------------------|-----------------|------------------|
|--4-----3-----2---|---------------------|-4-----3-----2---|------------------|
|----0-2---0-2---2-|---5---3-2-0-2-----2-|---0-2---0-2---2-|-5-3-2-0-2-----2--|
|------------------|---------------0-2---|-----------------|-----------0-2----|


    Gtrs I, II
      PM|   PM|   PM    PM--|             PM|   PM|   PM    PM--|
    E E E E E E E E   E E E E E E E E   E E E E E E E E   E E E E E E E E  3x
||------------------|-----------------|-----------------|------------------||
||o-----------------|-----------------|-----------------|-----------------o||
||------------------|-----------------|-----------------|------------------||
||--4-----3-----2---|-----------------|-4-----3-----2---|------------------||
||o---0-2---0-2---2-|-5-3-2-0-2-----2-|---0-2---0-2---2-|-5-3-2-0-2-----2-o||
||------------------|-----------0-2---|-----------------|-----------0-2----||


   Pre-Chorus
                                                       D.S. al Coda
    F#5/CF5/C   E5/B     B5/F#D5/E5/B           F#5              A5
                         PM
    Q.   E +Q   Q    +E  Q.   Q  Q   3x  E   E  H.        +H     H
||-----------------|-----------------||-----------------|-------------||
||o----------------|----------------o||-----------------|-------------||
||-----------------|-----------------||-----------------|-------------||
||--4----3-(3)--2--|-(2)------0--2---||-[4]-[4]---------|-------------||
||o-4----3-(3)--2--|-(2)-2----0--2--o||---------4-------|-(4)----7----||
||-----------------|-----2-----------||---------2-------|-(2)----5----||


 Guitar Solo (Drover)
  &
          N.C.
  Gtr III
    \6.5____/2.5______________________________________
    a      +W                      +W
|-------------------------------|--------------------|
|-------------------------------|--------------------|
|-<12>----(12)------------------|-(12)---------------|
|-------------------------------|--------------------|
|-------------------------------|--------------------|
|-------------------------------|--------------------|
|
| Gtrs I, II
|           PM------|   PM--------|      PM----|
|           E     E E E E E E E     E  E E E E E E E
|-------------------------------|--------------------|
|-------------------------------|--------------------|
|-------------------------------|--------------------|
|-------------------------------|--------------------|
|---------------------4---------|------3---------3---|
|-----------2-----0-2---2-0-2-0-|---2----2-0-2-0---0-|


           |
                              ~~
   +Q     +E  E Q   E   S S   H.           E E
|---------------------------|-------------------|
|---------------------------|-------------------|
|-(12)---(12)-x-x---4b5-4p2-|-4-----------------|
|---------------------------|--------------2s4--|
|---------------------------|-------------------|
|---------------------------|-------------------|
|
|   PM---|      PM------------|    PM----|
|   E  E   E  E E E E   E     E  E E E E E E E
|---------------------------|-------------------|
|---------------------------|-------------------|
|---------------------------|-------------------|
|---------------------------|-------------------|
|-------------4-------------|----3---------3----|
|---2--0---2----2-0-2---0---|-2----2-0-2-0---0--|


  S S S S S S S S S S S S S S S S   S S S S S S S S S S S S S S S S
|---------------------------------|---------------------------------|
|---------------------------------|---------------------------------|
|-6p4-----7p4-7p4-----6p4-6p4-----|-7p4-----6p4-----6p4-----6p4---4-|
|-----7p4---------7p4---------7p4-|-----7p4-----7p4-----7p4-----7---|
|---------------------------------|---------------------------------|
|---------------------------------|---------------------------------|
|
| PM------|       PM----------------|       PM----------|
| E   E   E   E   E   E   E   E     E   E   E   E   E   E   E   E
|---------------------------------|---------------------------------|
|---------------------------------|---------------------------------|
|---------------------------------|---------------------------------|
|---------------------------------|---------------------------------|
|-------------4-------------------|-----3-------------------3-------|
|-2---0---2-------2---0---2---0---|-2-------2---0---2---0-------0---|


   S S  S S  S S  S S  S S  S S  S S  S  S
|------------------------------------------|
|------------------------------------------|
|-11p9------11p9-11p9----9-11p9-11p9-------|
|------11p9-----------11-------------11-11-|
|------------------------------------------|
|------------------------------------------|
|
|  PM-------|          PM-------------------
|  E    E    E    E    E    E    E    E
|------------------------------------------|
|------------------------------------------|
|------------------------------------------|
|------------------------------------------|
|-----------------4------------------------|
|--2----0----2---------2----0----2----0----|


   S  S  S  S  S  S  S  S  S  S  S  S  S      +S   +S   S
|---------------------------------------------------------||
|---------------------------------------------------------||
|-14p11----11-14p11-------16p14-------16b17==(16)r(16)p14-||
|-------14----------14p11-------16p14---------------------||
|---------------------------------------------------------||
|---------------------------------------------------------||
|
|-|            PM---------------|
|  E     E     E     E     E     E     E            E
|---------------------------------------------------------||
|---------------------------------------------------------||
|---------------------------------------------------------||
|---------------------------------------------------------||
|--------3-----------------------------3------------------||
|--2-----------2-----0-----2-----0------------------0-----||


 Guitar Solo (Mustaine)
  N.C.
  Gtr IV
   S  S  S  S  S  S  S  S  S  S  S  S   S    S  S  S
|----------------------------------------------------|
|----------------------------------------------------|
|----------------------------------------------------|
|----------------------------------------------------|
|--------------------------------------13h==14p13----|
|-12h14-14-14-14-14-15p14-14-14-14-14-------------15-|
|
| Gtr III
|  ~~~
|  H.                                  +Q
|----------------------------------------------------|
|----------------------------------------------------|
|-16----------------------------------(16)\----------|
|----------------------------------------------------|
|----------------------------------------------------|
|----------------------------------------------------|
|
| Gtrs I, II
|  PM---------|            PM-------------------------
|  E     E     E     E     E     E      E       E
|----------------------------------------------------|
|----------------------------------------------------|
|----------------------------------------------------|
|----------------------------------------------------|
|--------------------4-------------------------------|
|--2-----0-----2-----------2-----0------2-------0----|


   S  S  S  S  S  S  S  S  S  S  S  S  S  S  S  S
|-------------------------------------------------|
|-------------------------------------------------|
|-------------------------------------------------|
|-------------------------------------14h16p14----|
|-14h16-16-16-16-16-17p16-16-16-16-16----------16-|
|-------------------------------------------------|
|
|  W
|-------------------------------------------------|
|-------------------------------------------------|
|-------------------------------------------------|
|-------------------------------------------------|
|-------------------------------------------------|
|-------------------------------------------------|
|
|-|            PM---------------|
|  E     E     E     E     E     E     E     E
|-------------------------------------------------|
|-------------------------------------------------|
|-------------------------------------------------|
|-------------------------------------------------|
|--------3-----------------------------3----------|
|--2-----------2-----0-----2-----0-----------0----|


  Gtr IV
   S  S  S  S  S  S  S  S  S  S  S  S  S  S  S  S
|-------------------------------------------------|
|-------------------------------------------------|
|-------------------------------------15h16p15----|
|-14h16-16-16-16-16-17p16-16-16-16-17----------17-|
|-------------------------------------------------|
|-------------------------------------------------|
|
| Gtrs I, II
|  PM---------|            PM----------------------
|  E     E     E     E     E     E     E     E
|-------------------------------------------------|
|-------------------------------------------------|
|-------------------------------------------------|
|-------------------------------------------------|
|--------------------4----------------------------|
|--2-----0-----2-----------2-----0-----2-----0----|


                     |--3--|
   S  S  S  S  S  S  S  S  S  S  S  S  S  S  E.
|----------------------------------19-22-23-23\---|
|----------------16-17-19-17-19-20----------------|
|-15-16-18-16-18----------------------------------|
|-------------------------------------------------|
|-------------------------------------------------|
|-------------------------------------------------|
|
|-|            PM------------------|
|  E     E     E     E        E     E     E     E
|-------------------------------------------------|
|-------------------------------------------------|
|-------------------------------------------------|
|-------------------------------------------------|
|--------3--------------------------------3-------|
|--2-----------2-----0--------2-----0-----------0-|


   S  S  S  S  S  S  S  S  S  S  S  S  S  S  S  S
|-------------------------------------19-17-14-14-|
|-19-19-19-19-17-14-19-19-19-19-17-14-------------|
|-------------------------------------------------|
|-------------------------------------------------|
|-------------------------------------------------|
|-------------------------------------------------|
|
|  PM---------|            PM----------------------
|  E     E     E     E     E     E     E     E
|-------------------------------------------------|
|-------------------------------------------------|
|-------------------------------------------------|
|-------------------------------------------------|
|--------------------4----------------------------|
|--2-----0-----2-----------2-----0-----2-----0----|


   S  S  S  S  S  S  S  S  S  S  S  S  S  S  S  S
|-------------------------------------------------|
|-19-19-19-19-17-14-19-19-19-19-17-14-------------|
|-------------------------------------18-16-16-18-|
|-------------------------------------------------|
|-------------------------------------------------|
|-------------------------------------------------|
|
|-|            PM---------------|
|  E     E     E     E     E     E     E     E
|-------------------------------------------------|
|-------------------------------------------------|
|-------------------------------------------------|
|-------------------------------------------------|
|--------3-----------------------------3----------|
|--2-----------2-----0-----2-----0-----------0----|


   S  S  S  S  S  S  S  S  S  S  S  S  S  S  S  S
|-------------------------------------19-17-14-14-|
|-19-19-19-19-17-14-19-19-19-19-17-14-------------|
|-------------------------------------------------|
|-------------------------------------------------|
|-------------------------------------------------|
|-------------------------------------------------|
|
|  E     E     E     E     E     E     E     E
|-------------------------------------------------|
|-------------------------------------------------|
|-------------------------------------------------|
|-------------------------------------------------|
|--------------------4----------------------------|
|--2-----0-----2-----------2-----0-----2-----0----|


   S  S  S  S  S  S  S  S  S  S  S  S  S  S  S  S
|-------------------------------------------------|
|-19-19-19-19-17-14-19-19-19-19-17-14-19-19-17-14-|
|-------------------------------------------------|
|-------------------------------------------------|
|-------------------------------------------------|
|-------------------------------------------------|
|
|  E     E     E     E     E     E     E     E
|-------------------------------------------------|
|-------------------------------------------------|
|-------------------------------------------------|
|-------------------------------------------------|
|--------3-----------------------------3----------|
|--2-----------2-----0-----2-----0-----------0----|


                                 6/4
                             ~~~~~~~~~~
   S   S  E  E  S  S  E   E  Q     +W.
|-19--17p14---------------------|---------||
|-----------17-19-17p14---------|---------||
|------------------------16-14--|-(14)----||
|-------------------------------|---------||
|-------------------------------|---------||
|-------------------------------|---------||
|
|  Q.           E    +Q      Q     +W.
|-------------------------------|---------||
|-------------------------------|---------||
|-------------------------------|---------||
|-/4----------------------------|---------||
|-/5------------4----(4)-----2--|--(2)----||
|---------------5----(5)-----3--|--(3)----||


 Interlude
  Q=69
  Emadd9         Cmaj7+11/E
 4/4
  Gtr IV
    ~~~           ~~~~~~~~~
    Q        E    E    +Q         Q
|-----------------------------------------|
|-----------------------------------------|
|-/12-------16---14---(14)----------------|
|--------------------------------12-------|
|-----------------------------------------|
|-----------------------------------------|
|
| Gtr III
|   ~~~           ~~~~~~~~~
|   Q        E    E    +Q         Q
|-----------------------------------------|
|-----------------------------------------|
|--/9-------12---11---(11)----------------|
|---------------------------------9-------|
|-----------------------------------------|
|-----------------------------------------|
|
| Gtr V
|   S S S S  S S  S S   S  S S S  S S S S
|-----------------------------------------|
|---------------------------------0-------|
|---------0----------------0--------0-----|
|-------4----4----------4----4--------4---|
|-----2--------2----3----------3--------3-|
|---0-------------0-----------------------|


  Emadd9        Cmaj7+11/E
   ~~            ~~~~~~~~~           ~~
   Q        E    E    +E     a  E    Q
|--------------------------------------------|
|--------------------------------------------|
|----------12---11---(11)---11s16---14-------|
|-14-----------------------------------------|
|--------------------------------------------|
|--------------------------------------------|
|
|  ~~            ~~~~~~~~~           ~~
|  Q        E    E    +E     a  E    Q
|--------------------------------------------|
|--------------------------------------------|
|-----------9----------------9s12---11-------|
|-10------------12---(12)--------------------|
|--------------------------------------------|
|--------------------------------------------|
|
|  S S S S  S S  S S   S  S     S S  S S S S
|------------------------------------0-------|
|--------------------------------------0-----|
|--------0----------------0--------------0---|
|------4----4----------4--------4----------4-|
|----2--------2----3--------------3----------|
|--0-------------0---------------------------|


  Emadd9        Cmaj7+11/E
   ~~            ~~~~~~~~~
   Q        E    E    +Q         E    E
|-----------------------------------------|
|-------------------------------13s==15---|
|-12-------14---16---(16)-----------------|
|-----------------------------------------|
|-----------------------------------------|
|-----------------------------------------|
|
|  ~~            ~~~~~~~~~
|  Q        E    E    +Q         E    E
|-----------------------------------------|
|-------------------------------10s==12---|
|--9-------11---12---(12)-----------------|
|-----------------------------------------|
|-----------------------------------------|
|-----------------------------------------|
|
|  S S S S  S S  S S   S  S S S  S S  S S
|-----------------------------------------|
|--------------------------------0--------|
|--------0----------------0--------0------|
|------4----4----------4----4---------4---|
|----2--------2----3----------3---------3-|
|--0-------------0------------------------|


  Emadd9        Cmaj7+11/E
   ~~            ~~~~~~~~~
   Q        E    E    +E     E    S  S  E
|-------------------------------------------|
|-13-------15---17---(17)---15---13---------|
|-----------------------------------16-14---|
|-------------------------------------------|
|-------------------------------------------|
|-------------------------------------------|
|
|  ~~            ~~~~~~~~~
|  Q        E    E    +E     E    S  S  E
|-------------------------------------------|
|-10-------12---13---(13)---12---10---------|
|-----------------------------------12-11---|
|-------------------------------------------|
|-------------------------------------------|
|-------------------------------------------|
|
|  S S S S  S S  S S   S  S  S S  S  S  S S
|---------------------------------0---------|
|------------------------------------0------|
|--------0----------------0-------------0---|
|------4----4----------4-----4------------4-|
|----2--------2----3-----------3------------|
|--0-------------0--------------------------|


  Emadd9        Cmaj7+11/E
   ~~            ~~~~~~~~~
   Q        E    E    +Q         Q
|----------------------------------------|
|----------------------------------------|
|-12-------16---14---(14)----------------|
|-------------------------------12-------|
|----------------------------------------|
|----------------------------------------|
|
|  ~~            ~~~~~~~~~
|  Q        E    E    +Q         Q
|----------------------------------------|
|----------------------------------------|
|--9-------12---11---(11)----------------|
|--------------------------------9-------|
|----------------------------------------|
|----------------------------------------|
|
|  S S S S  S S  S S   S  S S S  S S S S
|----------------------------------------|
|--------------------------------0-------|
|--------0----------------0--------0-----|
|------4----4----------4----4--------4---|
|----2--------2----3----------3--------3-|
|--0-------------0-----------------------|


  Emadd9        Cmaj7+11/E
   ~~            ~~~~~~~~~           ~~
   Q        E    E    +E     a  E    Q
|---------------------------------------------|
|---------------------------------------------|
|----------12---11---(11)---11s16---14--------|
|-14------------------------------------------|
|---------------------------------------------|
|---------------------------------------------|
|
|  ~~            ~~~~~~~~~           ~~
|  Q        E    E    +E     a  E    Q
|---------------------------------------------|
|---------------------------------------------|
|-----------9----------------9s12---11--------|
|-10------------12---(12)---------------------|
|---------------------------------------------|
|---------------------------------------------|
|
|  S S S S  S S  S S   S  S     S S  S S S S
|------------------------------------0--------|
|--------------------------------------0------|
|--------0----------------0--------------0----|
|------4----4----------4--------4----------4--|
|----2--------2----3--------------3-----------|
|--0-------------0----------------------------|


  Emadd11       Cmaj7+11/E
  Gtr VI
   ~~            ~~~~~~~~~
   Q        E    E    +Q         E    E
|---------------19---(19)-------20---22---|
|-20-------22-----------------------------|
|-----------------------------------------|
|-----------------------------------------|
|-----------------------------------------|
|-----------------------------------------|
|
| Gtrs III, IV
|  ~~            ~~~~~~~~~
|  Q        E    E    +Q         E    E
|--------------------------------8s==10---|
|--8-------10---12---(12)-------10s==12---|
|--9-------11---12---(12)-----------------|
|-----------------------------------------|
|-----------------------------------------|
|-----------------------------------------|
|
| Gtr V
|  S S S S  S S  S S   S  S S S  S S  S S
|-----------------------------------------|
|--------------------------------0--------|
|--------0----------------0--------0------|
|------4----4----------4----4---------4---|
|----2--------2----3----------3---------3-|
|--0-------------0------------------------|


  Emadd11       Cmaj7+11/E
   ~~            ~~~~~~~~~
   Q        E    E    +E     E    S  S  E
|-20-------22---24---(24)---22---20-19------||
|--------------------------------------22---||
|-------------------------------------------||
|-------------------------------------------||
|-------------------------------------------||
|-------------------------------------------||
|
|  ~~            ~~~~~~~~~
|  Q        E    E    +E     E    S  S  E
|--8-------10---12---(12)---10----8---------||
|-10-------12---13---(13)---12---10-12-10---||
|-----------------------------------12-11---||
|-------------------------------------------||
|-------------------------------------------||
|-------------------------------------------||
|
|  S S S S  S S  S S   S  S  S S  S  S  S S
|---------------------------------0---------||
|------------------------------------0------||
|--------0----------------0-------------0---||
|------4----4----------4-----4------------4-||
|----2--------2----3-----------3------------||
|--0-------------0--------------------------||


 Bridge
  Q.=184
     B5
 12/8
  Gtrs III, IV
       ~~~~~~~~~~~~~~~~~~~~~~~~~~~~~~~~~~~~~~~~~~~~~~~~~~~~~~~~~~~~~~~
       W.
|----/11-------------------------------------------------------------|
|----/12-------------------------------------------------------------|
|--------------------------------------------------------------------|
|--------------------------------------------------------------------|
|--------------------------------------------------------------------|
|--------------------------------------------------------------------|
|
| Gtr VI
|      |--4:3---|  |------5:3------|  |----5:3-----|  |----4:3-----|
|  a   E  E  E  E  E  E    E  E    E  E   E  E  E  E  E  E    E    E
|-14h=15p14p12s11-12h14h==15p14p==12p11--12h14h15p14p12p11---12h==14h|
|--------------------------------------------------------------------|
|--------------------------------------------------------------------|
|--------------------------------------------------------------------|
|--------------------------------------------------------------------|
|--------------------------------------------------------------------|
|
| Gtrs I, II
|                  PM-----------|                     PM--------|
|      Q.          E    E       E     Q.              E    E    E
|--------------------------------------------------------------------|
|--------------------------------------------------------------------|
|--------------------------------------------------------------------|
|--------------------------------------------------------------------|
|------9------------------------------9------------------------------|
|------7-----------7----7-------7-----7---------------7----7----7----|


                                                  A5
 ~~~~~~~~~~~~~~~~~~~~~~~~~~~~~~~~~~~~~~
   +H.                             +Q.             +Q.
|-(11)----------------------------(11)------------(11)\-----------------|
|-(12)----------------------------(12)------------(12)\-----------------|
|-----------------------------------------------------------------------|
|-----------------------------------------------------------------------|
|-----------------------------------------------------------------------|
|-----------------------------------------------------------------------|
|
|   |----5:3----|  |----4:3-----|   |----5:3----|   |-----5:3------|
|   E  E  E  E  E  E  E    E    E   E  E  E  E  E   E    E E  E    E
|--15p14p12p11-12h14p12p==11--------------------------------------------|
|------------------------------13--10h12h13p12p10-----------------------|
|--------------------------------------------------12p==11p9h11h==12----|
|-----------------------------------------------------------------------|
|-----------------------------------------------------------------------|
|-----------------------------------------------------------------------|
|
|                  PM--------|
|   Q.             E    E    E      Q.              Q           E
|-----------------------------------------------------------------------|
|-----------------------------------------------------------------------|
|-----------------------------------------------------------------------|
|-----------------------------------------------------------------------|
|---9-------------------------------9---------------7-------------------|
|---7--------------7----7----7------7---------------5-------------------|


  B5
  Gtr VI
                     |-----5:3-----| |-4:3--|  |---4:3---|
   S  S  S  S  S  S  E  E    E E   E E  E E E  E E   E   E
|----------------------------------------------------------|
|-10h12h13p12p10----10-------------------------------------|
|----------------12----12p==11p9S==8h9h11p9p8--------------|
|---------------------------------------------10-9---7-----|
|--------------------------------------------------------9-|
|----------------------------------------------------------|
|
| Gtrs I, II
|                    PM----------|             PM------|
|  Q.                E    E      E   Q.        E   E   E
|----------------------------------------------------------|
|----------------------------------------------------------|
|----------------------------------------------------------|
|----------------------------------------------------------|
|--9---------------------------------9---------------------|
|--7-----------------7----7------7---7---------7---7---7---|


                    C5
     ~~~~~~~~
  4:3|
  E  Q.  +H.            +Q.
|-----------------------------------||
|-----------------------------------||
|-----------------------------------||
|-----------------------------------||
|-7--6---(6)------------(6)\--------||
|-----------------------------------||
|
|         PM---|
| Q.      E  E E Q   E  +Q     +E
|-----------------------------------||
|-----------------------------------||
|-----------------------------------||
|-----------------------------------||
|-9--------------9--10-(10)---(10)\-||
|-7-------7--7-7-7---8--(8)----(8)\-||


   Out-Chorus
    Q=180
    N.C.       D5/A  N.C.       F#5  N.C.
   4/4
    Gtrs I, II
    ~  PM|   PM  PM  ~  PM|              PM    PM          ~
    Q  E E E E E E   Q  E E E E q    E E E E E E E E   E E Q  E E  Q     4x
||-----------------|---------------|-----------------|-------------------||
||o----------------|---------------|-----------------|------------------o||
||-----------------|---------------|-----------------|-------------------||
||---------4-------|---------------|-------5h7-------|-------------------||
||o-2--0-2-----5---|--------5---4--|-5h7---------5h7-|-9-8----7h9-------o||
||-----------3-5-0-|-3--2-3-----2--|-----0-----0-----|-----9------10\----||


  N.C.       D5/A  N.C.       F#5  N.C.
  Gtr II
  ~  PM|   PM  PM  ~  PM|               PM     PM              ~~
  Q  E E E E E E   Q  E E E E q    E  E E E  E E E  E    E  E  Q   E  E  Q
|----------------|---------------|--------------------|-----------------------|
|----------------|---------------|--------------------|-----------------------|
|----------------|---------------|--------------------|-----------------------|
|--------4-------|---------------|--------9h10--------|-----------------------|
|-2--0-2-----5---|--------5---4--|-9h10----------9h10-|-12-11-----10h12-------|
|----------3-5-0-|-3--2-3-----2--|------0------0------|-------13--------14\---|
|
| Gtr I
| ~  PM|   PM  PM  ~  PM|               PM     PM              ~~
| Q  E E E E E E   Q  E E E E q    E  E E E  E E E  E    E  E  Q   E  E  Q
|----------------|---------------|--------------------|-----------------------|
|----------------|---------------|--------------------|-----------------------|
|----------------|---------------|--------------------|-----------------------|
|--------4-------|---------------|--------5h=7--------|-----------------------|
|-2--0-2-----5---|--------5---4--|-5h=7----------5h=7-|--9--8------7h=9-------|
|----------3-5-0-|-3--2-3-----2--|------0------0------|--------9--------10\---|


  N.C.       D5/A  N.C.       F#5  N.C.
  ~  PM|   PM  PM  ~  PM|               PM     PM              ~~
  Q  E E E E E E   Q  E E E E q    E  E E E  E E E  E    E  E  Q   E  E Q
|----------------|---------------|--------------------|---------------------|
|----------------|---------------|--------------------|---------------------|
|----------------|---------------|--------------------|---------------------|
|--------4-------|---------------|--------9h10--------|---------------------|
|-2--0-2-----5---|--------5---4--|-9h10----------9h10-|-12-11-----12--------|
|----------3-5-0-|-3--2-3-----2--|------0------0------|-------13-----14-----|
|
| ~  PM|   PM  PM  ~  PM|               PM     PM              ~~
| Q  E E E E E E   Q  E E E E q    E  E E E  E E E  E    E  E  Q   E  E Q
|----------------|---------------|--------------------|---------------------|
|----------------|---------------|--------------------|---------------------|
|----------------|---------------|--------------------|---------------------|
|--------4-------|---------------|--------5h=7--------|---------------------|
|-2--0-2-----5---|--------5---4--|-5h=7----------5h=7-|--9--8------9--------|
|----------3-5-0-|-3--2-3-----2--|------0------0------|--------9-----10-----|


    N.C.       D5/A  N.C.       F#5
    ~  PM|   PM  PM  ~  PM|
    Q  E E E E E E   Q  E E E E q
||-----------------|---------------|
||o----------------|---------------|
||-----------------|---------------|
||---------4-------|---------------|
||o-2--0-2-----5---|--------5---4--|
||-----------3-5-0-|-3--2-3-----2--|
|
|   ~  PM|       PM  ~  PM|
|   Q  E E E E E E   Q  E E E E q
||-----------------|---------------|
||o----------------|---------------|
||-----------------|---------------|
||---------4-------|---------------|
||o-2--0-2-----5---|--------5---4--|
||-----------3-5-0-|-3--2-3-----2--|


  N.C.
       PM     PM              ~~
  E  E E E  E E E  E    E  E  Q   E  E  Q
|--------------------|-----------------------||
|--------------------|----------------------o||
|--------------------|-----------------------||
|--------9h10--------|-----------------------||
|-9h10----------9h10-|-12-11-----10h12------o||
|------0------0------|-------13--------14\---||
|
|      PM     PM              ~~
| E  E E E  E E E  E    E  E  Q   E  E  Q
|--------------------|-----------------------||
|--------------------|----------------------o||
|--------------------|-----------------------||
|--------5h=7--------|-----------------------||
|-5h=7----------5h=7-|--9--8------7h=9------o||
|------0------0------|--------9--------10\---||


  G5         E5   C5     B5
  Gtrs I, II
  W          H    H      Q  +Q    H
|----------|-----------|---------------*|
|----------|-----------|---------------*|
|----------|-----------|---------------*|
|----------|------5----|-4--(4)\-------*|
|-5--------|-2----3----|-2--(2)\-------*|
|-3--------|-0---------|---------------*|



Duration Legend
---------------
W - whole; H - half; Q - quarter; E - 8th; S - 16th; T - 32nd; X - 64th; a - acciaccatura
+ - note tied to previous; . - note dotted; .. - note double dotted
Uncapitalized letters represent notes that are staccato (1/2 duration)
Irregular groupings are notated above the duration line
Duration letters will always appear directly above the note/fret number it represents the
duration for.  Duration letters with no fret number below them represent rests.  Multi-
bar rests are notated in the form Wxn, where n is the number of bars to rest for.  Low
melody durations appear below the staff

Tablature Legend
----------------
 h   - hammer-on
 p   - pull-off
 b   - bend
 pb  - pre-bend
 r   - bend release (if no number after the r, then release immediately)
 /\  - slide into or out of (from/to "nowhere")
 s   - legato slide
 S   - shift slide
 - natural harmonic
[n]  - artificial harmonic
n(n) - tapped harmonic
 ~   - vibrato
 tr  - trill
 T   - tap
 TP  - trem. picking
 PM  - palm muting
\n/  - tremolo bar dip; n = amount to dip
 \n  - tremolo bar down
 n/  - tremolo bar up
/n\  - tremolo bar inverted dip
 =   - hold bend; also acts as connecting device for hammers/pulls
 <> - volume swell (louder/softer)
 x   - on rhythm slash represents muted slash
 o   - on rhythm slash represents single note slash

Misc Legend
-----------
 |  - bar
||  - double bar
||o - repeat start
o|| - repeat end
*|  - double bar (ending)
 :  - bar (freetime)
 $  - Segno
 &  - Coda
Tempo markers -  = BPM(8/16=s8/s16), where s8 = swing 8ths, s16 = swing 16ths

comments
We did not receive enough feedback on this tab! Please rate:
print report bad tab
1 2 3 4 5
I want to post or [tab]
guest
You may want to rate the tab now too:
select rating
Please do not post tabs as comments. Select "correction" instead!