Oops, an error
Loading. Please wait.

Peace Sells But Whos Buying Bass Tab

5,024 views 27 this week
5 commentsread comments
1 2 3 4 5
excellent!
x 3
add to favorites launch autoscroll
font size
0
reset
Autoscroll
+/-
esc
set tempo
stop
Contributor
WARNING: You are trying to view
                                    content from Ultimate-Guitar.com
                                    in an unauthorized application,
                                    which is prohibited.

                                    Please use an official Ultimate
                                    Guitar Tabs application for iPhone,
                                    iPad or Android to access legitimate
                                    chords, guitar, bass, and drum tabs
                                    from Ultimate-Guitar.com database.

                                    Type "ultimate guitar tabs" in Apple
                                    App Store's or Android Market's
                                    search to find the application.
Ok, ok, ok. Everyone is gonna say some of these songs are wrong, but
they're not. I compared these tabs to the actual bass track and it was
a pain in my ass, but they are very accurate. The only one that isn't all
that close would probably be "Bad Omen"

To tune a quarter step down set the HZ on a Chromatic Tuner to 426 or 430
it should be right. Another way is to move the in tune bar about +40 cents.
OR you can tune by ear.



Megadeth-Wake Up Dead

Tune 1/4 step down

Intro
|-----------------||
|----------44-----||
|-55-44-22----000-||
|-----------------||

Riff 1
|-----------------|----|-----------------|-----------------||4x
|-----------------|-6x-|-------2---------|-------3---------||
|-------0---0-----|----|-----------------|-----------------||
|-2--02-------2-0-|----|-2--02-----------|-2--02-----------||

Riff 2
|------------------|-R---------------|--|--|
|------------------|-----------------|-3x--|
|-109----------109-|-----------------|--|--|
|-----0-9-10-0-----|-------------9-10|--|--|

|------------------|------------------|-----------------||
|------------------|------------------|-----------------||
|-109----------109-|-9-10--9----------|-7-8---7---------||
|-----0-9-10-0-----|-----12--10-129-10|-----10--8-108-7-||

Riff 3
|-----------------|---------|-----------------|-----------------||4x
|-----------------|-----5---|-------------5---|-----------------||
|-----------------|---------|-----------------|-----------------||
|-6-0-0-5-0-0-6-0-|-5-0---0-|-6-0-0-5-0-0---0-|-0-0-0-0-0-0-8-7-||

Riff 3a
|-----------------|---------|-----------------|-----------------||4x
|-----------------|-----5---|-------------5---|-----------------||
|-----------------|---------|-----------------|-7---6-5-4-------||
|-6-0-0-5-0-0-6-0-|-5-0---0-|-6-0-0-5-0-0---0-|---8-------0-8-7-||

Lead In
|-----------------||
|-----------------||
|-1---------3-1---||
|---1-1-1-3-----3-||

Riff 4
|-----------------|-----------------|--|--|-----------------|-----------------||
|-----------------|-----------------|-3x--|-----------------|-----------------||
|-------2---------|-------5---4---2-|--|--|-------2---------|-------4---------||
|-4-444-----2---3-|-4-444-----------|--|--|-4-444-----2---3-|-4-444-----4---5-||

Riff 5
|-----------------|-----------------|-----------------|-----------------||
|-----------------|-----------------|-----------------|-----------------||
|---------------4-|---------------6-|---------------7-|-------7---6-----||
|-6-666-666-4-6---|---666-666-4-6---|---666-666-4-6---|---666-----------||

Riff 6
|-----------------|-----------------|-----------------|-----------------||
|-----------------|-----------------|-----------------|-----------------||
|-----------------|-------------0---|-----------------|-0--2----2--3----||
|-4444444444444444|-444444444444--2-|-4444444444444444|-------4-------3-||

Riff 7
|-----------------|-----------------|-----------------|-----------------||3x
|-----------------|-----------------|-----------------|-------6---------||
|-----------------|-----------------|-----------------|----5------5---5-||
|-2222222222222222|-2222222222222222|-2222222222222222|-4-----------4---||

Riff 1a
|-----------------|-----------------|-----------------|-----------------|
|-----------------|-----------------|-------5---4---2-|-----------------|
|-------0---------|-------3-------1-|-----------------|-------5-------5-|
|-2--02-----0---1-|-2--02-----3-----|-2--02-----------|-2--02-----4-----|

|-----------------|-----------------|-----------------|-----------------||
|-----------------|-----------------|-6---------------|-----------------||
|-------0---------|-------5---7-----|-4---------------|---R-------------||
|-2--02-----0---1-|-2--02-----------|-----------------|-2---------------||

Lead In
|---------||
|---------||
|---------||
|-2---1---||

Riff 8
|-----------------|-----------------||14x
|-----------------|-----------------||
|-----7---8-55--57|-----7---5-------||
|-0-----------07--|-0---------------||


-----------------------------------------------------------------------------


Megadeth-The Conjuring

Tune 1/4 step down

Rest 8 Bars

Riff 1
|-----------------|-----------------|-----------------|-----------------||6x
|-----------------|-------8---7-----|-----------------|-----------------||
|-----------------|---------------6-|-7---------------|-----2-----------||
|-0-000-000-000-00|-0-000---0---0---|---003-0---000-00|-0-00----0-001---||

Pause
|-----------------||
|-----------------||
|-----R-----------||
|-0---------------||

Riff 2
|-----------------|-----------------|-----------------|-----------------|
|-----------------|-----------------|-----------------|-----------------|
|-0---------------|-2---------R---0-|-----------------|-2---------R---0-|
|---2-22--0-2-22--|---2-22--0-------|---2-22--0-2-22--|---2-22--0-------|

|-----------------|-----------------|-----------------|-----------------||
|-----------------|-----------------|-----------------|-----------------||
|-----------------|-2---------R---0-|-----------------|---R---------7\\\||
|---2-22--0-2-22--|---2-22--0-------|---2-22--0-2-22--|-0---------------||

Play Riff 1 – 4x

Riff 3
|-----------------|----|-----------------||
|-----------------|-7x-|-----------------||
|-----------------|----|-------------2---||
|-0-2-2-2-2-2-2-2-|----|-0-2-2-2-2-2-----||

Play Riff 1 – 2x
Play Riff 3

Riff 3a
|-----------------|----|-----------------||
|-----------------|-7x-|-----------------||
|-----------------|----|-------------2/7-||
|-2-4-4-4-4-4-4-4-|----|-2-4-4-4-4-4-----||

Riff 4
|-----------------|-----------------|-----------------|-----------------|
|-----------------|-----------------|-----------------|-----------------|
|-----------------|-----------5---7-|-----------------|-----------5---7-|
|---0-0-0-3-2-0-2-|-0-0-0-0-0-------|---0-0-0-3-2-0-2-|-0-0-0-0-0-------|

|-----------------|-----------------|-----------------|-----------------||
|-----------------|-----------------|-----------------|-----------------||
|-----------------|-----------5---7-|-----------------|-----------5---7-||
|---0-0-0-3-2-0-2-|-0-0-0-0-0-------|---0-0-0-3-2-0-2-|-0-0-0-0-0-----0-||

Break
|-----------------|-----------------|-----------------|-----------------|
|---R-------------|---R-------------|---R-------------|-----------------|
|(7)------------7-|(7)------------7-|(7)--------------|---------5-6-7-7-|
|(0)------------0-|(0)------------0-|(0)------------0-|---5-6-7---------|

|-----------------|-----------------|-----------------|-----------------|
|---R-------------|---R-------------|---R-------------|-----------------|
|-7-------------7-|(7)------------7-|(7)------------7-|-----5-----------|
|-0-------------0-|(0)------------0-|(0)--------------|---0---7-6-5-3-0-|

|-----------------|-----------------|-----------------|-----------------|
|---R-------------|---R-------------|---R-------------|-----------------|
|-7-------------7-|(7)------------7-|(7)--------------|---------5-6-7-7-|
|-0-------------0-|(0)------------0-|(0)------------0-|---5-6-7---------|

|-----------------|-----------------|---------------9-|---8-7-----------||
|---R-------------|---R-------------|---R-------------|-------9-8-7-----||
|-7-------------7-|(7)------------7-|(7)--------------|-------------9-8-||
|-0-------------0-|(0)------------0-|(0)--------------|-----------------||

Lead In
|-----------------|-----------------|-----------------|-----------------|
|-----------------|-----------------|-----------------|-----------------|
|-----R-----------|-----------------|-----------------|-----------------|
|-0---------------|-----------------|-----------------|---------6-5-3-0-|

|-----------------|-----------------|-----------------|-----------------||
|-----------------|-----------------|-----------------|-----------------||
|-----------------|-----------------|-----------------|-----------------||
|(0)--------------|(0)--------------|(0)--------------|---------6-5-3-0-||

Riff 5
|-----------------|-----------------|-----------------|-----------------|
|-----------------|-----------------|-----------------|-----------------|
|-----------------|-------7---------|-----------------|-----------------|
|---0-0-0-6-5-3-0-|---0-0-----6---0-|---0-0-0-6-5-0-0-|-3-5-3-0-6-5-3-0-|

|-----------------|-----------------|-----------------|-----------------|2x this row
|-----------------|-----------------|-----------------|-----------------|
|-----------------|-------7---------|-----------------|-----------------|
|-0-0-0-0-6-5-3-0-|---0-0-----6---0-|---0-0-0-6-5-0-0-|-3-5-3-0-6-5-3-0-|

|-----------------|-----------------|-----------------|-----------------||
|-----------------|-----------------|-----------------|-----------------||
|-----------------|-------7---------|-----------------|-----------------||
|-0-0-0-0-6-5-3-0-|---0-0-----6---0-|---0-0-0-6-5-0-0-|-3-5-3-0-6-5-3-2-||

Riff 6
|-----------------|-----------------|-----------------|-----------------|
|-----------------|-----------------|-----------------|-----------------|
|-----------------|-----------------|-----------------|-------------3---|
|---222-222-222-22|-2-222-222-0-3-2-|---222-222-222-22|-2-222-222-0---2-|

|-----------------|-----------------|-----------------|
|-----------------|-----------------|-----------------|
|-----------------|-----------------|-----------2-//7\|
|---222-222-222-0-|---000-000-2-3-2-|---222-222-------|

|-----------------|-----------------|-----------------|-----------------||3x
|-----------------|-----------------|-----------------|-----------------||
|-----------------|-------7---------|-----------------|-----------------||
|---0-0-0-6-5-3-0-|---0-0-----6---0-|---0-0-0-6-5-0-0-|-3-5-3-0-6-5-3-2-||

Riff 6a
|-----------------|-----------------|-----------------|-----------------|
|-----------------|-----------------|-----------------|-----------------|
|-----------------|-----------------|-----------------|-------------3---|
|---222-222-222-22|-2-222-222-0-3-2-|---222-222-222-22|-2-222-222-0---2-|

|-----------------|-----------------|-----------------|-----------------||
|-----------------|-----------------|-----------------|-----------------||
|-----------------|-------------3---|-------------3---|-------------3---||
|---222-222-0-3-2-|---222-222-0---2-|---0-3-2---0---2-|---0-3-2---0---0-||

Outro
|-----------------|-----------------|-----------------|-----------------||
|-----------------|-----------------|-----------------|-----------------||
|-----------------|-------------2---|(2)--------------|-------------2\\\||
|-----------0-----|-----1-----------|-----------------|-----------------||


-----------------------------------------------------------------------------


Megadeth-Peace Sells

Tune 1/4 step down

Riff 1
|-----------------|-----------------||4x
|-------5-------78|-------5---------||
|-7--57-----7-5---|-7--57-----7-----||
|---------0-------|---------0---5-6-||

Riff 2
|-----------------|-----------------|-----------------|-----------------||4x
|-----------------|-----------------|-----------------|-----------------||
|-----------------|-----------------|-----------------|-----------------||
|-0-0-0-0-0-0-0-4-|-0-0-0-0-0-0-0-3-|-0-0-0-0-0-0-0-4-|-0-0-0-0-0-0-6-5-||

Riff 3
|-----------------|-----------------|-----------------|-----------------|
|-----------5-----|-----R-----------|-----------5-----|-----------------|
|-7-7-5-7-------5-|-7-7-------------|-7-7-5-7---------|-----R-----------|
|---------0---0---|-----------------|---------0---0-2-|-3-3-------------|

|-----------------|-----------------||
|-----------------|-----------------||
|-----------5-----|---------------3-||
|-3-3-2-3-0---0-2-|-3-3-3-3-3-2-1---||

Play Riff 2 – 5x
Play Riff 3

Riff 4
|-----------------|----|-----------------|
|-----------------|-3x-|-----------------|
|-----------------|----|-----------------|
|-0-0-0-0-0-0-0-0-|----|-0-0-0-0-0-0-323-|

|-----------------|----|-----------------||
|-----------------|-3x-|-----------------||
|-----------------|----|-----------------||
|-0-0-0-0-0-0-0-0-|----|-0-0-0-0-0-0-3-2-||


Riff 4a
|-----------------|-----------------|-----------------|-----------------||3x
|-----------------|-----------------|-----545-----424-|-----------------||
|-----------------|-----------------|-----------------|-----757-----545-||
|-2-2-2-2-2-2-2-3-|-3-3-3-2-2-2-3-2-|-0-0-----0-0-----|-0-0-----0-0-----||

Lead In
|-----------------|-----------------|-----------------|-----------------||
|-----------------|-----------------|-----------------|-----------------||
|-----------------|-------------5-6-|-7---------------|(7)--------------||
|-2-2-2-2-2-2-2-3-|-3-3-3-2-2-2-----|-0---------------|(0)--------------||

Rest a bit (wait on drums)

Lead In
|-----------------|----|-----------999999||
|-----------------|-7x-|-----------------||
|-77--77----777777|----|-77--77----------||
|---0---0-0-------|----|---0---0-0-------||


Riff 5
|-----------------|-----------------|-----------------|-----------------|
|-----------------|-----------------|-----------------|-----------------|
|-----------------|-----------------|-----------------|-2-2-2-2-2-2-2-2-|
|-0-0-0-0-0-0-0-0-|-3-3-3-3-3-3-3-3-|-2-2-2-2-2-2-2-2-|-----------------|

|-----------------|-----------------|-----------------|-----------------||
|-----------------|-----------------|-----------------|-----------------||
|-----------------|-----------------|-----------------|-2-2-2-2-2-3-2---||
|-0-0-0-0-0-0-0-0-|-3-3-3-3-3-3-3-3-|-2-2-2-2-2-2-2-2-|---------------3-||

Riff 5a
|-----------------|-----------------|-----------------|-----------------|
|-----------------|-----------------|-----------------|-----------------|
|-----------------|-----------------|-----------------|-2-2-2-2-2-2-2-2-|
|-0-0-0-0-0-0-0-0-|-3-3-3-3-3-3-3-3-|-2-2-2-2-2-2-2-2-|-----------------|

|-----------------|-----------------|-----------------|-------------4---||2x
|-----------------|-----------------|-----------------|-----------4---4-||
|-----------------|-----------------|-----------------|-2-2-2-2-2-------||
|-0-0-0-0-0-0-0-0-|-3-3-3-3-3-3-3-3-|-2-2-2-2-2-2-2-2-|-----------------||

Play Riff 5

Riff 5c
|-----------------|-----------------|-----------------|-----------------|
|-----------------|-----------------|-----------------|-----------------|
|-----------------|-----------------|-----------------|-2-2-2-2-2-2-2-2-|
|-0-0-0-0-0-0-0-0-|-3-3-3-3-3-3-3-3-|-2-2-2-2-2-2-2-2-|-----------------|

|-----------------|-----------------|-----------------|-----------------||
|-----------------|-----------------|-----------------|-----------------||
|-----------------|-----------------|-----------------|-2-2-2-2-2-2-----||
|-0-0-0-0-0-0-0-0-|-3-3-3-3-3-3-3-3-|-2-2-2-2-2-2-2-2-|-------------3-2-||

Riff 6
|-----------------|-----------------|-----------------|-----------------||3x
|-----------------|-----------------|-----------------|-----------------||
|-----------------|-----------------|---------------7-|---------------7-||
|-2-1-0-1-2-1-0-1-|-3-3-3-3-2-2-3-2-|-0-0-0-0-0-0-0---|-0-0-0-0-0-0-0---||

End
|-----------------|-----------------|-----||
|-----------------|-----------------|-----||
|-----------------|-----------------|-----||
|-2-1-0-1-2-1-0-1-|-3-3-3-3-2-2-3-2-|-0---||


-----------------------------------------------------------------------------


Megadeth-Devil’s Island

Tune 1/4 step down

Riff 1
|-----------------|-----------------||12x
|-----------------|-----------------||
|---------2-------|-1-------2-0-----||
|-0---------------|-------------2-3-||

Bass Solo
|-----------------|----|-----------------|----|-----------------|-----------------||
|-----------------|-4x-|-----------------|-2x-|-----------------|-----------------||
|-----------------|----|-7---------------|----|-----------------|-----------------||
|-0--00--00--00--0|----|----00--00--00--0|----|-0--00--00--00--0|-0--00--00-0-7\\\||

Riff 2
|-----------------|-----------------|-----------------|-----------------||4x
|-----------------|-----------------|-----------------|-----------------||
|-----------------|-----------------|-----------------|-----------------||
|-0-000-000-000-00|-1-111-111-111-11|-2-222-222-222-22|-3-333-333-333-33||

Riff 3
|-----------------|-----------------|--|--|---------||
|-----------------|-----------------|-4x--|---------||
|-----------------|-----5-------7---|--|--|---------||
|-0---3---0-000-00|-0-00----0-00----|--|--|-0---3---||

Play Riff 2 - 2x
Play Riff 3

Riff 4
|-----------------||8x
|-----------------||
|-----------------||
|-0-003-000-004-3-||

Riff 4a
|-----------------|-----------------||2x
|-----------------|-----------------||
|-----------------|-----------------||
|-0-003-000-004-3-|-0-003-000-005-6-||

Riff 4b
|-----------------|-----------------|-----------------|-----------------||3x
|-----------------|-----------------|-----------------|-----------------||
|-----------------|-----------------|-----------------|-----------------||
|-0-003-000-004-3-|-0-003-000-005-6-|-0-003-000-004-3-|-0-003-2-0-002-1-||

Riff 5
|-----------------|-----------------|-----------------|-----------------||4x
|-----------------|-----------------|-----------------|-----------------||
|---R-------------|---R-xx5---4-----|---R-------------|---R-------------||
|-2---------------|-2-------------5-|-2---------------|-2---xx3---2---0-||

Riff 5a
|-----------------|-----------------|-----------------|-----------------|3x this row
|-----------------|-----------------|-----------------|-----------------|
|-----------------|-------5---4-----|-----------------|-----------------|
|-2-2-2-2-2-2-2-0-|-2---x---------5-|-2-2-2-2-2-2-2-0-|-2---x-3---2---0-|

|-----------------|-----------------|-----------------|-----------------||
|-----------------|-----------------|-----------------|-----------------||
|-----------------|-------5---4-----|---------2-3-320-|-----------------||
|-2-2-2-2-2-2-2-0-|-2---x---------5-|-2-2-2-2---------|-2-x-2-x-2-x-2-x-||

Play Riff 2 – 4x

Riff 3a
|-----------------|-----------------|--|--|---------||
|-----------------|-----------------|-8x--|---------||
|-----------------|-----5-------7---|--|--|---------||
|-0---3---0-000-00|-0-00----0-00----|--|--|-0---3---||

Lead In
|-----------------|-----------------||8x
|-----------------|---R-------------||
|-7---------------|-7---------------||
|-0---------------|-0---------------||

Outro
|-----------------|-----------------|-----------------|-----------------|7x this row
|-----------------|-----------------|-----------------|-----------------|
|-----------------|-------------6-7-|-----------------|---7-6-------5---|
|-0-003-000-004-3-|-0-003-000-00----|-0-003-000-004-3-|-0-----0-5-6-----|

|-----------------|-----------------|-----------------|-----------------|-----||
|-----------------|-----------------|-----------------|-----------------|-----||
|-----------------|-------------6-7-|-----------------|---7-6-------5-7-|-----||
|-0-003-000-004-3-|-0-003-000-00----|-0-003-000-004-3-|-0-----0-5-6-----|-0---||


-----------------------------------------------------------------------------


Megadeth-Good Mourning/Black Friday

Tune 1/4 step down

Rest 7 Bars

Intro
|---------------44|/6-----------4---|---3-----||
|-----------------|-----------R-----|-R-----R-||
|-----------------|-------4-----2---|---1-----||
|-----------------|-----------------|---------||

Riff 1
|-----------------|-------------|---------------44|/6-----------4---|---3-----||3x
|-6---------------|-------------|-----------------|-----------R-----|-R-----R-||
|-----------------|-R-----------|-----------------|-------4-----2---|---1-----||
|-4---------------|-------------|-----------------|-----------------|---------||

Lead In (all whole notes)
|-----|-----|-----|-----------------|-----|-----|----|-------------||
|-9---|-8---|-9---|-8---------------|-----|-----|-7x-|-------------||
|-----|-----|-----|-----------------|-----|-R---|----|---------R---||
|-7---|-6---|-7---|-6---------6-4-2-|-0---|-----|----|-0-----------||

Riff 2
|-------------|-------------|-------------|-------------|
|-------------|-------------|-------------|-------------|
|-------------|-------------|/7-----------|(7)----------|
|-0-----------|(0)----------|-------------|---------10\\|

|-------------|-------------|-------------|-------------|
|-------------|-------------|-------------|-------------|
|-------------|-------------|/5-----------|-3---2-------|
|-0-----------|(0)----------|-------------|---------2-3-|

|-------------|-------------|-------------|-------------|
|-------------|-------------|-------------|-------------|
|-------------|-------------|-7-----------|(7)----------|
|-0-----------|(0)----------|-0-----------|(0)------0-3-|

|-------------|-------------|-------------|-------------||2x
|-------------|-------------|-5-----7-----|-9-----11----||
|-3-----------|-2-----------|-3-----5-----|-7-----9-----||
|-------------|-------------|-------------|-------------||

Riff 3
|-------------|-------------|-------------|-------------||6x
|-------------|-------------|-------------|-------------||
|-------------|-------------|-------------|-------------||
|-0-----------|-2-----------|-3-----------|-5---3---2-3-||

Riff 3a
|-------------|-------------|-------------|-------------|3x this row
|-------------|-------------|-------------|-------------|
|-------------|-------------|-------------|-----R-------|
|-0-----------|-2-----------|-3-----------|-5-3-----2-3-|

|-------------|-------------|-----------------|-------------||
|-------------|-------------|-----------------|-------------||
|-------------|-------------|-----------------|-------------||
|-0-----------|-2-----------|-3---------------|(3)----------||

Lead In
|-----------------|-----------------||
|/7---5---4---2---|-----------------||
|-----------------|-5---3---2---0---||
|-----------------|-----------------||

Riff 4  (short bar is 2 whole notes)
|-----------------|-----------------|--|--|-----------------|----|-----|-----||
|-----------------|-----------------|-9x--|-----------------|-4x-|-----|-----||
|----------R-0320-|----------R-0320-|--|--|-----------------|----|-----|-----||
|-2---3---0------2|-2---3---0------2|--|--|-2---0---3---5---|----|-2---|(2)--||

Rest 4 Bars

Lead In
|-------------|-------------|-------------|-------------|
|-------------|-------------|-------------|-------------|
|-R-----------|-------------|-------------|-------------|
|-------------|-------------|-------------|-------0-2-3-|

|-------------|-------------|-------------|-------------|
|-------------|-------------|-------------|-------------|
|-------------|-------------|-------------|-------------|
|-2-----------|(2)----------|(2)----------|(2)----------|

|-------------|-------------|-------------|-------------||
|-------------|-------------|-------------|-------------||
|-------------|-------------|-5-5-5-3-3-3-|-2-2-2-------||
|(2)----------|(2)----------|-------------|-------0-2-3-||

Riff 5
|-------------|-------------|-------------|-------------|
|-------------|-------------|-------------|-------------|
|-------------|-------------|-------------|-------------|
|-2-2-2-2-2-2-|-2-2-2-3-----|-2-2-2-2-2-2-|-2-2-2-2-2-2-|

|-------------|-------------|-------------|-------------||2x
|-------------|-------------|-------------|-------------||
|-------------|-------------|-5-5-5-3-3-3-|-2-2-2-------||
|-2-2-2-2-2-2-|-2-2-2-3-----|-------------|-------0-2-3-||

Riff 5a
|-------------|-------------|-------------|-------------|
|-------------|-------------|-------------|-------------|
|-------------|-------------|-------------|-------------|
|-3-3-3-3-3-3-|-3-3-3-4-----|-3-3-3-3-3-3-|-3-3-3-4-----|

|-------------|-------------|-------------|-------------|
|-------------|-R-----------|-R-----------|-R-----------|
|-------------|-------------|-------------|-------------|
|-x-x-x-2---2-|---x-x-2---2-|---x-x-2---2-|---x-x-2---2-|

|-------------|-------------|-------------|-------------|
|-------------|-------------|-------------|-------------|
|-------------|-------------|-------------|-------------|
|-3-3-3-3-3-3-|-3-3-3-4-----|-3-3-3-3-3-3-|-3-3-3-4-----|

|-------------|-------------|-------------|-------------||
|-------------|-R-----------|-R-----------|-R-----------||
|-------------|-------------|-------------|-------4---5-||
|-x-x-x-2---2-|---x-x-2---2-|---x-x-0---2-|---x-x-------||

Play Riff 5 – 2x
Play Riff 5a
Play Riff 5

Add On
|-------------|-------------|-------------|-------------|-------------|-------------||
|-------------|-------------|-------------|-------------|-------------|-------------||
|-7-7-7-5-5-5-|-4-4-4-------|-------------|----------///|-9-----------|(9)----------||
|-------------|-------0-2-3-|-2-----------|(2)----------|-------------|-------------||


Lead In
|-----------------|               |-----------------|-----------------||
|-----------------|               |-----------------|-----------------||
|-----R-----------|               |-9999999999999999|-9988776655443210||
|-2---------------|  rest 5 bars  |-----------------|-----------------||

Riff 6
|-----------------|-----------------|-----------------|-----------------|
|-----------------|-----------------|-----------------|-----------------|
|-----------------|-----------------|-----------------|-----------------|
|-2-2-2-2-0-0-0-0-|-3-3-3-3-5-5-5-5-|-2-2-2-2-0-0-0-0-|-3-3-3-3-5-5-5-5-|

|-----------------|-----------------|-----------------|-----------------||2x
|-----------------|-----------------|-----------------|-----------------||
|-----------------|-----------------|-----------------|/9-9-9-9-9-9-9-9-||
|-2-2-2-2-0-0-0-0-|-3-3-3-3-5-5-5-5-|-2-2-2-2-2-2-2-2-|-----------------||

Riff 7
|-----------------|-----------------|-----------------|-----------------|2x this row
|-----------------|-----------------|-----------------|-----------------|
|-----------------|-1--0--3-1--0----|-----------------|-----------------|
|-3-3-3-3-3-3-3-3-|---------------3-|-2-2-2-2-0-0-0-0-|-3-3-3-3-5-5-5-0-|

|-----------------|-----------------|-----------------|-----------------||
|-----------------|-----------------|-----------------|-----------------||
|-----------------|-------------222-|---R-------------|-----------------||
|-3-3-3-3-3-3-355-|-5-5-5-5-5-5-----|-2---------------|-----------------||

Pre Solo
|-----------------|-----------------|-----------------|-----------------|
|-----------------|-----------------|-----------------|-----------------|
|-----------------|---------3--2--0-|-----------------|---------5--4--2-|
|-0-2-2-2-0-2-2-2-|-0-2-2-2---------|-2-4-4-4-2-4-4-4-|-2-4-4-4---------|

|-----------------|-----------------|-----------------|-------------10--||
|-----------------|-----------------|-----------------|-----------------||
|-0-2-2-2-0-2-2-2-|-2-4-4-4-2-4-4-4-|-3-5-5-5-4-6-6-6-|-5-7-7-7-6-8---8-||
|-----------------|-----------------|-----------------|-----------------||

Riff 8
|-----------------|-----------------|-----------------|-----------------||4x
|-----------------|-----------------|-----------------|-----------------||
|-----------------|-----------------|-----------------|---------3--2--0-||
|-2-2-2-2-2-2-2-2-|-2-2-2-2-5--5--0-|-2-2-2-2-2-2-2-2-|-2-2-2-2---------||

Add On
|-----------------||
|-----R-----------||
|-3-------3--2--0-||
|-----------------||

Play Riff 6
Play Riff 7
Play Riff 8 – 8x

End
|-----------------|---------||
|-----------------|---------||
|-3--2--0-3--2--0-|---------||
|-----------------|-2-------||


-----------------------------------------------------------------------------


Megadeth-Bad Omen

Tune 1/4 step down

Riff 1
|-----------------|-----------------|-----------------|-----------------|2x
|-----------------|-----------------|-----------------|-----------------|
|-7-----------8---|(8)--------------|-7-----------1-2-|-1-2-1-2-1---0---|
|-0-----------6---|(6)--------------|-0-------0-0-----|-----------3---2-|

Riff 1a
|-----------------|-----------------|-----------------|-----------------||2x
|-----------------|-----------------|-----------------|---------------8-||
|/7---------------|-----------------|-----------------|-----------7-----||
|-------------6---|(6)------6-6-5-3-|-0-----------6---|-6-6-6-0-6---6---||

Play Riff 1 – 2x
Play Riff 1a

Riff 1b
|-----------------|-----------------|---------------------||
|-----------------|-----------------|---------------------||
|/7---------------|-----------------|-----------------10--||
|-------------6---|(6)------6-6-5-3-|-0-----------6-------||

Riff 2
|-----------------|-----------------|-----------------|-----------------||4x
|-------------5---|-----------------|-------------5---|-----------------||
|-------5-------7-|-6-5-------------|-------5-------7-|-6-5-------------||
|-5-6-7---6-7-----|-----7-6-0-6-6h7-|-5-6-7---6-7-----|-----7-6-2---3---||

Riff 3
|-----------------|-----------------||6x
|-----------------|------------542--||
|-----------------|---------------54||
|-2-222302-2-02320|-2-222302-2------||

Play Riff 2 – 2x
Play Riff 3 – 4x
Play Riff 2 – 2x

Riff 4
|-----------------|-----------------|----||
|-----------------|-----------------|-3x-||
|-----------------|-----------------|----||
|-222222222222223-|---2222222222223-|----||

Riff 4a
|-----------------||4x
|-----------------||
|-----------------||
|-0000000000000000||

Play Riff 2 – 2x

Lead In
|-9---------------|-----------------|-----------------||
|----8------------|----------8----5-|-----------------||
|-------7---------|-------7-----7---|---R-------------||
|----------6--0-3-|-0--6------------|-0---------------||

Riff 5   [speed up]
|-----------------|-----------------|-----------------|-----------------||8x
|-----------------|-----------------|-----------------|-----------------||
|-----------------|-----------------|-----------------|-5-------5-------||
|-0-0-0-0-0-0-0-0-|-0-0-0-0-0-0-0-0-|-0-0-0-0-0-0-0-0-|----7--6----7--6-||

Riff 5a
|-----------------|-----------------|-----------------|-----------------||4x
|-----------------|-----------------|-----------------|-----------------||
|-----70------78--|-----70------78--|-----70------78--|-5-------5-------||
|-0-0-----0-0-----|-0-0-----0-0-----|-0-0-----0-0-----|----7--6----7--6-||

End
|-----------------|-----------------|-----||
|-----------------|-----------------|-----||
|-----------------|-5-------5-------|-----||
|-5---------------|----7--6----7--6-|-0---||


-----------------------------------------------------------------------------


Megadeth-I Ain't Superstitious

Tune 1/4 step down

Intro
|-------------|-------------|-------------|-----R-------||2x then slide
|-------------|-------------|-------------|-4-4---------||
|---0---2-0---|-----R-------|---0---2-0---|-------------||
|-2-----------|-2-2---------|-2-----------|-------------||

Riff 1
|-------------|-------------|-------------|-------------|-------------|-------------||2x
|-------1---1-|-2---2-3---4-|-------1---1-|-2---2-3---4-|-------------|-------------||
|-2---2-------|-------------|-2---2-------|-------------|---R---------|-----R-------||
|-------------|-------------|-------------|-------------|-2-----------|-2-2-----2---||

Riff 1a
|-------------|-------------|-------------|-------------|-------------|-------------||
|-------3---3-|-4---4-5---6-|-------1---1-|-2---2-3---4-|-------------|-------------||
|-4---4-------|-------------|-2---2-------|-------------|---R---------|-----R-------||
|-------------|-------------|-------------|-------------|-2-----------|-2-2-----2---||

Play Riff 1 – 2x
Play Riff 1a

Riff 2
|-------------|----|-------------|-------------||2x
|-------------|-2x-|-------------|-------------||
|-2---0-2---0-|----|---R---------|-----R-------||
|---2-----2---|----|-2-----------|-2-2-----2---||

Play Riff 1a
Play Riff 1 – 2x
Play Riff 1a
Play Riff 2 – 2x
Play Riff 1a w/out last note

Lead In
|-----------------------||
|-----------------------||
|-----------------------||
|-2-3-4-5---5---5---5---||

Outro
|-----------------|-----------------|-----------------|-----------------|
|-----------------|-----------------|-----------------|-----------------|
|-0-0-0-0-0-0-0-0-|-0-0-0-0-0-0-0---|-----------------|-----------------|
|-----------------|---------------3-|-0-0-0-0-0-0-0-0-|-0-0-0-0-0-0-0-3-|

|-----------------|-----------------|-----------------|-----------------|
|-----------------|-----------------|-----------------|-----------------|
|-0-0-0-0-0-0-0-0-|-0-0-0-0-0-0-0---|-----------------|---------------0-|
|-----------------|---------------3-|-0-0-0-0-0-0-0-0-|-0-0-0-0-0-0-0---|

|-----------------|-----------------|-----------------|-----------------|
|-----------------|-----------------|-----------------|-----------------|
|-2-2-2-2-2-2-2-1-|-0-0-0-0-0-0-0---|-----------------|---------0---1---|
|-----------------|---------------3-|-0-0-0-0-0-0-0-2-|-3---4-----------|

|-----------------|-----------------|-----------------|-----------------|
|-----------------|-----------------|-----------------|-----------------|
|-2-2-2-2-2-2-2-2-|-2-2-2-2-2-2-2-0-|-----------------|---------------0-|
|-----------------|-----------------|-2-2-2-2-2-2-2-2-|-2-2-2-2-2-2-2---|

|-----------------|-----------------|-----------------|-----------------|
|-----------------|-----------------|-----------------|-----------------|
|-2-2-2-2-2-2-2-2-|-2-2-2-2-2-2-2-0-|-----------------|---------------2-|
|-----------------|-----------------|-2-2-2-2-2-2-2-2-|-2-2-2-2-2-2-2---|

|-----------------|-----------------|-----------------|-----------------|
|-----------------|-----------------|-----------------|-----------------|
|-4-4-4-4-4-4-4-3-|-2-2-2-2-2-2-2-0-|---R---------R---|-----R-------R---|
|-----------------|-----------------|-2-------2-2-----|-2-2-----2-2-----|

|-----------------|-----------------||
|-----------------|-----------------||
|-----R-------R---|-----R-------R---||
|-2-2-----2-2-----|-2-2-----2-2-----||


-----------------------------------------------------------------------------


Megadeth-My Last Words

Tune 1/4 step down

Rest 4 bars

Intro Part 1  (spread for readability)
|-----------------|-----------------|-----------------|-10-------------------------|
|-12--------------|(9)--------------|-----------------|-----8---7-------------7-10-|
|-----------------|-11--------------|-10--------------|-----------10-8-7-8-10------|
|-----------------|-----------------|(10)-------------|----------------------------|

Intro Part 2
|---------------9109-------|---------13-------13----------|
|-12------10-12------12-10-|(9)---------14-12----14-12-14-|
|--------------------------|-11---------------------------|
|--------------------------|------------------------------|

|-----------------|-10-------------------------||2x
|-----------------|-----8---7-------------7-10-||
|-10--------------|-----------10-8-7-8-10------||
|(10)-------------|----------------------------||

Intro Part 3
|-------------10--9---|----|-------------|-10--9---7------------------------|------||
|-12-(9)--------12--10|-3x-|-12-(9)------|---12--10--8-10--8---7------------|------||
|-----11--10----------|----|-----11--10--|---------------12--10--8-10-8-7---|------||
|--------(10)---------|----|--------(10)-|--------------------------------8-|-10\\\||

Lead In
|-----------------|-----------------|-----------------|-----------------|
|-----------------|-----------------|--R--------------|-----------------|
|-----------------|-------------3--5|-----------------|-------------3--5|
|-----------------|---------1-------|-----------------|---------1-------|

|-----------------|-----------------|-----------------|-------------567-||
|-----------------|-----------------|--R--------------|-----------57----||
|(5)--------------|(5)----------3--5|-----------------|---------57-----5||
|-----------------|---------1-------|-----------------|-----------------||

Riff 1
|-----------------|-----------------|--|--|-----------------|-------------567-|
|-----------------|-----------------|-3x--|-----------------|-----------57----|
|-5555555555555555|-55555555----3--5|--|--|-5555555555555555|-5555555557-----5|
|-----------------|---------1-------|--|--|-----------------|-----------------|

Riff 2
|---75------75----|----|---75------------||2x
|-----75------75--|-7x-|-----75-----575--||
|-------85------85|----|-------85--8---85||
|-----------------|----|-----------------||

Play Riff 1
Play Riff 2 – 2x
Play Riff 1
Play Riff 2

Riff 2a
|---75------75----||7x
|-----75------75--||
|-------85------85||
|-----------------||

Riff 3
|-----------------|-----------------|-----------------|-----------------|
|-----------------|-----------------|-----------------|-----------------|
|-5555555555578-7-|-----------------|-------------3-4-|-5555555555555555|
|-----------------|-6-66666666656-5-|-3-3333333333----|-----------------|

|-----------------|-----------------|-----------------|-------577775----||
|-----------------|-----------------|-----------------|-----57------567-||
|-5555555555578-7-|-----------------|-------------3-4-|-5555-----------8||
|-----------------|-6-66666666656-5-|-3-3333333333----|-----------------||

Riff 3a
|-----------------|-----------------|-----------------|-----------------|3x this row
|-----------------|-----------------|-----------------|-----------------|
|-5555555555578-7-|-----------------|-------------3-4-|-5555555555555555|
|-----------------|-6-66666666656-5-|-3-3333333333----|-----------------|

|-----------------|-----------------|-----------------|-------577775----||
|-----------------|-----------------|-----------------|-----57------567-||
|-5555555555578-7-|-----------------|-------------3-4-|-5555-----------8||
|-----------------|-6-66666666656-5-|-3-3333333333----|-----------------||

Riff 3
|-----------------|-----------------|-----------------|-----------------|
|-----------------|-----------------|-----------------|-----------------|
|-5555555555578-7-|-----------------|-------------3-4-|-5555555555555555|
|-----------------|-6-66666666656-5-|-3-3333333333----|-----------------|

|-----------------|-----------------|-----------------|-----------------|----||
|-----------------|-----------------|-----------------|-----575-875-578-|-4x-||
|-5555555555578-7-|-----------------|-------------3-4-|-578-------------|----||
|-----------------|-6-66666666656-5-|-3-3333333333----|-----------------|----||

End
|-----------------|-----------------|-----------------|-----------------||
|-----------------|-----------------|-----------------|-----------------||
|-5---------------|(5)--------------|(5)--------------|(5)------5---3\\-||
|-----------------|-----------------|-----------------|-----------------||



there it is. questions/comments - fraberjam@hotmail.com
comments
We did not receive enough feedback on this tab! Please rate:
1 2 3 4 5
5 comments total. Showing first comments.
0 reply
Arthurnsb wrote on March 19 2012, 01:54 am

Thanks, man

0 reply
FallenDestiny wrote on March 31 2012, 04:28 am

Your Peace Sells tab is spot on. Good Job!

0 reply
fraberjam wrote on May 3 2012, 08:05 pm

thanks for the compliment.

I want to post or [tab]
guest
You may want to rate the tab now too:
select rating
Please do not post tabs as comments. Select "correction" instead!