Oops, an error
Loading. Please wait.

Peace Sells But Whos Buying Tab

36,963 views 69 this week
4 commentsread comments
1 2 3 4 5
excellent!
x 8
Autoscroll
+/-
esc
set tempo
stop
Contributor
Hey! There's an official Ultimate Guitar app which is ideal
for learning songs when you're away from computer. Get the app
WARNING: You are trying to view
                                    content from Ultimate-Guitar.com
                                    in an unauthorized application,
                                    which is prohibited.

                                    Please use an official Ultimate
                                    Guitar Tabs application for iPhone,
                                    iPad or Android to access legitimate
                                    chords, guitar, bass, and drum tabs
                                    from Ultimate-Guitar.com database.

                                    Type "ultimate guitar tabs" in Apple
                                    App Store's or Android Market's
                                    search to find the application.
Band- Megadeth
Album- Peace Sells...But Who's Buying?

1.WAKE UP DEAD

Tuning: 1/4 Step down


Riff 1
e|---------------------------------------------|
B|---------------------------------------------|
G|---------------------------------------------|
D|---------2----------------5----------------7-|
A|----4----0-----------4----3-----------4----5-|
E|-02-2-02----------02-2-02----------02-2-02---|
   **   **          **   **          **   **
    "I sneak in my..."
e|-------------------------|
B|-------------------------|
G|-------------------------|
D|---------9\--------------|
A|----4----7\------4----3--|
E|-02-2-02------02-2-02-1--|
   **   **      **   **
    "...say I've been out..."


Solo (Mustaine)
e|----------------------------------2----------------|
B|-----------------------------------5p2-------------|
G|-4b6r4-4b6----(6)r4d*----4b6--4b6-----4h5p4p2-4p2--|
D|-a-----a-----------------------------------------4-|
A|---------------------------------------------------|
E|---------------------------------------------------|

e|---------------------7p5-9p7p5----------------------|
B|------------------------------8p7p5---8p7p5---------|
G|-2---------------------------------7p5-----7p5------|
D|--4p2--2-4p2----2-4~--------------------------7p6p4-|
A|-----4------2h4-------------------------------------|
E|----------------------------------------------------|

e|------------------------|
B|------------------------|
G|------------------------|
D|-6~----6--6/7~---9---\4-|
A|------------------------|
E|------------------------|

e|-----------------------------------------|
B|-----------------------------------------|
G|-4b6-[slow release and dive ]--(16)-16~~-|
D|-a---[with tremolo bar, then]------------|
A|-----[raise and slide to the]------------|
E|-----[      next note       ]------------|

e|---------------------------------------14h7p14-17-19b20--19b21~-|
B|-14h17p14-14-14-17p14-19p14-14-14-17p14-------------------------|
G|----------------------------------------------------------------|
D|----------------------------------------------------------------|
A|----------------------------------------------------------------|
E|----------------------------------------------------------------|

e|-19p17p14-14-14-19p17p14-14-14-|
B|-------------------------------|
G|-------------------------------|
D|-------------------------------|
A|-------------------------------|
E|-------------------------------|

e|-19p17p14--14-19p17p14--14-19p17p14--14-19p17p14--14-|
B|---------17-----------17-----------17-----------17---|
G|-----------------------------------------------------|
D|-----------------------------------------------------|
A|-----------------------------------------------------|
E|-----------------------------------------------------|

e|-19p17p14--14-19p17p14--14-19p17p14--14-19p17p14--14-|
B|---------17-----------17-----------17-----------17---|
G|-----------------------------------------------------|
D|-----------------------------------------------------|
A|-----------------------------------------------------|
E|-----------------------------------------------------|

e|-19p17p14--14-19p17p14--14-19p17p14--14-19p17p14--14-|
B|---------17-----------17-----------17-----------17---|
G|-----------------------------------------------------|
D|-----------------------------------------------------|
A|-----------------------------------------------------|
E|-----------------------------------------------------|

e|--------------------------------------------|
B|--17----------------------------------------|
G|--16b17---[long hold and then release]------|
D|----------[slowly with tremolo bar vibrato]-|
A|--------------------------------------------|
E|--------------------------------------------|

End Solo


Riff 2
Guitar 1                                   x3
e|------------------------------------------|
B|------------------------------------------|
G|------------------------------------------|
D|-12\11-------12\11------------------------|
A|-10\-9-11/12-10\-9--9-10----9-------11/12-|
E|--------9/10-------------12---10-12--9/10-|
                       * *  * *  *  *
e|------------------------------------|
B|------------------------------------|
G|------------------------------------|
D|-12\11-------12\11------------------|
A|-10\-9-11/12-10\-9--9-10----9-------|
E|--------9/10-------------12---10-12-|
                       * *  * *  *  *
e|--------------------|
B|--------------------|
G|--------------------|
D|--------------------|
A|-11/12-7/8----------|
E|--9/10-5/6--0-0-0-0-|
              * * * *

Guitar 2                                   x3
e|------------------------------------------|
B|------------------------------------------|
G|------------------------------------------|
D|-12\11-------12\11-----9------------------|
A|-10\-9-11/12-10\-9--12---10-12-9-10-11/12-|
E|--------9/10-------------------------9/10-|
                       * *  *  * *  *
e|------------------------------------|
B|------------------------------------|
G|------------------------------------|
D|-12\11-------12\11-----9------------|
A|-10\-9-11/12-10\-9--12---10-12-9-10-|
E|--------9/10------------------------|
                       * *  *  * *  *
e|--------------------|
B|--------------------|
G|--------------------|
D|--------------------|
A|-11/12-7/8----------|
E|--9/10-5/6--0-0-0-0-|
              * * * *


Riff 3 (Play 4x)
e|------------------------------|
B|------------------------------|
G|--------------------------7---|
D|--------------------------5---|
A|-10-9-8-----7-----8---7-------|
E|--8-7-6-0-0-5-0-0-6-0-5-0---0-|
          * *   * *   *   *   *
e|-----------------------------|
B|-----------------------------|
G|-------------7---------------|
D|-------------5---------------|
A|-8-----7---------------------|
E|-6-0-0-5-0-0---0-0-0-0-0-0-0-|
     * *   * *   * * * * * * *


Riff 3a (Play 1x)
e|------------------------------|
B|------------------------------|
G|--------------------------7---|
D|--------------------------5---|
A|-10-9-8-----7-----8---7-------|
E|--8-7-6-0-0-5-0-0-6-0-5-0---0-|
          * *   * *   *   *   *
e|------------------------------------|
B|------------------------------------|
G|-------------7----------------------|
D|-------------5---9----8-7-6---5-4-3-|
A|-8-----7---------7-10-6-5-4-7-3-2-1-|
E|-6-0-0-5-0-0---0----8-------5-------|
     * *   * *   *


Riff 3b (Play 3x)
e|-----------------------|
B|-----------------------|
G|-------------------7---|
D|-------------------5---|
A|-----7-----8---7-------|
E|-0-0-5-0-0-6-0-5-0---0-|
   * *   * *   *   *   *
e|------------------------------------|
B|------------------------------------|
G|-------------7----------------------|
D|-------------5---9----8-7-6---5-4-3-|
A|-8-----7---------7-10-6-5-4-7-3-2-1-|
E|-6-0-0-5-0-0---0----8-------5-------|
     * *   * *   *


Lead into next section:
e|---------------|
B|---------------|
G|---------------|
D|---------5\3---|
A|-3-3-3/5-3\1-3-|
E|-1-1-1/3-----1-|
     *


Riff 4 (Solo Rhythm)          x3
e|-----------------------------|
B|-----------------------------|
G|-------4-------------7--6-4--|
D|-------4-------------7--6-4--|
A|-6-----2--4-5--6-----5--4-2--|
E|-4-444----2-3--4-444---------|
     ***           ***
e|----------------------------|
B|----------------------------|
G|-------4-------------6------|
D|-------4-------------6------|
A|-6-----2--4-5--6-----4--6-7-|
E|-4-444----2-3--4-444----4-5-|
     ***           ***

Solo (Mustaine)
e|-------------------------------------|
B|-------------------------------------|
G|--6b7tm----[long hold, slow release]-|
D|-------------------------------------|
A|-------------------------------------|
E|-------------------------------------|

e|----------------------------------------------------|
B|------------------------------------------4-----4-4-|
G|-6p4---------4------------4-6-4-----4-6b7---6p4-----|
D|-----6-6-4-6---5-6--4-5-6-------6-6-----------------|
A|-------------------4--------------------------------|
E|----------------------------------------------------|

e|-------------------------------------------------------------|
B|-5-6-7-6-7-8-7-8-9-8-9-10-9-10-11-10-11-12-11-12-13-12-13-14-|
G|-------------------------------------------------------------|
D|-------------------------------------------------------------|
A|-------------------------------------------------------------|
E|-------------------------------------------------------------|

e|----------------------------------------|
B|-13-14-15-14-15-16-15-16-17-18-19-18-19-|
G|----------------------------------------|
D|----------------------------------------|
A|----------------------------------------|
E|----------------------------------------|

e|-16-19p16--16-19p16--16-21p16-19p16--16-21p16-21b23~~-|
B|---------19--------19--------------19-----------------|
G|------------------------------------------------------|
D|------------------------------------------------------|
A|------------------------------------------------------|
E|------------------------------------------------------|

End Solo


Riff 4a (Solo Rhythm)
e|----------------------------------|
B|----------------------------------|
G|----------------6---------------8-|
D|----------------6---------------8-|
A|-8--------8-6-8-4---------8-6-8-6-|
E|-6-666666-6-4-6----666666-6-4-6---|
     ****** * * *    ****** * * *
e|--------------------------|
B|--------------------------|
G|--------------9------9-8--|
D|--------------9------9-8--|
A|--------8-6-8-7------7-6--|
E|-666666-6-4-6----666------|
   ****** * * *    ***
e|-------|
B|-------|
G|-------|
D|-------|
A|-------|
E|--X\\--|


Solo (Poland)
e|---------------------------------------------6h9-9b11r9-|
B|-------------------------------------------6------------|
G|-------------------------------6-------6h8--------------|
D|---------------6-------6h8p6h8---8p6h8------------------|
A|-----8-6h8p6h8---8p6h8----------------------------------|
E|-/9-----------------------------------------------------|

e|-6------------6----------------------|
B|---9-6-9b11r9---9p6---6--------------|
G|--------------------8---8b10r8p6-6b8-|
D|-------------------------------------|
A|-------------------------------------|
E|-------------------------------------|

e|------------------------------------|
B|------------------------------------|
G|------------------------------------|
D|-8-6--------------------------------|
A|-----8-6----------------------------|
E|---------9-6--9~~--(9)b10--7b8--4~~-|

End Solo


Riff 5
e|---------------------------------|
B|---------------------------------|
G|---------------------------------|
D|---------6p4---------------------|
A|-------------------------6p4-----|
E|-4-4-4-4-----4-4-4-4-4-4-----4-4-|
   * * * *     * * * * * *     * *
e|-----------------------------|
B|-----------------------------|
G|-----------------------------|
D|-----------------------------|
A|-------------------------7-4-|
E|-4-4-4-4-7-4-4-4-4-4-4-4-5-2-|
   * * * * * * * * * * * *
e|----------------------------------------------|
B|----------------------------------------------|
G|----------------------------------------------|
D|---------6p4----------------------------4-5---|
A|-------------------------6p4-----7-9-6--2-3-5-|
E|-4-4-4-4-----4-4-4-4-4-4-----4-4-5-7-4------3-|
   * * * *     * * * * * *     * *


Riff 6
e|---------------------------------|
B|---------------------------------|
G|---------------------------------|
D|---------4p2---------------------|
A|-------------------------4p2-----|
E|-2-2-2-2-----2-2-2-2-2-2-----2-2-|
   * * * *     * * * * * *     * *
e|---------------------------------|
B|---------------------------------|
G|---------------------------------|
D|---------------------------------|
A|---------------------------------|
E|-2-2-2-2-5-2-2-2-2-2-2-2-0-2-2-2-|
   * * * * * * * * * * * * * * * *
e|-----------------------------------------------|
B|-----------------------------------------------|
G|-----------------------------------------------|
D|-4-2-----2----------------------------6--------|
A|-----4-3---4-3-2-4-3-2---3-2--------5----5---5-|
E|-----------------------5-----5-2--4--------4---|



Riff 7
e|---------------------------|
B|---------------------------|
G|---------------------------|
D|-------2------------5----3-|
A|-4---4-0--2-3-4---4-3--5-1-|
E|-2-0-2----0-1-2-0-2----3---|
     * *          * *
   "Well I wonder..."
e|---------------------------|
B|---------------------------|
G|-------7--6-4--------------|
D|-------5--4-2-------7----7-|
A|-4---4--------4---4-5--6-5-|
E|-2-0-2--------2-0-2----4---|
     * *          * *
   "...bout the other..."
e|---------------------------------------|
B|---------------------------------------|
G|---------------------------------------|
D|-------2------------7--9----6----------|
A|-4---4-0--2-3-4---4-5--7----4--------4-|
E|-2-0-2----0-1-2-0-2------------------2-|
     * *          * *
                          "...named Diana."

Guitar fill over Riff 7 (Mustaine)
e|----------------------------------|
B|----------------------------------|
G|-6p4p2p0--------------------------|
D|---------5p4p2p0-5p4p2p0----------|
A|------------------------4p2p0-----|
E|------------------------------0-2-|



Lead into next section:
e|--------|
B|--------|
G|--------|
D|--------|
A|--4--3--|
E|--2--1--|



Riff 8 (Solo Rhythm)
e|----------------------------------|
B|----------------------------------|
G|----------------------------------|
D|------9---------------------9--7--|
A|-2----7----3--5555---5-7-2--7--5--|
E|-0----0----1-------7-----0--0-----|



Solo (Mustaine)
e|-8p0h8p7p0h7h8p0h8p7p0h7h8p0h8p7p0h7h8p0h8p7-8/10-|
B|--------------------------------------------------|
G|--------------------------------------------------|
D|--------------------------------------------------|
A|--------------------------------------------------|
E|--------------------------------------------------|

e|-12-/24\-2h3p2h3-/14h15p14h15-|
B|------------------------------|
G|------------------------------|
D|------------------------------|
A|------------------------------|
E|------------------------------|

e|-8p0h8p7p0h7h8p0h8p7p0h7h8p0h8p7p0h7h8p0h8p7-8/10-|
B|--------------------------------------------------|
G|--------------------------------------------------|
D|--------------------------------------------------|
A|--------------------------------------------------|
E|--------------------------------------------------|

e|-12--11-10--9--8--/15---------------------------|
B|------------------------------------------------|
G|------------------------------------------------|
D|------------------------------------------------|
A|------------------------------------11----11-12-|
E|-----------------------12~----10-12----12-------|

e|-----------------------------------------|
B|-----------------------------------------|
G|-----------------------------------------|
D|-----------------------------------------|
A|-14-12-11-14-11h12p11----11--------------|
E|----------------------13----13-12-10-12~-|

e|------------------------------------------------|
B|------------------------------------------------|
G|-------------------------------------------13---|
D|----------------------------12--14-12-15-14--15-|
A|-------11--12-11-14-12-15-14--15----------------|
E|-13-12---13-------------------------------------|

e|---------------------12--13---|
B|------12--13-12-15-13--15--15-|
G|-14-13--14--------------------|
D|------------------------------|
A|------------------------------|
E|------------------------------|

e|--------------------------------------|
B|-17~~--15-17-17~~--15-17-17-----------|
G|-----------------------------14-16-16-|
D|--------------------------------------|
A|--------------------------------------|
E|--------------------------------------|

e|--------------------------------------------|
B|--------------------------------------------|
G|-13-14-14-----------------------------------|
D|-----------14-15-15--12-14-14~~--12-14-14~~-|
A|--------------------------------------------|
E|--------------------------------------------|

e|-----------------------------------------|
B|-----------------------------------------|
G|-----------------------------------------|
D|-12-14-14--------------------------------|
A|-----------14-15-15--12-14-14--11-12-12\-|
E|-----------------------------------------|

e|--------------------------------------------------|
B|--------------------------------------------------|
G|--------------------------------------------------|
D|--------------------------------------12-14-15p14-|
A|---------11-12-14p12p11-12-14-15p14p12------------|
E|-12--13-------------------------------------------|

e|----------------------------------------16h17-19p17p16-|
B|----------------------------15h17-18p17----------------|
G|-13h14-16p14p13-14h16-17p16----------------------------|
D|-------------------------------------------------------|
A|-------------------------------------------------------|
E|-------------------------------------------------------|

e|-20p19p17-19p17-16-19p17p16-17p16-----------------------------|
B|---------------------------------18p17p15-17p15---------------|
G|-----------------------------------------------17p16p14-16p14-|
D|--------------------------------------------------------------|
A|--------------------------------------------------------------|
E|--------------------------------------------------------------|

e|-------------------------------------------------------------------|
B|-------------------------------------------------------------------|
G|-16p14p13-14p13----------------------------------------------------|
D|---------------15p14p12-14p12---------------------------------14~~-|
A|-----------------------------16p14p12-14p12\11-12p11--11-----------|
E|----------------------------------------------------13--13p12------|

End Solo


Play Riff 8   "Wake up dead..."

Final time:
e|---------------------------------|
B|---------------------------------|
G|---------------------------------|
D|------9---------------------9--7-|
A|-2----7----3--5555---5-7-2--7--5-|
E|-0----0----1-------7-----0--0----|
      "You.......die....wake up dead!"

2.THE CONJURING

-----riff1--|----15------|------------|----14------|
-15---------|--15--15--15|14----------|--14--14--14|
-12---------|12------12--|11----------|11------11--|
-12---------|------------|11----------|------------|
------------|------------|------------|------------|
-G1---------|------------|------------|------------|
|                                                  |
-G2---------|------------|------------|------------|
------------|------------|------------|------------|
-12---------|(12)--------|11----------|(11)--------|
-12---------|(12)--------|11----------|(11)--------|
-10---------|(10)--------|-9----------|-(9)--------|
------------|------------|------------|------------|


------------|----13------|------------|---12-------|
-13---------|--13--13--13|12----------|-12--12--12-|
-10---------|10------10--|-9----------|9------9---.|
-10---------|------------|-9----------|-----------.|
------------|------------|------------|------------|
-G1---------|------------|------------|------------|
|                                                  |
-G2---------|------------|------------|------------|
------------|------------|------------|------------|
-10---------|(10)--------|------------|-----------.|
-10---------|(10)--------|-9----------|(9)--------.|
--8---------|-(8)--------|-7----------|(7)---------|
------------|------------|------------|------------|

-riff2------------|-------------------|
------------------|-------------------|
-2----------------|-4----------2----.-|
-2----------------|-4----------2--}-.-|
-0----------------|-2----------0------|
---22222222222222-|---222222-2--------|


-riff3-solo-rythem-|------------------|---------------------
-------------------|------------------|---------------------
.7-----------------|-------10-9-------|---------------------
.5--5-55-5-55-5-55-|-5-55-5-8-7-9-11--|---------------------
-------------------|------------7-9---|-9-99-9-99-9-99-9-99-
-------------------|------------------|---------------------
                   D--------------------5-----
                   A--------------6-7-----7---
                   E-G2-----------------------

-riff3-cont--------|---------------------|------------------
-------------------|---------------------|------------------
-11----------------|---------------------|--10--9-----------
--9-------10-------|---------------------|---8--7--8--9-----
-----9-99-8---8-88-|-8-88-8-88-8-88-8-88-|-8-------6--7-----
-------------------|---------------------|------------------
                                         D------------------
                                         A------------6-7---
                                         E-G2---------------
-----------------------|3*-----------|
-----------------------|4------------|
-----------------------|-11---------.|
-(9)-------------------|--9------10-.|
-(7)-77-7-77-7-77-7-77-|----7-77-8---|
-----------------------|-------------|
D-5-----------
A----7--------
E-------------
      ^  ^
----|171512--^-^---------^-^-------------|
-12-|------171512--^-^-171512--^-^-------|
----|------------151412------151412--^-^-|
----|------------------------------151412|
----|------------------------------------|
solo|------------------------------------|
   ^ ^ ^    ^        ^ ^ ^    ^        ^ ^ ^    ^ ^ ^
|-14151412-1412--12-14151412-1412--12-14151412-15171512-
|--------------16----------------16---------------------
|.------------------------------------------------------
|.------------------------------------------------------
|-------------------------------------------------------
|-------------------------------------------------------
   ^ ^ ^    ^          ^ ^ ^    ^ ^  ^    ^
-14151412-1412--12-|-14151412--14151412-1412--12---^-^-^----^----
--------------16---|---------16-------------16---15161512-1512-12
-------------------|---------------------------------------------
-------------------|---------------------------------------------
-------------------|---------------------------------------------
-------------------|---------------------------------------------

----------------|----^-^-------^------------------------
---^-^----^-^---|12171512--121512-------^-^-^----^-^----
-151412-121415-.|.-------16------1615-16151412-151412---
---------------.|.-----------------------------------14-
----------------|---------------------------------------
----------------|---------------------------------------

------------------------------------|---^-^--------^----^--------
---^--------------------------------|-121512--12-1512-1712--12---
-1412--^-12--^-^----^-^---------16-.|-------15------------15-----
-----1412--141312-141312--12/16----.|----------------------------
------------------------14----------|----------------------------
------------------------------------|----------------------------

-------------------|12-191512--12-191512--12-191512--12-191512---
-1512--12-1712--12-|---------15---------15---------15---------15-
.----15-------15--.|---------------------------------------------
.-----------------.|---------------------------------------------
-------------------|---------------------------------------------
----------------4x-|---------------------------------------------
       +1
-12/14--)-----------
------17------------
--------------------
--------------------
--------------------
--------------------

--riff4---------------------8x-|
-------------------------------|
.-----------------------------.|
.-----------------------^-----.|
--^-------^-------^----3-2--^--|
-0-2-2-2-5-2-2-2-0-2-2-----5-2-|

-riff5---------------|----------------|-------------+1/2--
---------------------|----------------|----------------)--
.--------------------|-------10--9----|----7----9-11-11---
.--------------------|--------8--7--8-|-9--5-9------------
---------------------|--------------6-|-7----7------------
-0-00-0-00-0-00-0-00-|-0-00-0---------|-------------------

-----------------|riff4|-riff6-------------------------8x-|------
-----------------|-----|----------------------------------|------
----------------.|-----|.--------------------------------.|-9\---
------4---------.|-----|.-------------------------^------.|-9\---
------2-------3--|-----|----------^--------------5-4--^---|-7\---
-0-00----0-00-1--|-----|-2/4-4-4-7-4-4-4-2/4-4-4-----7-4--|------

-riff7-----------------4x-|-riff8-------------|------------------
--------------------------|-E-----------------|------------------
.------------------------.|.------------------|-------------7-9-7
.-------------3--4--7-9\-.|.9-----------7-8-9-|-9-----------7-9-7
-----5\4---4--1--2--5-7\--|-7--7-7-10-7-7-8-9-|-7--7-7-10-7------
-0-0-3\2-0-2--------------|-0--7-7-10-7-------|-0--7-7-10-7------

-------------------|----------------4x-|
-E-----------------|-------------------|
-------------------|-9--8-7---7---7-9-.|
-9-----------7-8-9-|-9--8-7-9-7-9-7-9-.|
-7--7-7-10-7-7-8-9-|--------9---9------|
-0--7-7-10-7-------|-------------------|

-riff9---------------------|---------------------------6x-|
---------------------------|------------------------------|
.--------------------------|----------------------------.-|
.---------------------9----|----------------------------.-|
-2-----8\7---5-2------7--8-|-2-------8\7-----5/7\5-8-7-5--|
-0-0-0-6\5-0-3-0--0-0----6-|-0-0-0-0-6\5-0-0-3/5\3-6-5-3--|

-riff10--------------|--------------------|---------------------|
---------------------|--------------------|---------------------|
.--------------------|--------------------|---------------------|
.--------------------|--------------------|---------------------|
---------------------|----------------5-4-|---------------------|
-2-22-2-22-2-22-2-22-|-2-22-2-22-2-22-3-2-|-2-22-2-22-2-22-2-22-|

---------------------|--------------------|---------------------|
---------------------|--------------------|---------------------|
----------------2----|--------------------|---------------7--6--|
----------------2----|--------------------|---------------5--4--|
----------------0--4-|----------------4-2-|---------------5--4--|
-2-22-2-22-2-22----2-|-2-22-2-22-2-22-2-0-|-00-0-00-0--2--3--2--|

-------------------|
-------------------|
------------------.|
-------------7--9\.|
-------------5--7\-|
-2-22-2-22-2-------|

-riff11------------------|----------------------------|riff10
-------------------------|----------------------------|riff11
.------------------------|---------------------------.|riff10
.-------------------9----|------------------^--------.|riff11
-------8\7---2------7--8-|-2-------8\7-----242-8-7-5--|riff10
-0-0-0-6\5-3-0--0-0----6-|0-0-0-0-6\5-0-0------6-5-3--|riff11

-riff10|--------------------|--------------------|---------------
-1/2x--|--------------------|--------------------|---------------
-------|--------------------|--------------------|---------------
-------|--------------------|------2-------------|------2--------
-------|----------------5-4-|------0-4-------5-4-|------0-4------
-------|-2-22-2-22-2-22-3-2-(2)-22---2---2-2-3-2-(2)-22---2---2-2

----------------|------------------------------------------------
----------------|------------------------------------^-^---------
----------------|-------------------------^-^------151815-1518---
-----------2----|--------------^-^------141714-1417--------------
-5-4-------0-2--|---^-^------131613-1316-------------------------
-3-2---22----0--|-121512-1215------------------------------------
              ^ ^         )+11/2
---^-^------182118-1821-21---------------------------------------
-172017-1720-----------------------------------------------------
-----------------------------------------------------------------
-----------------------------------------------------------------
-----------------------------------------------------------------
-----------------------------------------------------------------

3.PEACE SELLS

Tune down 1/4 step
140bpm

Intro
E|---------------|--------------|----17b----17b----17b-----|
B|---------------|--------------|-----------Lead-----------|
G|-Bass Solo-----|--------------|--------------------------|
D|---------------|--------------|-----7-------Let----------|
A|---------------|-------7\-2---|-----5-------Ring---------|
E|---------------|----------0---|----Rythem----------------|

Lead
E|-12h16p12--12-11h15p11--11-10h14p10--10-9h13p10--9-8h12p8--8-7h11p7--7-6h10p6|
B----------15-----------14-----------13----------12--------11--------10--------|
G|-----------------------------------------------------------------------------|
D|-----------------------------------------------------------------------------|
A|-----------------------------------------------------------------------------|
E|-----------------------------------------------------------------------------|

Rythem
E|-----------------------------------------------------------------------------|
B|-----------------------------------------------------------------------------|
G|-----------------------------------------------------------------------------|
D|----------------------------------------------7----7----7----7----7----7----7|
A|-----------5----5----5----5----5----5----5----5----5----5----5----5----5----5|
E|-----------------------------------------------------------------------------|
             .    .    .    .    .    .    .    .    .    .    .    .    .    .
E|-------------------|
B|-------------------|
G|-------------------|
D|--8---7------------|
A|--8---7------------|
E|--6--5-------------|



Verse 4x
E|----------------------------------------------------------------------------|
B|----------------------------------------------------------------------------|
G|----------------------------------------------------------------------------|
D|-----------------------6-----------------------5--------------------8--7----|
A|-----------------------6-----------------------5--------------------8--7----|
E|--0--0--0--0--0--0--0--4--0--0--0--0--0--0--0--3--0--0--0--0--0--0--6--5----|
    .  .  .  .  .  .  .     .  .  .  .  .  .  .     .  .  .  .  .  .

Chorus
E|--------------------------------------------------------------|
B|--------------------------------------------------------------|
G|---9--9--7--9---12---7--9-----------9--9--7--9---12-----------|
D|---9--9--7--9---12---7--9-----------9--9--7--9---12---4--5----|
A|---7--7--5--7---10---5--7-----------7--7--5--7---12---4--5----|
E|------------------------------------------------------2--3----|

E|--------------------------------------------------|
B|--------------------------------------------------|
G|----------------7---------------------------------|
D|---5--5--4--4---7---4--5-----5-------------5------|
A|---5--5--4--4---5---4--5-----5----5--4--3--3------|
E|---3--3--2--3-------2--3-----3----3--2--1---------|

Solo    Play Verse under the solo
E|------------------------------------------------|
B|-----------------------------12h13-12p10p9------|
G|--12b--13p12-13p12p9-12h13h14-------------12p10-|
D|------------------------------------------------|
A|------------------------------------------------|
E|------------------------------------------------|

E|--------------------------------------------------------|
B|-------12-10-------10-----------------------------------|
G|-12-13-------13-12----12-10-----------------------------|
D|----------------------------14-12-10--------------------|
A|-------------------------------------14-12-10-----------|
E|----------------------------------------------14-12-10--|

E|---------12---------------------------------------|
B|--15--------15-12---------------------------------|
G|------------------14-12b-------\------------------|
D|--------------------------------------------------|
A|--------------------------------------------------|
E|--------------------------------------------------|

Verse 4x
Chorus


Interlude
E|---------------------------------------------------------------------|
B|---------------------------------------------------------------------|
G|---------------------------------------------------------------------|
D|---------------------------------------------------------------------|
A|--------10p3h10--------9p7h9--------7p5h7--------5p4h5--------4p2h2--|
E|--0--0-----------0--0---------0--0---------0--0---------0--0---------|

E|-----------------------------------------|
B|-----------------------------------------|
G|-----------------------------------------|
D|-----------------------------------------|
A|-----------------------------------------|
E|--0--0--7p5h7--0--0--5p4h5--0--0--3p2h3--|

E|---------------------------------------------------------------------|
B|---------------------------------------------------------------------|
G|---------------------------------------------------------------------|
D|---------9p8h9---------7p5h7--------5p4h5--------4p2h4--------2p0h2--|
A|--------10p3h10--------9p7h9--------7p5h7--------5p4h5--------4p2h2--|
E|--0--0-----------0--0---------0--0---------0--0---------0--0---------|

E|----------------------------------------|
B|----------------------------------------|
G|----------------------------------------|
D|----------------------------------6--5--|
A|--------5p4h5--------4p2h4--------6--5--|
E|--0--0--7p5h7--0--0--5p4h5--0--0--4--3--|

E|---------------------------------------------------------------------|
B|--11p12-15-11p12---------------------------12------------------------|
G|-----------------14b--14-12----14----12h14----12---------------------|
D|----------------------------14----14-------------14----12------------|
A|----------------------------------------------------------14-14-10b--|
E|---------------------------------------------------------------------|


Fill 1
E|--------------------------------------------------|
B|--------------------------------------------------|
G|--------------------------------------------------|
D|--4--------------------5-----------4--------5--4--|
A|--4--------------------5-----------4--------5--4--|
E|--2--2--2--2--2--2--2--3--3--3--3--2--2--2--3--2--|

Fill 2
E|------------------------------------------|
B|------------------------------------------|
G|------------------------------------------|
D|---------9p8h9---------7p5h7--------6--5--|
A|--------10p3h10--------9p7h9--------6--5--|
E|--0--0-----------0--0---------0--0--4--3--|


Play with Fill 1
E|-----------------------------------------------------------------------------|
B|-----------------------------------------------------------------------------|
G|---------------------------------2------------------2--5p4--2--4--4p2--------|
D|------------------------------2-----4p2----------2---------------------4--2--|
A|-------------0h2p0-0h2p2-3h4------------4p3-3h4------------------------------|
E|--0h2--2--2------------------------------------------------------------------|

Play Fill 2

Play with Fill 1, Fill 2, and back to Fill 1
              Bends -->  |  1/2  | Full |  1.5  | 20 |
E|-------19-------19-----------------------------------------------------------|
B|-19-20----20-20-----20--20b-20b-20b-20b-20b-20b-20b-------17--20------19-----|
G|------------------------------------------------------------------18------19b|
D|-----------------------------------------------------------------------------|
A|-----------------------------------------------------------------------------|
E|-----------------------------------------------------------------------------|

E|--------------------14h17h14----14-19h14-14-14h17p14----14-19p14-----|
B|-----------------------------17----------------------17----------17--|
G|--19--16-------------------------------------------------------------|
D|----------19--17b----------------------------------------------------|
A|---------------------------------------------------------------------|
E|---------------------------------------------------------------------|

E|--14h17p14----14-19p14----14-19p14-14-14h17p14----14-19p14----14h17p14--|
B|-----------17----------17----------------------17----------17-----------|
G|------------------------------------------------------------------------|
D|------------------------------------------------------------------------|
A|------------------------------------------------------------------------|
E|------------------------------------------------------------------------|

                            Can You Put A Price on Peace?
E|--------------14----------------------------------------|
B|-----14h17p14----17p14-16-----Let-Ring------------------|
G|--17-------------------7--------------------------------|
D|-----------------------7--------------------------------|
A|-----------------------9----Rythem----------------------|
E|--------------------------------------------------------|

End Riff 1  8x I think
E|-------------------------------------------------|
B|-------------------------------------------------|
G|-------------------------------------------------|
D|---------5----------7h8----------5---------------|
A|--7--5-7-------7--5-------7--5-7------7--5-------|
E|-----------0-----------------------0-------5h6---|

With End Riff 1
E|-------------------------------------------------|
B|-------------------------------------------------|
G|-------------------------------------------------|
D|------2------------5-----------4------------9----|
A|------2------------5-----------4------------9----|
E|--0-0----------3-3---------2-2----------7-7------|

E|-------------------------------------------------|
B|-------------------------------------------------|
G|-------------------------------------------------|
D|------9------------5------------4------------9---|
A|--7-7-7------------5------------4------------9---|
E|---------------3-3----------2-2----------7-7-----|


End Riff 2 4x
E|-------------------------------------------------|
B|-------------------------------------------------|
G|-------------------------------------------------|
D|---------5----------7h8----------5---------7h8---|
A|--7--5-7-------7--5-------7--5-7------7--5-------|
E|-----------0-----------------------0-------------|


End Riff 3 5x
E|------------------------------------------------|
B|------------------------------------------------|
G|---------7--------9h10---------7--------9h10----|
D|--9--7-9-----9--7-------9--7-9-----9--7---------|
A|------------------------------------------------|
E|-----------0---------------------0--------------|

Play End Riff 2 4x
     End Riff 3 8x

End 2x
E|-------------------------------------------------------|
B|-------------------------------------------------------|
G|--------------------------------------------7--8--9----|
D|--------------------------------------------5--6--7----|
A|--4--3--2--3--4--3--2--4--5--5--5--5--4--2-------------|
E|--2--1--0--1--2--1--0--2--3--3--3--3--2--2-------------|

4.DEVILS ISLAND

Riff 1

E ----------------------
B ----------------------
G ------4----3--4-2-----
D -2----4----3--4-2-4-5-
A -2----2----1--2-0-4-5-
E -0----------------2-3-

Riff 1A

   +      +      +      +      +      +      +      +      +      +      +      +      +      +      +      +
E -191512-191512-191512-191512-------------------------------------------------------------------------------------
B -----------------------------201512-201512-201512-201512-191411-191411-191411-191411-181310-181310-181310-181310-
G -----------------------------------------------------------------------------------------------------------------
D -----------------------------------------------------------------------------------------------------------------
A -----------------------------------------------------------------------------------------------------------------
E -----------------------------------------------------------------------------------------------------------------

Riff 2

E ---------------------------------------------------------------------------------
B ---------------------------------------------------------------------------------
G ---------------------------------------------------------------------------------
D -2-------------------3-------------------4-------------------5-------------------
A -2-------------------3-------------------4-------------------5-------------------
E -0-00-0-00-0-00-0-00-1-11-1-11-1-11-1-11-2-22-2-22-2-22-2-22-3-33-3-33-3-33-3-33-

Riff 3

E -------------------------------
B -------------------------------
G ---------------------7------9--
D -2--5--2----2----2-2-7------9--
A -2--5--2----2----2-2-5------7--
E -0--3--0-00-0-00-0-0----0-0----

Riff 3A

E -------------------------------------
B -------------------------------------
G ---------------------7------9--------
D -2--5--2----2----2-2-7------9--2--5--
A -2--5--2----2----2-2-5------7--2--5--
E -0--3--0-00-0-00-0-0----0-0----0--3--

Riff 4

E --------------------
B --------------------
G --------------------
D -2----5----2----6-5-
A -2----5----2----6-5-
E -0-00-3-00-0-00-4-3-

Riff 4A

                       1                    2
E -------------------- -------------------- -------------------
B -------------------- -------------------- -------------------
G -------------------- -------------------- -------------------
D -2----5----2----6-5- -2----5----2----7-8- -2----5-4------4-3-
A -2----5----2----6-5- -2----5----2----7-8- -2----5-4------4-3-
E -0-00-3-00-0-00-4-3- -0-00-3-00-0-00-5-6- -0-00-3-2-0-00-2-1-

Riff 5

E -----------------------------------------------------------------------------
B -----------------------------------------------------------------------------
G -------------------------------7--6------------------------------------------
D -------------------------4-----7--6----------------------------------5--4--2-
A ----------------23-20----4-----5--4-------------------23-20----4-------------
E -22-22-22-22-25-------20-2-2-2-------5-22-22-22-22-25-------20-2-2-2---------

Riff 6

E -------------------------------------------------------------------------
B -------------------------------------------------------------------------
G -----------------------------------8-9----------------------9-8-------7--
D -2----5----5----6-5-2----5----2----8-9-2----5----2----6-5-2-9-8---8-9-7--
A -2----5----2----6-5-2----5----2----6-7-2----5----2----6-5-2-7-6---8-9-5--
E -0-00-3-00-0-00-4-3-0-00-3-00-0-00-----0-00-3-00-0-00-4-3-0-----0-6-7----

Riff 6A

E ----------------------------------------------------------------------------
B ----------------------------------------------------------------------------
G -----------------------------------8-9----------------------9-8-------7-9-9-
D -2----5----5----6-5-2----5----2----8-9-2----5----2----6-5-2-9-8---8-9-7-9-9-
A -2----5----2----6-5-2----5----2----6-7-2----5----2----6-5-2-7-6---8-9-5-7-7-
E -0-00-3-00-0-00-4-3-0-00-3-00-0-00-----0-00-3-00-0-00-4-3-0-----0-6-7-------

5.GOOD MOURNING/BLACK FRIDAY

Tuning: 1/4 step down


Riff 1 (acoustic)
e|-----------0----------------0---------|
B|-----9---------9------9---------------|
G|---8---8-8---8------8---8-8---8-------|
D|-6----------------9-------------------|
A|--------------------------------11-10-|
E|--------------------------------------|

e|-----------0---------------3-----------6-9-------11-|
B|-----9-----------------------4-------5-------8-11---|
G|---8---8-8---8---------3-------6-4-6-------9--------|
D|---------------------5---5--------------------------|
A|-7-------------7h9-4--------------------------------|
E|----------------------------------------------------|


Riff 2 (acoustic)
e|---------0-------------0-------------0-------|
B|-----9-------9-------9---9-------9-------9---|
G|---8---8---8-------8-------8---8---8---8-----|
D|-6-------------6-8-----------9-------------9-|
A|---------------------------------------------|
E|---------------------------------------------|

e|---------------------------|
B|------9-----9-----9-----8--|
G|----8-----8-----8-----8----|
D|-11-----9-----8-----6------|
A|---------------------------|
E|---------------------------|


Solo over Riff 2 (Distortion, Poland)
e|---------------------------------------|
B|-12h14~---12~--11~--9~--5\4~~---(4)d3*-|
G|---------------------------------------|
D|---------------------------------------|
A|---------------------------------------|
E|---------------------------------------|

e|-----14-19~--18~--16~------------------|
B|---17-------------------19b21~~----19~-|
G|-18------------------------------------|
D|---------------------------------------|
A|---------------------------------------|
E|---------------------------------------|

e|-----------------------------------------------------|
B|-12h14~---12~--11~--9~--5\4~~-(4)d2r4*---------------|
G|---------------------------------------6-4-3~-(3)d2*-|
D|-----------------------------------------------------|
A|-----------------------------------------------------|
E|-----------------------------------------------------|

e|---------------|
B|---------------|
G|----18~~~------|
D|-----a---------|
A|---------------|
E|---------------|

End solo



Riff 3 (acoustic)
e|---------11-9---------------------9---|
B|-------9------12-9--------9-12-11---8-|
G|---8------------------8---------------|
D|-9---9--------------8---8-------------|
A|--------------------------------------|
E|--------------------------------------|


Solo over Riff 3 (Distortion, Poland)
e|-------------------------------------|
B|-------------------------------------|
G|-------18b20--16-20b21--15--(15)b16~-|
D|-19b21-------------------------------|
A|-------------------------------------|
E|-------------------------------------|

e|---------------------------------------------|
B|-17b19~--17-16-------------------------------|
G|---------------18-16-15~~--------------------|
D|---------------------------17-16-------------|
A|---------------------------------18-14~~d12*-|
E|---------------------------------------------|

End solo


Riff 4
Guitar 1 (acoustic)
e|-----0----------------------------------------------------|
B|----------10-8h10p8----/12--------12----------------------|
G|-9-9---11-----------11------11-11----14-12-11h12p11-------|
D|----------------------------------------------------14-12-|
A|----------------------------------------------------------|
E|----------------------------------------------------------|

e|-----------------------------------------------------|
B|-----------------------------------------------------|
G|-12----11-12-14-12-11----11-------11-12-14-12h14p12\-|
D|----14----------------14----13-14--------------------|
A|-----------------------------------------------------|
E|-----------------------------------------------------|

e|-----0----------------------------------------------------|
B|----------10-8h10p8----/12--------12----------------------|
G|-9-9---11-----------11------11-11----14-12-11h12p11-------|
D|----------------------------------------------------14-12-|
A|----------------------------------------------------------|
E|----------------------------------------------------------|

e|----------------------------------------------------------|
B|-------------------------------------------------16-16/17-|
G|-12----11-12-14-12-11----11-------11-12-14-14/16----------|
D|----14----------------14----13-14-------------------------|
A|----------------------------------------------------------|
E|----------------------------------------------------------|


Guitar 2 (distortion, comes in at very end)
e|----------------------------------|
B|----------------------------------|
G|----------------------------------|
D|----------------------------------|
A|--2-----2--[rings into next riff]-|
E|--0-----0-------------------------|


Solo over Riff 4 (Distortion, Poland)
e|----------------------12b14r12-----------|
B|-------------------------------10~---/15-|
G|-10b12r10--8b9--6b7r6--------------------|
D|-----------------------------------------|
A|-----------------------------------------|
E|-----------------------------------------|

e|---------------------------------------|
B|---15b17--15p14------------------------|
G|-16------------16b17---16p14~--12--11~-|
D|---------------------------------------|
A|---------------------------------------|
E|---------------------------------------|

e|----------------------------------|
B|--------------10-10/12--16-16/17~-|
G|-11-8-9-11-12---------------------|
D|----------------------------------|
A|----------------------------------|
E|----------------------------------|

End solo


Riff 5
Guitar 1 (Acoustic)
e|-------------------------------------------------|
B|-----5-5---5-----5-5---5-----5-5---5-----5-5---5-|
G|---4-----4-----4-----4-----4-----4-----4-----4---|
D|-2-----------2-----------4-----------4-----------|
A|-------------------------------------------------|
E|-------------------------------------------------|

e|-------------------------------------------------|
B|-----5-5---5-----5-5---5----5---5----------------|
G|---4-----4-----4-----4----2---0------------------|
D|-5-----------5--------------------4~--5~--4~-----|
A|----------------------------------------------5~-|
E|-------------------------------------------------|

e|-------------------------------------------------|
B|-----5-5---5-----5-5---5-----5-5---5-----5-5---5-|
G|---4-----4-----4-----4-----4-----4-----4-----4---|
D|-2-----------2-----------0-----------0-----------|
A|-------------------------------------------------|
E|-------------------------------------------------|
                                        Final time
e|--------------------------------------|------|
B|-----5-5---5-----5-5---5--------------|------|
G|---4-----4-----4-----4----------------|------|
D|--------------------------5--7--9--11-|--9\--|
A|-3-----------2------------3--5--7---9-|--7\--|
E|--------------------------------------|------|


Guitar 2 (Distortion, slight palm muting)
e|-------------------------------------------------|
B|-----5-5---5-----5-5---5-----5-5---5-----5-5---5-|
G|---4-----4-----4-----4-----4-----4-----4-----4---|
D|-2-----------2-----------4-----------4-----------|
A|-------------------------------------------------|
E|-------------------------------------------------|

e|-------------------------------------------------|
B|-----5-5---5-----5-5---5----5---5----------------|
G|---4-----4-----4-----4----2---0------------------|
D|-5-----------5--------------------4~--5~--4~-----|
A|--------------------------------------a---a---5~-|
E|----------------------------------------------a--|

e|-------------------------------------------------|
B|-----5-5---5-----5-5---5-----5-5---5-----5-5---5-|
G|---4-----4-----4-----4-----4-----4-----4-----4---|
D|-2-----------2-----------0-----------0-----------|
A|-------------------------------------------------|
E|-------------------------------------------------|
                                    Final time
e|----------------------------------|------|
B|----------------------------------|------|
G|----------------------------------|------|
D|-2p0-----2p0-----2p0--5--7--9--11-|--9\--|
A|-----3~------2~-------3--5--7---9-|--7\--|
E|----------------------------------|------|


Solo over Riff 5 (Distortion, Mustaine)
e|-19~----19~-----------15-17-19~--19~-19~-19~-|
B|--------------15-17-19-----------------------|
G|---------------------------------------------|
D|---------------------------------------------|
A|---------------------------------------------|
E|---------------------------------------------|

e|---------14-15-17-15-14-15-14-12-------------------|
B|-14-15-17------------------------17-15-14-15-15-17-|
G|---------------------------------------------------|
D|---------------------------------------------------|
A|---------------------------------------------------|
E|---------------------------------------------------|

e|-------------------------------------------------|
B|-17-15-14-15-14-12-------------------------------|
G|-------------------16-14-12-14-12-16-14-12-14-12-|
D|-------------------------------------------------|
A|-------------------------------------------------|
E|-------------------------------------------------|

e|-------------------------------------------------------|
B|-------------------------------------------------------|
G|-------------------------------------------------------|
D|-16-14-12-14-12-14-16-14-12-14-12----------------------|
A|----------------------------------16-14-12-14-16-14-12-|
E|-------------------------------------------------------|

e|--------|
B|--------|
G|--------|
D|--------|
A|--------|
E|--12~~--|

e|-----------------------------------------------|
B|-----------------------------------------------|
G|-----------------------------------------------|
D|-----------------------------------------------|
A|-----------------------------------------------|
E|-----------------------------------------------|

e|-----------------------------------------------|
B|-----------------------------------------------|
G|-----------------------------------------------|
D|-----------------------------------------------|
A|-----------------------------------------------|
E|-----------------------------------------------|

e|-----------------------------------------------|
B|-----------------------------------------------|
G|-----------------------------------------------|
D|-----------------------------------------------|
A|-----------------------------------------------|
E|-----------------------------------------------|

e|---------15h17h19---------17h19h20-|
B|-15h17h19---------17h19h20---------|
G|-----------------------------------|
D|-----------------------------------|
A|-----------------------------------|
E|-----------------------------------|

e|---------19h20h22-14h15h17---------|
B|-19h20h22-----------------15h17h19-|
G|-----------------------------------|
D|-----------------------------------|
A|-----------------------------------|
E|-----------------------------------|

e|-15-17--14-15-----14----------------------|
B|---------------17-----15-17--14-15--------|
G|------------------------------------14-16-|
D|------------------------------------------|
A|------------------------------------------|
E|------------------------------------------|

e|-15-17--14-15-----14------------17b18~~-|
B|---------------17-----15-17--14---------|
G|----------------------------------------|
D|----------------------------------------|
A|----------------------------------------|
E|----------------------------------------|

e|-15-17--14-15-----14---------------------|
B|---------------17-----15-17--14-15----15-|
G|-----------------------------------14----|
D|-----------------------------------------|
A|-----------------------------------------|
E|-----------------------------------------|

e|---------------------------------------|
B|---15---15---15---15---15--------------|
G|-14---12---11---12---11----------------|
D|--------------------------12\2~~-------|
A|-----------------------------------5~~-|
E|---------------------------------------|

e|----------------------------------------|
B|----------------------------------------|
G|----------------------------------------|
D|-2p0-----2p0-----2p0-----------------9\-|
A|-----3~------2~----------------------7\-|
E|----------------------8\-10\-12\-14\----|

End solo



Riff 6
Guitar 1 (Distortion, slight palm muting)
e|--------------------------------------------------|
B|-----5-5---5-----5-5---5-----5-5---5----5---5-----|
G|---4-----4-----4-----4-----4-----4----2---0-------|
D|-2-----------4-----------5--------------------4-5-|
A|--------------------------------------------------|
E|--------------------------------------------------|
    "Hey, I don't feel so good..."

Guitar 2 (comes in after awhile)
e|----------------|
B|----------------|
G|----------------|
D|-2--------------|
A|-2--[let ring]--|
E|----------------|
   "Hey..."



Riff 7
Guitar 1                   x2
e|--------------------------|
B|--------------------------|
G|--------------------------|
D|-2----4----5----7--5--4-5-|
A|-2----4----5----7--5--4-5-|
E|--------------------------|
  "Something's coming over me..."

Guitar 2
e|--------------------------|
B|--------------------------|
G|--------------------------|
D|-2----4----5----7--5--4-5-|
A|-2----4----5----7--5--4-5-|
E|--------------------------|

e|---------------------|
B|---------------------|
G|---------------------|
D|-2----4----5---------|
A|-2----4----5---------|
E|----------------X\\--|



Riff 8
Guitar 1                  x3
e|-------------------------|
B|-------------------------|
G|-------------------------|
D|-------------------------|
A|-2----4----5----7-5--4-5-|
E|-0----2----3----5-3--2-3-|
  "Whoa..."
e|----------------|
B|----------------|
G|----------------|
D|----------------|
A|-2----4----5----|
E|-0----2----3----|


Guitar 2
e|-------------------------|
B|-------------------------|
G|-------------------------|
D|-------------------------|
A|-2----4----5----7-5--4-5-|
E|-0----2----3----5-3--2-3-|

e|-------------------------|
B|-------------------------|
G|-------------------------|
D|----------------7-5--4-5-|
A|-2--------------7-5--4-5-|
E|-0----6~---7~------------|

e|---------------------------|
B|---------------------------|
G|---------------------------|
D|---------------------------|
A|-7~---9~--10~--12-10--9-10-|
E|---------------------------|

e|----------------|
B|----------------|
G|----------------|
D|----------------|
A|-7~-------------|
E|------6~---7~---|




Interlude: (Mustaine)
e|---------------------------------|
B|---------------------------------|
G|-9p7p5---7p5-----5---------------|
D|-------9-----9-7---9-7-5-9p7p5---|
A|-------------------------------9-|
E|---------------------------------|

e|---------------------------------|
B|---------------------------------|
G|---------------------------------|
D|-7p5-----5-----------------------|
A|-----9-7---9-7-5-9p7p5---7p5-----|
E|-----------------------9-----9-7-|



Riff 9 (Solo Rhythm)
Guitar 1
e|--------------------|
B|--------------------|
G|--------------------|
D|--------------------|
A|-1--2-------3-2-----|
E|-2--3--0--------5-2-|
              * * * *


Solo (Mustaine)
e|-----------------------------------------------|
B|-----------------------------------------------|
G|-----------------------------------------------|
D|-----------------------------------------------|
A|-----------------------------------------------|
E|-----------------------------------------------|

e|-----------------------------------------------|
B|-----------------------------------------------|
G|-----------------------------------------------|
D|-----------------------------------------------|
A|-----------------------------------------------|
E|-----------------------------------------------|

e|-----------------------------------------------|
B|-----------------------------------------------|
G|-----------------------------------------------|
D|-----------------------------------------------|
A|-----------------------------------------------|
E|-----------------------------------------------|

e|-----------------------------------------------|
B|-----------------------------------------------|
G|-----------------------------------------------|
D|-----------------------------------------------|
A|-----------------------------------------------|
E|-----------------------------------------------|

End solo



Riff 10
Guitar 1          x4
e|-----------------|------|
B|-----------------|------|
G|-----------------|------|
D|-----------------|------|
A|-----------------|------|
E|-2~--0---3~--5~--|--2~--|

Guitar 2           x4
e|------------------|------|
B|------------------|------|
G|------------------|------|
D|--------------7~--|------|
A|-9~--7~--10~------|--9~--|
E|------------------|------|



Black Friday:

Riff 11
Guitar 1
e|------------------------------------------|
B|------------------------------------------|
G|------------------------------------------|
D|------------------------------------------|
A|-----3p2-------4/5------3p2---5p4---2h4---|
E|-222-----5-222-2/3--222-----3-----5-----3-|
   ***     * ***      ***     *     *     *
e|--------------------------------------------|
B|--------------------------------------------|
G|--------------------------------------------|
D|--------------------------------------------|
A|-----3p2-------4/5--5p4---3p2---2p0---------|
E|-222-----5-222-2/3------5-----3-----3-5-3-0-|
   ***     * ***          *     *     * * * *

Guitar 2
e|------------------------------------------|
B|------------------------------------------|
G|------------------------------------------|
D|------------------------------------------|
A|------------------------------------------|
E|------------------------------------------|

e|--------------------------------------------|
B|--------------------------------------------|
G|--------------------------------------------|
D|--------------------------------------------|
A|--------------------5p4---3p2---2p0---------|
E|------------------------5-----3-----3-5-3-0-|
                          *     *     * * * *
e|------------------------------------------|
B|------------------------------------------|
G|------------------------------------------|
D|---------------4/5------------------------|
A|-----3p2-------4/5------3p2---5p4---2h4---|
E|-222-----5-222------222-----3-----5-----3-|
   ***     * ***      ***     *     *     *
e|--------------------------------------------|
B|--------------------------------------------|
G|--------------------------------------------|
D|---------------4/5--------------------------|
A|-----3p2-------4/5--5p4---3p2---2p0---------|
E|-222-----5-222----------5-----3-----3-5-3-0-|
   ***     * ***          *     *     * * * *


Riff 11a
Guitar 1
e|------------------------------------------|
B|------------------------------------------|
G|------------------------------------------|
D|------------------------------------------|
A|-----3p2-------4/5------3p2---5p4---2h4---|
E|-222-----5-222-2/3--222-----3-----5-----3-|
   ***     * ***      ***     *     *     *
   "Killer, intruder..."
e|--------------------------------------------|
B|--------------------------------------------|
G|--------------------------------------------|
D|--------------------------------------------|
A|-----3p2-------4/5--5p4---3p2---2p0---------|
E|-222-----5-222-2/3------5-----3-----3-5-3-0-|
   ***     * ***          *     *     * * * *
   "You see me coming..."

Guitar 2
e|------------------------------------------|
B|------------------------------------------|
G|------------------------------------------|
D|---------------4/5------------------------|
A|-----3p2-------4/5------3p2---5p4---2h4---|
E|-222-----5-222------222-----3-----5-----3-|
   ***     * ***      ***     *     *     *
e|--------------------------------------------|
B|--------------------------------------------|
G|--------------------------------------------|
D|---------------4/5--------------------------|
A|-----3p2-------4/5--5p4---3p2---2p0---------|
E|-222-----5-222----------5-----3-----3-5-3-0-|
   ***     * ***          *     *     * * * *



Riff 12
Guitar 1
e|----------------------------------|
B|----------------------------------|
G|----------------------------------|
D|----------------------------------|
A|-----4p3-------6------4p3-------6-|
E|-333-----4-333-4--333-----4-333-4-|
   ***       ***    ***       ***
   "Bloodthristy demon..."
e|-------------------------------|
B|-------------------------------|
G|-------------------------------|
D|-------------5-6-------------5-|
A|-xxx-7-9--xx-3-4--xx-7-9--xx-3-|
E|-xxx-5-7--xx------xx-5-7--xx---|
   "...fiend..."
e|----------------------------------|
B|----------------------------------|
G|----------------------------------|
D|----------------------------------|
A|-----4p3-------6------4p3-------6-|
E|-333-----4-333-4--333-----4-333-4-|
   ***       ***    ***       ***
   "Bludgenous slaughters..."
e|--------------------------------|
B|--------------------------------|
G|--------------------------------|
D|-------------5-6-----9-11-----6-|
A|-xxx-7-9--xx-3-4--xx-7--9--xx-4-|
E|-xxx-5-7--xx------xx-------xx---|
   "...deeds..."

Guitar 2
e|----------------------------------|
B|----------------------------------|
G|----------------------------------|
D|---------------6----------------6-|
A|-----4p3-------6------4p3-------6-|
E|-333-----4-333----333-----4-333---|
   ***       ***    ***       ***
   "Bloodthristy demon..."
e|-------------------------------|
B|-------------------------------|
G|-------------------------------|
D|-------------5-6-------------5-|
A|-xxx-7-9--xx-3-4--xx-7-9--xx-3-|
E|-xxx-5-7--xx------xx-5-7--xx---|
   "...fiend..."
e|----------------------------------|
B|----------------------------------|
G|----------------------------------|
D|---------------6----------------6-|
A|-----4p3-------6------4p3-------6-|
E|-333-----4-333----333-----4-333---|
   ***       ***    ***       ***
   "Bludgenous slaughters..."
e|--------------------------------|
B|--------------------------------|
G|--------------------------------|
D|-------------5-6-----9-11-----6-|
A|-xxx-7-9--xx-3-4--xx-7--9--xx-4-|
E|-xxx-5-7--xx------xx-------xx---|
   "...deeds..."


Play Riff 11a "My hammer's a cold..."
Play Riff 12  "I unleash my hammer..."
Play Riff 11a  with this additional section:
e|-----------------------------------------------|
B|-----------------------------------------------|
G|-----------------------------------------------|
D|----------------------------------/11---(11)\--|
A|-7p6---5p4---3p2---2p0---4--------/-9----(9)\--|
E|-----7-----5-----3-----3-2---------------------|
       *     *     *     *


Riff 13
e|-----------------------------|
B|-----------------------------|
G|-----------------------------|
D|-----------------------------|
A|--------3p2p0----2h3p2h3p2p0-|
E|-2--2-5-------2--------------|



Riff 13a                      x6
e|-----------------------------|
B|-----------------------------|
G|-----------------------------|
D|-----------------------------|
A|--------3p2p0----2h3p2h3p2p0-|
E|-2--2-5-------2--------------|
   "Their bodies convulse..."
e|--------------------|
B|--------------------|
G|---------/11--------|
D|-4-------/11--------|
A|-4-------/-9--------|
E|-2------------------|
   "...take out the organs..."


Riff 14
e|------------------------------|
B|------------------------------|
G|------------------------------|
D|----------------------5-------|
A|------------------8-7-3-8-7-5-|
E|-3333333333333333-6-5---6-5-3-|
   ****************
   "I lurk in the alley..."
e|-----------------------------|
B|-----------------------------|
G|-----------------------------|
D|-----------------------------|
A|--------3p2p0----2h3p2h3p2p0-|
E|-2--2-5-------2--------------|
  "...kill..."
e|-----------------------------|
B|-----------------------------|
G|-----------------------------|
D|-----------------------------|
A|--------3p2p0----2h3p2h3p2p0-|
E|-2--2-5-------2--------------|


Riff 15
e|---------------------------------------|
B|---------------------------------------|
G|---------------------------------------|
D|--------------------------------4/5----|
A|--------------7/8--000000000000-2/3--4-|
E|-333333333333-5/6--------------------2-|
   ************      ************
  "A merciless butcher..."


Riff 16
e|-------------------------------------|
B|-------------------------------------|
G|-------------------------------------|
D|-------------------------------5-4-2-|
A|-------------------------------3-2-0-|
E|-0-2222222-0-2222222-0-2222222-------|
   * ******* * ******* * *******
                                "Cut you down..."
e|-------------------------------------|
B|-------------------------------------|
G|-------------------------------------|
D|-------------------------------7-6-4-|
A|-------------------------------5-4-2-|
E|-2-4444444-2-4444444-2-4444444-------|
   * ******* * ******* * *******
                                    "I..."

Riff 16a
Guitar 1
e|-----------------------------------------|
B|-----------------------------------------|
G|-----------------------------------------|
D|-----------------------------------------|
A|-0-2222222-0-2222222-2-4444444-2-4444444-|
E|-----------------------------------------|
   * ******* * ******* * ******* * *******
   "...see you..."
e|-----------------------------------------|
B|-----------------------------------------|
G|-----------------------------------------|
D|-----------------------------------------|
A|-3-5555555-4-6666666-5-7777777-6-8888888-|
E|-----------------------------------------|
   * ******* * ******* * ******* * *******
   "...and I'm waiting..."              "For black friday!"

Guitar 2
e|-----------------------------------------|
B|-----------------------------------------|
G|-----------------------------------------|
D|-----------------------------------------|
A|-----------------------------------------|
E|-----------------------------------------|

e|-----------------------------------------|
B|-----------------------------------------|
G|-----------------------------------------|
D|-----------------------------------------|
A|-----------------------------------------|
E|-----------------------------------------|



Riff 17 (Solo Rhythm)
e|--------------------------------|
B|--------------------------------|
G|--------------------------------| ----|
D|--------------------------2-2---|     |
A|--------------------------0-0-2-|     |
E|-222222222222222222222222-----0-|     |
   ************************             |--> Play 3x
e|--------------------------------|     |
B|--------------------------------|     |
G|--------------------------------|     |
D|--------------------------5-4-2-| ----|
A|--------------------------3-2-0-|
E|-222222222222222222222222-------|
   ************************

e|--------------------------------|
B|--------------------------------|
G|--------------------------------|
D|--------------------------2-2---|
A|--------------------------0-0-2-|
E|-222222222222222222222222-----0-|
   ************************
e|-----------------------------------------|
B|-----------------------------------------|
G|-----------------------------------------|
D|--------------------------5-4-2-5--5-4-2-|
A|--------------------------3-2-0-3--3-2-0-|
E|-222222222222222222222222----------------|
   ************************


Solo (Poland)
e|-----------------------------------------------|
B|-----------------------------------------------|
G|-----------------------------------------------|
D|-----------------------------------------------|
A|-----------------------------------------------|
E|-----------------------------------------------|

e|-----------------------------------------------|
B|-----------------------------------------------|
G|-----------------------------------------------|
D|-----------------------------------------------|
A|-----------------------------------------------|
E|-----------------------------------------------|

e|-----------------------------------------------|
B|-----------------------------------------------|
G|-----------------------------------------------|
D|-----------------------------------------------|
A|-----------------------------------------------|
E|-----------------------------------------------|

e|-----------------------------------------------|
B|-----------------------------------------------|
G|-----------------------------------------------|
D|-----------------------------------------------|
A|-----------------------------------------------|
E|-----------------------------------------------|

End Solo


Play Riff 13a  "...intruder..."
Play Riff 14   "Bloodthirsty demon..."
Play Riff 15   "A merciless butcher..."
Play Riff 17   "It's black friday!"


Ending
e|--------------------------------|
B|--------------------------------|
G|--------------------------------|
D|--------------------------2-2---|
A|--------------------------0-0-2-|
E|-222222222222222222222222-----0-|
   ************************
                      "It's black friday..."
e|--------------------------------|
B|--------------------------------|
G|--------------------------------|
D|--------------------------5-4-2-|
A|--------------------------3-2-0-|
E|-222222222222222222222222-------|
   ************************
                      "Write the devil..."
e|-----------------|
B|-----------------|
G|-----------------|
D|-5-4-2--5-4-2----|
A|-3-2-0--3-2-0-4\-|
E|--------------2\-|
  "...devil on the, devil on the wall."

6.BAD OMEN

Tuning: 1/4 step down


Riff 1
Guitar 1 (Acoustic)
e|---------------------|
B|-------8-----------7-|
G|-----0-----0-----0---|
D|---9-----9-----8-----|
A|-7-----------7-------|
E|---------------------|

Guitar 2 (Distortion)
e|---------------------|
B|-------8-----------7-|
G|-----0-----0-----0---|
D|---9-----9-----8-----|
A|-7-----------7-------|
E|---------------------|
   * * *   *   * * *

Riff 1a
Guitar 1 (Acoustic)
e|---------------------------------|
B|-------8-----------7-------------|
G|-----0-----0-----0-----0-------9-|
D|---9-----9-----8-----8-----8-----|
A|-7-----------7-----------7---7---|
E|---------------------------------|

Guitar 2 (Distortion)
e|---------------------------------|
B|-------8-----------7-------------|
G|-----0-----0-----0-----0-------9-|
D|---9-----9-----8-----8-----8-----|
A|-7-----------7-----------7---7---|
E|---------------------------------|
   * * *   *   * * *   *   * * *


Riff 2 (Distortion)
e|------------------------------|
B|------------------------------|
G|------------------------------|
D|-9-------------------9--------|
A|-7----1--------------7--------|
E|------1----X\-X\-X\-------0-0-|
                            * *
e|---------------------|
B|---------------------|
G|---------------------|
D|---------------------|
A|-8-9-8-9-8-9-8-5-7-5-|
E|-6-7-6-7-6-7-6-3-5-3-|
   * * * * * * * * * *


Riff 2a
Guitar 1 (Acoustic)
e|---------------------------------|
B|-------8-----------7-------------|
G|-----0-----0-----0-----0-------9-|
D|---9-----9-----8-----8-----8-----|
A|-7-----------7-----------7---7---|
E|---------------------------------|

Guitar 2 (Distortion)
e|---------------------------------|
B|-------8-----------7-------------|
G|-----0-----0-----0-----0-------9-|
D|---9-----9-----8-----8-----8-----|
A|-7-----------7-----------7---7---|
E|---------------------------------|
   * * *   *   * * *   *   * * *

Guitar 3 (Distortion)
e|----------------------------|
B|----------------------------|
G|----------------------------|
D|----------------------------|
A|-7~----7~--------7~-----7~--|
E|-----------------a----------|

e|----------------------------|
B|----------------------------|
G|----------------------------|
D|----------------------------|
A|-7~----7~--------7~-----7~--|
E|-a---------------a----------|


Play Riff 2


Riff 2b (Solo Rhythm)
e|------------------------------------|
B|------------------------------------|
G|------------------------------------|
D|-9-------------9-------------9------|
A|-7----1--------7----1--------7----1-|
E|------1-------------1-------------1-|

e|------------------|
B|------------------|
G|------------------|
D|-9---------5------|
A|-7----1----5----2-|
E|------1----3----0-|


Solo (Poland)
e|-------------------------------------|
B|-------------------------------------|
G|-------------------------------------|
D|-------------------------------------|
A|-------------------------------------|
E|-------------------------------------|

e|-------------------------------------|
B|-------------------------------------|
G|-------------------------------------|
D|-------------------------------------|
A|-------------------------------------|
E|-------------------------------------|

e|-------------------------------------|
B|-------------------------------------|
G|-------------------------------------|
D|-------------------------------------|
A|-------------------------------------|
E|-------------------------------------|

e|-------------------------------------|
B|-------------------------------------|
G|-------------------------------------|
D|-------------------------------------|
A|-------------------------------------|
E|-------------------------------------|

End Solo


Lead into next section:
e|---------------------------|
B|---------------------------|
G|---------------------------|
D|---------------------------|
A|-4-5----[bass plays alone]-|
E|-2-3-----------------------|

e|-------------------------------------|
B|-------------------------------------|
G|-------------------------------------|
D|-----------------5----------(8--8h9)-| <-- Guitar 2
A|-4-5-------5-------7-6-5-----8--8/9--|
E|-2-3-5-6-7---6-7---------7-6-6--6/7--|
       * * * * * * * * * * * *
e|-----------------------------|
B|-----------------------------|
G|-----------------------------|
D|-------------5---------------|
A|-------5-------7-6-5-----4-5-|
E|-5-6-7---6-7---------7-6-2-3-|
   * * * * * * * * * * * *
e|---------------------------------|
B|---------------------------------|
G|---------------------------------|
D|-------------5----------(8--8h9)-| <-- Guitar 2
A|-------5-------7-6-5-----8--8/9--|
E|-5-6-7---6-7---------7-6-6--6/7--|
   * * * * * * * * * * * *
e|-----------------------------|
B|-----------------------------|
G|-----------------------------|
D|-------------5---------------|
A|-------5-------7-6-5-----4-5-|
E|-5-6-7---6-7---------7-6-2-3-|
   * * * * * * * * * * * *


Riff 3
e|---------------------------|
B|---------------------------|
G|---------------------------|
D|-----------------5-4-2-----|
A|-4-xx-4/5---4-4--------5-4-|
E|-2-xx-2/3-0-2-2------------|
                   * * * * *
e|---------------------------|
B|---------------------------|
G|---------------------------|
D|-----------------5-4-2-----|
A|-4-xx-4/5---4-x--------5-4-|
E|-2-xx-2/3-0-2-x------------|
                   * * * * *


Riff 4
e|---------------------------------|
B|---------------------------------|
G|---------------------------------|
D|-------------5----------(8--8h9)-| <-- Guitar 2
A|-------5-------7-6-5-----8--8/9--|
E|-5-6-7---6-7---------7-6-6--6/7--|
   * * * * * * * * * * * *
e|-----------------------------|
B|-----------------------------|
G|-----------------------------|
D|-------------5---------------|
A|-------5-------7-6-5-----4-5-|
E|-5-6-7---6-7---------7-6-2-3-|
   * * * * * * * * * * * *


Play Riff 3   "Drinking, dancing..."
Play Riff 4


Riff 5 (Solo Rhythm)
e|---------------------------------|
B|---------------------------------|
G|---------------------------------|
D|---------------------------------|
A|-----------------------------5-4-|
E|-2-2-2-2-2-2-2-2-2-2-2-2-2-2-3-2-|
   * * * * * * * * * * * * * *
e|-----------------------------|
B|-----------------------------|
G|-----------------------------|
D|-----------------------------|
A|-------------------------5-4-|
E|-2-2-2-2-2-2-2-2-2-2-2-2-3-2-|
   * * * * * * * * * * * *
e|-----------------------------|
B|-----------------------------|
G|-----------------------------|
D|-----------------------------|
A|-------------------------5-4-|
E|-2-2-2-2-2-2-2-2-2-2-2-2-3-2-|
   * * * * * * * * * * * *
e|---------------------------|
B|---------------------------|
G|---------------------------|
D|---------------------------|
A|-------------------------5-|
E|-2-2-2-2-2-2-2-2-2-2-2-2-3-|
   * * * * * * * * * * * *    x3
e|-----------------------------|
B|-----------------------------|
G|-----------------------------|
D|-----------------------------|
A|-2---------------------------|
E|-0-0-0-0-0-0-0-0-0-0-0-0-0-0-|
     * * * * * * * * * * * * *
e|-------------------------------|
B|-------------------------------|
G|-------------------------------|
D|-------------------------------|
A|-2-----------------------------|
E|-0-0-0-0-0-0-0-0-0-0-0-0-0-0-0-|
     * * * * * * * * * * * * * *


Solo (Mustaine)
e|-------------------------------------|
B|-------------------------------------|
G|-------------------------------------|
D|-------------------------------------|
A|-------------------------------------|
E|-------------------------------------|

e|-------------------------------------|
B|-------------------------------------|
G|-------------------------------------|
D|-------------------------------------|
A|-------------------------------------|
E|-------------------------------------|

e|-------------------------------------|
B|-------------------------------------|
G|-------------------------------------|
D|-------------------------------------|
A|-------------------------------------|
E|-------------------------------------|

e|-------------------------------------|
B|-------------------------------------|
G|-------------------------------------|
D|-------------------------------------|
A|-------------------------------------|
E|-------------------------------------|

End Solo


Play Riff 4


Lead into next section:
e|----------------------------------|
B|----------------------------------|
G|-9h12p9---------------------------|
D|--------8h11p8--------------------|
A|---------------7h10p7-------------|
E|----------------------6h9p6-0h3p0-|
    "Bloody..."
e|--------------------------------|
B|--------------------------------|
G|-------------------3h6p3--------|
D|-------------2h5p2------2h5p2---|
A|-------1h4p1------------------2-|
E|-0h3p0------------------------0-|
    "...blasphemy."



Riff 6 (Solo Rhythm)
e|-----------------------------------|
B|-----------------------------------|
G|-----------------------------------|
D|-----------------------7-----7-----|
A|-2---------------------5-9-8-5-9-8-|
E|-0-0000000000000000...---7-6---7-6-|
     ****************
e|---------------------------------|
B|---------------------------------|
G|---------------------------------|
D|---------------------7-----7-----|
A|---------------------5-9-8-5-9-8-|
E|-0000000000000000...---7-6---7-6-|
   ****************


Solo (Mustaine)
e|-------------------------------------|
B|-------------------------------------|
G|-------------------------------------|
D|-------------------------------------|
A|-------------------------------------|
E|-------------------------------------|

e|-------------------------------------|
B|-------------------------------------|
G|-------------------------------------|
D|-------------------------------------|
A|-------------------------------------|
E|-------------------------------------|

e|-------------------------------------|
B|-------------------------------------|
G|-------------------------------------|
D|-------------------------------------|
A|-------------------------------------|
E|-------------------------------------|

e|-------------------------------------|
B|-------------------------------------|
G|-------------------------------------|
D|-------------------------------------|
A|-------------------------------------|
E|-------------------------------------|

End Solo


Riff 7
e|---------------------------------|
B|---------------------------------|
G|---------------------------------|
D|---------------------7-----7-----|
A|---------------------5-9-8-5-9-8-|
E|-0000000000000000...---7-6---7-6-|
   ****************
   "Sinister's the word..."


Riff 8
Guitar 1                  x2
e|-------------------------|
B|-------------------------|
G|-------------------------|
D|-------------------------|
A|------7p5--------5h7-8p7-|
E|-0000-----000000---------|
   **** * * ****** * * * *
e|--------------------------------------|
B|--------------------------------------|
G|--------------------------------------|
D|--------------------------7-----7-----|
A|------7p5--------5h7-8p7--5-9-8-5-9-8-|
E|-0000-----000000------------7-6---7-6-|
   **** * * ****** * * * *
                        "No one can save them..."

Guitar 2                        x2
e|-------------------------------|
B|-------------------------------|
G|-------------------------------|
D|-------------------------------|
A|------12p10--------10h12-13p12-|
E|-0000-------000000-------------|
   **** *   * ******  *  *  *  *
e|-------------------------------------------|
B|-------------------------------------------|
G|-------------------------------------------|
D|-------------------------------7-----7-----|
A|------12p10--------10h12-13p12-5-9-8-5-9-8-|
E|-0000-------000000---------------7-6---7-6-|
   ****  *  * ******  *  *  *  *
                        "No one can save them..."


Ending:
Guitar 1
e|-------------------------|
B|-------------------------|
G|-------------------------|
D|-------------------------|
A|------7p5--------5h7-8p7-|
E|-0000-----000000---------|
   **** * * ****** * * * *
e|-----------------------------------------|
B|-----------------------------------------|
G|-----------------------------------------|
D|--------------------------7-----7--------|
A|------7p5--------5h7-8p7--5-9-8-5-9-8-7--|
E|-0000-----000000------------7-6---7-6-5--|
   **** * * ****** * * * *
e|----------------|
B|----------------|
G|----------------|
D|-7-----7-----9\-|
A|-5-9-8-5-9-8-7\-|
E|---7-6---7-6----|


Guitar 2
e|-------------------------------|
B|-------------------------------|
G|-------------------------------|
D|-------------------------------|
A|------12p10--------10h12-13p12-|
E|-0000-------000000-------------|
   **** *   * ******  *  *  *  *
e|----------------------------------------------|
B|----------------------------------------------|
G|----------------------------------------------|
D|-------------------------------7-----7--------|
A|------12p10--------10h12-13p12-5-9-8-5-9-8-7--|
E|-0000-------000000---------------7-6---7-6-5--|
   ****  *  * ******  *  *  *  *
e|----------------|
B|----------------|
G|----------------|
D|-7-----7-----9\-|
A|-5-9-8-5-9-8-7\-|
E|---7-6---7-6----|

7.I AINT SUPERSTITIOUS

Tuning: 1/4 step down


Intro
Guitar 1           x3
e|------------------|
B|------------------|
G|------------------|
D|---2--4-2---------|
A|-4-0--2-0----4-4--|
E|-2-----------2-2--|
   *
e|------------------------|
B|------------------------|
G|------------------------|
D|---2--4-2---------------|
A|-4-0--2-0----4-4--------|
E|-2-----------2-2----X\\-|
   *

Guitar 2
e|------------------------|
B|------------------------|
G|------8-8b9--(9)r8------|
D|-8-11--------------9-8~-|
A|------------------------|
E|------------------------|

e|---------------------------------|
B|---------------------------------|
G|------8-8b9--(9)r8----9b11-9b11~-|
D|-8-11----------------------------|
A|---------------------------------|
E|---------------------------------|

e|------------------------|
B|------------------------|
G|------8-8b9--(9)r8------|
D|-8-11--------------9-8~-|
A|------------------------|
E|------------------------|

e|----------------------------|
B|----------------------------|
G|------8-8b9--(9)r8----9b11~-|
D|-8-11-----------------------|
A|----------------------------|
E|----------------------------|


Guitar 3
e|--------------------------------|
B|-------16-16b17--(17)r16--------|
G|-15-18-------------------16-15~-|
D|--------------------------------|
A|--------------------------------|
E|--------------------------------|

e|-----------------------------------------|
B|-------16-16b17--(17)r16----17b19-17b19~-|
G|-15-18-----------------------------------|
D|-----------------------------------------|
A|-----------------------------------------|
E|-----------------------------------------|

e|--------------------------------|
B|-------16-16b17--(17)r16--------|
G|-15-18-------------------16-15~-|
D|--------------------------------|
A|--------------------------------|
E|--------------------------------|

e|-----------------------------------|
B|-------16-16b17--(17)r16----17b19~-|
G|-15-18-----------------------------|
D|-----------------------------------|
A|-----------------------------------|
E|-----------------------------------|



Riff 1
e|-------------------------------------------|
B|-------------------------------------------|
G|-----------2--2-4-2-------------2--2-4-2---|
D|-----1-2-4----------4-----1-2-4----------4-|
A|-2-2------------------2-2------------------|
E|-------------------------------------------|
   * * * * *            * * * * *
   "Well I ain't..."
e|---------------|
B|---------------|
G|---------------|
D|---------------|
A|-4----4-4----4-|
E|-2----2-2----2-|
   "...path..."



Riff 1a
e|-------------------------------------------|
B|-------------------------------------------|
G|-----------4--4-6-4-------------2--2-4-2---|
D|-----3-4-6----------6-----1-2-4----------4-|
A|-4-4------------------2-2------------------|
E|-------------------------------------------|
   * * * * *            * * * * *
   "Ain't afraid..."
e|---------------|
B|---------------|
G|---------------|
D|---------------|
A|-4----4-4----4-|
E|-2----2-2----2-|
   "...laugh..."


Play Riff 1   "I ain't superstitious..."
Play Riff 1a  "Ain't afraid..."


Riff 3
e|---------------------------------------|
B|---------------------------------------|
G|---------------------------------------|
D|-4---2-4---2-4---2-4---2---------------|
A|-2-4-0-2-4-0-2-4-0-2-4-0-4----4-4----4-|
E|---2-----2-----2-----2---2----2-2----2-|
                              "Superstitious."


Play Riff 1a
Play Riff 1    "I ain't superstitious..."


Riff 1b
e|-------------------------------------------|
B|-------------------------------------------|
G|-----------4--4-6-4-------------2--2-4-2---|
D|-----3-4-6----------6-----1-2-4----------4-|
A|-4-4------------------2-2------------------|
E|-------------------------------------------|
   * * * * *            * * * * *
   "Take your stupid..."
e|-----------|
B|-----------|
G|-----------|
D|-----------|
A|-4----4-4--|
E|-2----2-2--|
   "...chickenshit, sissy..."



Play Riff 3   "Superstitious."


Riff 1c
e|-------------------------------------------|
B|-------------------------------------------|
G|-----------4--4-6-4-------------2--2-4-2---|
D|-----3-4-6----------6-----1-2-4----------4-|
A|-4-4------------------2-2------------------|
E|-------------------------------------------|
   * * * * *            * * * * *
e|------------------------------|
B|------------------------------|
G|------------------------------|
D|------------------------------|
A|-4----4-4----4-5-6-7--7--7--7-|
E|-2----2-2----2-3-4-5--5--5--5-|



Ending:
e|--------------------------------------------|
B|--------------------------------------------|
G|--------------------------------------------|
D|------5h7p5--5--7-7p5---------5h7p5--5--7---|
A|---5h7-----7---------7p5---5h7-----7------5-|
E|-5-----------------------5----------------3-|

e|--------------------------------------------|
B|--------------------------------------------|
G|--------------------------------------------|
D|--------------------------------------------|
A|------5h7p5--5--7-7p5---------5h7p5--5--7-5-|
E|-0-5h7-----7---------7p5-0-5h7-----7------3-|

e|--------------------------------------------|
B|--------------------------------------------|
G|--------------------------------------------|
D|------5h7p5--5--7-7p5---------5h7p5--5--7---|
A|---5h7-----7---------7p5---5h7-----7------5-|
E|-5-----------------------5----------------3-|

e|--------------------------------------------|
B|--------------------------------------------|
G|--------------------------------------------|
D|--------------------------------------------|
A|------5h7p5--5--7-7p5---------5h7p5--5--7---|
E|-0-5h7-----7---------7p5-0-5h7-----7------5-|

e|-------------------------------------------------|
B|-------------------------------------------------|
G|-------------------------------------------------|
D|------7h9p7--7--9-9p7---------5h7p5--5--7-7p5----|
A|---7h9-----9---------9p7---5h7-----7---------7p5-|
E|-7-----------------------5-----------------------|

e|------------------------------------------|
B|------------------------------------------|
G|------------------------------------------|
D|-------------------------------------2--3-|
A|------5h7p5--5--7-7p5----2--4--5--6--0--1-|
E|-0-5h7-----7---------7p5-0--2--3--4-------|

e|--------------------------------------------|
B|--------------------------------------------|
G|------2h4p2--2--4-4p2---------2h4p2--2--4---|
D|-4-2h4-----4---------4p2-4-2h4-----4------2-|
A|-2-----------------------2----------------0-|
E|--------------------------------------------|

e|--------------------------------------------|
B|--------------------------------------------|
G|--------------------------------------------|
D|------2h4p2--2--4-4p2---------2h4p2--2--4-2-|
A|-4-2h4-----4---------4p2-4-2h4-----4------0-|
E|-2-----------------------2------------------|

e|--------------------------------------------|
B|--------------------------------------------|
G|------2h4p2--2--4-4p2---------2h4p2--2--4---|
D|-4-2h4-----4---------4p2-4-2h4-----4------2-|
A|-2-----------------------2----------------0-|
E|--------------------------------------------|

e|--------------------------------------------|
B|--------------------------------------------|
G|--------------------------------------------|
D|------2h4p2--2--4-4p2---------2h4p2--2--4-4-|
A|-4-2h4-----4---------4p2-4-2h4-----4------2-|
E|-2-----------------------2------------------|

e|---------------------------------------|
B|---------------------------------------|
G|------4h6p4--4--6--------2h4p2--2--4---|
D|-6-4h6-----6------6-4-2h4-----4------2-|
A|-4----------------4-2----------------0-|
E|---------------------------------------|

e|-------------------------------|
B|-------------------------------|
G|-------------------------------|
D|-------------------------------|
A|-4----4-4----4-4----4-4----4-4-|
E|-2----2-2----2-2----2-2----2-2-|

e|--------------------------|
B|--------------------------|
G|--------------------------|
D|--------------------------|
A|-4-4----4-4----4-4----4-4-|
E|-2-2----2-2----2-2----2-2-|

8.MY LAST WORDS

Tuning: 1/4 step down

Riff 1

Guitar 1 (Acoustic)
e|-5p0-----8p0-----5p0-----8p0-----|
B|-----6-------6-------6-------6---|
G|-------7-------7-------7-------7-|
D|---------------------------------|
A|---------------------------------|
E|---------------------------------|

e|-4p0-----7p0-----4p0-----7p0-----|
B|-----6-------6-------6-------6---|
G|-------7-------7-------7-------7-|
D|---------------------------------|
A|---------------------------------|
E|---------------------------------|

e|-3p0-----5p0-----3p0-----5p0-------|
B|-----6-------6-------6-------6-----|
G|-------5-------5-------5-------5\2-|
D|-----------------------------------|
A|-----------------------------------|
E|-----------------------------------|

e|-1p0-----1p0-----1p0-----1p0-----|
B|-----3-------3-------3-------3---|
G|-------2-------1-------0-------0-|
D|---------------------------------|
A|---------------------------------|
E|---------------------------------|


Guitar 2 (distortion)
e|---------------------------------------------|
B|---------------------------------------------|
G|-----------------------5---------------------|
D|-------------5--(5)\---3--3------------------|
A|--5~---------5--(5)\------1----------------3-|
E|-------4~--------------------5-3-1-0-1-3-5---|
                               * * * * * * * *
e|----------------------------------------------------------|
B|----------------------------------------------------------|
G|------------------------------------5---------------------|
D|-----------2h3p2----------5--(5)\---3--3------------------|
A|--5~---3-5-a-----5-3------5--(5)\------1----------------3-|
E|---------------------4~-------------------5-3-1-0-1-3-5---|
                                            * * * * * * * *
e|----------------------------------------------------------|
B|----------------------------------------------------------|
G|------------------------------------5---------------------|
D|-----------2h3p2----------5--(5)\---3--3------------------|
A|--5~---3-5-a-----5-3------5--(5)\------1----------------3-|
E|---------------------4~-------------------5-3-1-0-1-3-5---|
                                            * * * * * * * *


Riff 2

Guitar 1                          x4
e|-5p0-----4p0-----3p0-----1p0-----|
B|-----6-------6-------6-------3---|
G|-------7-------7-------5-------5-|
D|---------------------------------|
A|---------------------------------|
E|---------------------------------|

Guitar 2 (Guitar 3 plays notes in () )
e|------------------------------------|
B|------------------------------------|
G|----(/5~-4~)-10-7-9----7~--(/5~-4~)-|
D|-----/6~-5~---------10------/6~-5~--|
A|-/5~--------------------------------|
E|------------------------------------|
                         x2
e|------------------------|
B|------------------------|
G|-10-7-9----7~--(/5~-4~)-|
D|--------10------/6~-5~--|
A|------------------------|
E|------------------------|



Riff 3
Guitar 1 (Acoustic)
e|--5-1--3-0--1----0-----------------------|
B|--------------3----1--3---1-----------3--|
G|------------------------3-----0-------2--|
D|----------------------------3---3-2---0--|
A|------------------------------------3----|
E|-----------------------------------------|

Guitar 2 (Distortion)
e|-------------------------------------------------|
B|-10-6--8-5---------------------------------------|
G|-----------10-7--9-5--7---5----------------------|
D|------------------------8-----5------------------|
A|----------------------------8---8-7---5~~---(5)\-|
E|------------------------------------8------------|

End intro


Riff 4
e|---------------------------------|
B|---------------------------------|
G|-7p5---5p0---5h7-7p5---5p0---5h7-|
D|-7p5-0-5p0---5h7-7p5-0-5p0---5h7-|
A|-----------0---------------0-----|
E|---------------------------------|

e|-------------------------|
B|-------------------------|
G|-7p5---5p0---5/----------|
D|-7p5-0-5p0---5/--10---5--|
A|-----------0------8---3--|
E|-------------------------|


Riff 5
e|---------------------------------|
B|---------------------------------|
G|-7p5---5p0---5h7-7p5---5p0---5h7-|
D|-7p5-0-5p0---5h7-7p5-0-5p0---5h7-|
A|-----------0---------------0-----|
E|---------------------------------|
       *     *         *     *
e|-------------------------|
B|-------------------------|
G|-7p5---5p0---5/----------|
D|-7p5-0-5p0---5/--10---5--|
A|-----------0------8---3--|
E|-------------------------|
       *     *


Riff 6
e|---------------------|
B|---------------------|
G|---------------------|
D|-7---------5----0----|
A|-5----3----3----0----|
E|------1--------------|
  "My life's on time..."

e|----------------------------|
B|----------------------------|
G|----------------------------|
D|-7---------5--4--3-----7----|
A|-5----3----3--2--1--3--5----|
E|------1-------------1-------|
  "Six to one's the odds..."


Play Riff 4
Play Riff 6   "Place the pistol down..."
Play Riff 4
Play Riff 6   "A click comes from the hammer..."

Riff 7
e|------------------------------------------------|
B|------------------------------------------------|
G|------------------------------------------------|
D|----------9/10-9------------------------5-6-----|
A|-5~~------7/-8-7----------7/8-7---------3-4-5~~-|
E|------------------6~~-----5/6-5--3~~------------|
                  "Anybody, somebody..."

Riff 8
e|---------------------------------------------------|
B|---------------------------------------------------|
G|---------------------------------------------------|
D|-7-----------------9/10-9--------------------------|
A|-5-555555555555555-7/-8-7--8-----------------7/8-7-|
E|---------------------------6-666666666666666-5/6-5-|
     ***************           ***************
                            "...anybody..."
e|-----------------------------------------------|
B|-----------------------------------------------|
G|-----------------------------------------------|
D|-------------------5-6-7-----------------------|
A|-5-----------------3-4-5-555555555555555555555-|
E|-3-333333333333333-----------------------------|
     ***************       *********************
                  "...whoa..."


Play Riff 8   Solo Rhythm


Solo (Mustaine)
e|-------------------------------------|
B|-------------------------------------|
G|-------------------------------------|
D|-15p12----15p12----15p12----14p12----|
A|-------12-------12-------12-------12-|
E|-------------------------------------|

e|-------------------------------------|
B|-------------------------------------|
G|-------------------------------------|
D|-15p12----17p12----15p12----14p12----|
A|-------12-------12-------12-------12-|
E|-------------------------------------|

e|-------------------------------------|
B|-------------------------------------|
G|-15p12-------------------------------|
D|----------15p12----15p12----14p12----|
A|-------13-------13-------13-------13-|
E|-------------------------------------|

e|-------------------------------------|
B|-------------------------------------|
G|-------------------------------------|
D|-15p12----17p12----15p12----14p12----|
A|-------13-------13-------13-------13-|
E|-------------------------------------|

e|-------------------------------------|
B|-------------------------------------|
G|-------------------------------------|
D|-15p12----15p12----15p12----14p12----|
A|-------14-------14-------14-------14-|
E|-------------------------------------|

e|----------------------------------10-|
B|-------------------------------13----|
G|----------------------------10-------|
D|-15p12----17p12----15p12-------------|
A|-------14-------14-------14----------|
E|-------------------------------------|

e|-15p13p10-13p10-10-------------------|
B|-------------------15p13p10-13h15-15-|
G|-------------------------------------|
D|-------------------------------------|
A|-------------------------------------|
E|-------------------------------------|

e|-------------------------------|
B|-15p13p10-13p10----------------|
G|---------------13-14p13p10-13/-|
D|-------------------------------|
A|-------------------------------|
E|-------------------------------|

e|-----------------------------------------------|
B|--------------------17h18-20-20p18p17-17h18h20-|
G|-19~-19h21h22p21p19----------------------------|
D|-----------------------------------------------|
A|-----------------------------------------------|
E|-----------------------------------------------|

e|-18p17p15-17h18h20-22-22--20p18-22-20-18-20-18----|
B|-----------------------------------------------22-|
G|--------------------------------------------------|
D|--------------------------------------------------|
A|--------------------------------------------------|
E|--------------------------------------------------|

e|------------------------------------|
B|-23p22p20--22p20p18-20b22r20-18-20~-|
G|------------------------------------|
D|------------------------------------|
A|------------------------------------|
E|------------------------------------|

e|-------------------------|
B|-20-20p18p17-18p17-------|
G|------------------19-19~-|
D|-------------------------|
A|-------------------------|
E|-------------------------|

e|-----------------------------------|
B|-----------------------------------|
G|-19p17p15-17p15---15---------------|
D|---------------19---19p17-19p17p15-|
A|-----------------------------------|
E|-----------------------------------|

e|-----------------------------------|
B|-----------------------------------|
G|-----------------------------------|
D|-17p15---15------------------------|
A|------19---19p17-19p17p15-17p15\13-|
E|-----------------------------------|

e|-------------------------------------|
B|-------------------------------------|
G|-------------------------------------|
D|-------------------------------------|
A|----------------10-12p10-------------|
E|-10h13p10-12h13----------13-10h13p10-|

e|-------------------------------------|
B|-------------------------------------|
G|-------------------------------------|
D|----------------------------------10-|
A|-------10-12p10----10-------12h13----|
E|-12h13----------13----13p12----------|

e|-------------------------------------|
B|-------------------------------------|
G|----------------12-14p12-------------|
D|-12h15p12-14h15----------15-12h15p12-|
A|-------------------------------------|
E|-------------------------------------|

e|-------------------------------------|
B|----------------------------------13-|
G|-------12-14p12----12-------14h15----|
D|-14h15----------15----15p14----------|
A|-------------------------------------|
E|-------------------------------------|

e|----------------15-17p15-------------|
B|-15h18p15-17h18----------18-15h18p15-|
G|-------------------------------------|
D|-------------------------------------|
A|-------------------------------------|
E|-------------------------------------|

e|-------15-17p15----15h17h18-17h18h20-|
B|-17h18----------18-------------------|
G|-------------------------------------|
D|-------------------------------------|
A|-------------------------------------|
E|-------------------------------------|

e|-22p20p18-20p18----------------------|
B|----------------22-23p22p20-22p20p18-|
G|-------------------------------------|
D|-------------------------------------|
A|-------------------------------------|
E|-------------------------------------|

e|-------------------------------------|
B|-20p18-------------------------------|
G|-------21-22p21p19-21p19----19-------|
D|-------------------------22----22p20-|
A|-------------------------------------|
E|-------------------------------------|

e|-22p20p18-20p18---20p18------------|
B|---------------22------22-23p22p20-|
G|-----------------------------------|
D|-----------------------------------|
A|-----------------------------------|
E|-----------------------------------|

e|-22p20p18-20p18---20b22------|
B|---------------22--------20~-|
G|-----------------------------|
D|-----------------------------|
A|-----------------------------|
E|-----------------------------|

e|-22p20p18-20p18---20p18------------|
B|---------------22------22-23p22p20-|
G|-----------------------------------|
D|-----------------------------------|
A|-----------------------------------|
E|-----------------------------------|

e|-22p20p18-20p18---22b24-{22}-{22}-|
B|---------------22-----------------|
G|----------------------------------|
D|----------------------------------|
A|----------------------------------|
E|----------------------------------|

e|-22p20p18-20p18---20p18------------|
B|---------------22------22-23p22p20-|
G|-----------------------------------|
D|-----------------------------------|
A|-----------------------------------|
E|-----------------------------------|

e|-22p20p18-20p18---20p18------------|
B|---------------22------22-23p22p20-|
G|-----------------------------------|
D|-----------------------------------|
A|-----------------------------------|
E|-----------------------------------|

e|-22p20p18-20p18---------------------|
B|---------------22-22p20p17-20p18p17-|
G|------------------------------------|
D|------------------------------------|
A|------------------------------------|
E|------------------------------------|

e|-------------------------------------------|
B|-------------------------------------------|
G|-19p17p15----------------------------------|
D|----------22p20p19-20p19p17-19p17p15\------|
A|---------------------------------------5~~-|
E|-------------------------------------------|

End solo


Play Riff 8   "You, next victim..."

Ending:
e|---------------------------------------------------|
B|---------------------------------------------------|
G|---------------------------------------------------|
D|-7-----------------9/10-9--------------------------|
A|-5-555555555555555-7/-8-7--8-----------------7/8-7-|
E|---------------------------6-666666666666666-5/6-5-|
     ***************           ***************
    "You, next victim..."
e|-----------------------|
B|-----------------------|
G|-----------------------|
D|-------------------5-6-|
A|-5-----------------3-4-|
E|-3-333333333333333-----|
     ***************
   "You, next to..."
                               x3
e|------------------------------|
B|------------------------------|
G|----------------7-----------7-|
D|---------7h8h10---10p8-10p8---|
A|--7h8h10----------------------|
E|------------------------------|
  "...die..."
                [guitar 2 plays note in () ]
e|------------------------------------|
B|------------------------------------|
G|----------------7-------------------|
D|---------7h8h10---10p8-10p8-7-(7~)--|
A|--7h8h10-----------------------8~---|
E|------------------------------------|

e|--------|
B|--------|
G|-----5\-|
D|--7--5\-|
A|--5--3\-|
E|--------|
   "...die."
comments
print report bad tab
4 comments total. Showing first comments.
0 reply
Eric 666 wrote on February 10 2006, 04:05 pm

Holy shit man how long did this take you

0 reply
just a random g wrote on March 4 2006, 01:32 pm

Its not just copied from other tabs 2, seems 2 b all origional (and right). Nice work dude.

0 reply
maidenrulz19 wrote on June 21 2006, 09:03 pm

Awsome tab but how do you pull off from 10 to 3 and hammer on back to 10 during the interlude in peace sells

I want to post or [tab]
guest
You may want to rate the tab now too:
select rating
Please do not post tabs as comments. Select "correction" instead!