Oops, an error
Loading. Please wait.

Peace Sells Tab

ver2
ver2
More versions @911Tabs.com
177,106 views 205 this week
19 commentsread comments
1 2 3 4 5
excellent!
x 59
Autoscroll
+/-
esc
set tempo
stop
Contributor
Hey! There's an official Ultimate Guitar app which is ideal
for learning songs when you're away from computer. Get the app
WARNING: You are trying to view
                                    content from Ultimate-Guitar.com
                                    in an unauthorized application,
                                    which is prohibited.

                                    Please use an official Ultimate
                                    Guitar Tabs application for iPhone,
                                    iPad or Android to access legitimate
                                    chords, guitar, bass, and drum tabs
                                    from Ultimate-Guitar.com database.

                                    Type "ultimate guitar tabs" in Apple
                                    App Store's or Android Market's
                                    search to find the application.
                                   PEACE SELLS
                             As recorded by Megadeth
             (From the 1986 Album PEACE SELLS... BUT WHO'S BUYING?)

Words by Dave. Mustaine

Music by Dave Mustaine

Gtr I (E A D G B E) - 'Untitled'
Gtr II (E A D G B E) - 'Untitled'
Gtr III (E A D G B E) - 'Untitled'

 Intro
  Fast Rock Q=142
 4/4
  Gtr I        Gtrs I, II
  Wx3          H    Q  E S S   Q   e E H
|------------|---------------|--------------|
|------------|---------------|--------------|
|------------|---------------|-9\-----------|
|------------|---------------|-9\-----------|
|------------|-----------5-6-|-7\--2--------|
|------------|---------------|-----0--------|
|
| Gtr II
| Wx3          W               W
|------------|---------------|--------------|
|------------|---------------|--------------|
|------------|---------------|--------------|
|------------|---------------|--------------|
|------------|---------------|--------------|
|------------|---------------|--------------|


  Gtr I
   Q      +S  E  S       +E   +S  S  E.    S
|-17b18r=(17)---17pb18==(17)r(17)---17pb18---|
|--------------------------------------------|
|--------------------------------------------|
|--------------------------------------------|
|--------------------------------------------|
|--------------------------------------------|
|
| Gtr II
|  W
|--------------------------------------------|
|--------------------------------------------|
|--------------------------------------------|
|--7-----------------------------------------|
|--5-----------------------------------------|
|--------------------------------------------|


   |--3--|     |--3--|        |--3--|       |-3--|
   S  S  S  e  S  S  S  S  S  S  S  S  S  S S  S S  S S
|-12h16p12----11h15p11----11-10h14p10----10-9h13p9----9-|
|----------15----------15-------------14-----------13---|
|-------------------------------------------------------|
|-------------------------------------------------------|
|-------------------------------------------------------|
|-------------------------------------------------------|
|
|  PM----------------------------------------------------
|  E        E  E        E     E        E    E       E
|-------------------------------------------------------|
|-------------------------------------------------------|
|-------------------------------------------------------|
|--7--------7--7--------7-----7--------7----7-------7---|
|--5--------5--5--------5-----5--------5----5-------5---|
|-------------------------------------------------------|


  |-3--|      |-3--|      |-3--|      |-3-|
  S  S S  S S S  S S  S S S  S S  S S S S S S S
|-8h12p8----8-7h11p7----7-6h10p6----6-5h9p5---5--||
|--------12----------11----------10---------9----||
|------------------------------------------------||
|------------------------------------------------||
|------------------------------------------------||
|------------------------------------------------||
|
|--------------------------------|
| E       E   E       E   E       E   E     E
|------------------------------------------------||
|------------------------------------------------||
|------------------------------------------------||
|-7-------7---7-------7---7-------7---8-----7----||
|-5-------5---5-------5---5-------5---8-----7----||
|-------------------------------------6-----5----||


 1st Verse
  Gtr I
  \1/       \1/
                        ~~~~~~~~~~~~~~~~~~~~~~
  H         H           W                 +H.           Q     W
|-0---------0---------|-0---------------|-(0)---------------|-----------------|
|---------------------|-----------------|-------------------|-----------------|
|---------------------|-----------------|-------------------|-----------------|
|---------------------|-----------------|-------------------|-----------------|
|---------------------|-----------------|-------------------|-----------------|
|---------------------|-----------------|-------------------|-----------------|
|
| Gtr II
| PM--------------|     PM----------|      PM-----------|     PM--------|
| E   E E E E   E E E   E E E E E E E E    E  E E E E E E E   E E E E E E E E
|---------------------|-----------------|-------------------|-----------------|
|---------------------|-----------------|-------------------|-----------------|
|---------------------|-----------------|-------------------|-----------------|
|-------------------6-|---------------5-|-----------------6-|-------------8-7-|
|-7---7-7-7-7---7-7-6-|-7-7-7-7-7-7-7-5-|--7--7-7-7-7-7-7-6-|-7-7-7-7-7-7-8-7-|
|-0---0-0-0-0---0-0-4-|-0-0-0-0-0-0-0-3-|--0--0-0-0-0-0-0-4-|-0-0-0-0-0-0-6-5-|


    Gtr II
    PM----------|     PM----------|     PM----------|     PM--------|
    E E E E E E E E   E E E E E E E E   E E E E E E E E   E E E E E E E E   3x
||------------------|-----------------|-----------------|-------------------||
||o-----------------|-----------------|-----------------|------------------o||
||------------------|-----------------|-----------------|-------------------||
||----------------6-|---------------5-|---------------6-|-------------8-7---||
||o-7-7-7-7-7-7-7-6-|-7-7-7-7-7-7-7-5-|-7-7-7-7-7-7-7-6-|-7-7-7-7-7-7-8-7--o||
||--0-0-0-0-0-0-0-4-|-0-0-0-0-0-0-0-3-|-0-0-0-0-0-0-0-4-|-0-0-0-0-0-0-6-5---||


 Chorus
  E E E E E E E E   Q  Q  H      E E E E E E E E
|-----------------|------------|-----------------|
|-----------------|------------|-----------------|
|-----------7-----|------------|-----------7-----|
|-9-9-7-9---5---7-|-9----------|-9-9-7-9---5-----|
|-7-7-5-7-------5-|-7----------|-7-7-5-7-------4-|
|-----------------|------------|---------------2-|


                                        PM--|
  Q  Q  H      E E E E E E E E   Q.   E E E E E
|------------|-----------------|-----------------|
|------------|-----------------|-----------------|
|------------|-----------------|-----------------|
|-5----------|-----------7-----|-5------------5--|
|-5----------|-5-5-4-5---5---4-|-5------5-4-3-3--|
|-3----------|-3-3-2-3-------2-|-3------3-2-1----|


  Gtr I
  E e  Q       +H
|------------------------|
|------------------------|
|---x-12b14---(12)-------|
|------------------------|
|------------------------|
|------------------------|
|
| Gtr II
| PM-----------------|
| E E  E    E   E  E E E
|------------------------|
|------------------------|
|------------------------|
|----------------------6-|
|-7-7--7----7---7--7-7-6-|
|-0-0--0----0---0--0-0-4-|


   |------6-------|  |--3--|        |--3--|
   S  S  S  S  S  S  S  S  S  S  S  S  S  S  S  S  S  S  e
|----------------------------------------------------------|
|----------------------------12h13p12-------------------10-|
|-12-13-12-13-12----12h13h14----------14p13-12p10-12-13----|
|----------------14----------------------------------------|
|----------------------------------------------------------|
|----------------------------------------------------------|
|
|  PM---------------------------------------------|
|  E        E        E        E     E        E     E     E
|----------------------------------------------------------|
|----------------------------------------------------------|
|----------------------------------------------------------|
|--------------------------------------------------------5-|
|--7--------7--------7--------7-----7--------7-----7-----5-|
|--0--------0--------0--------0-----0--------0-----0-----3-|


                                       ~~~~~~~
                     |--3--|
   S  S  S  S  S  S  S  S  S  S  S  S  S  +E  S  a  S
|-----------------------------------------------------|
|-----------------------------------------------12s15-|
|-12h14-12p10-----------------------------------------|
|-------------14p12p10--------------------------------|
|----------------------14p12p10-----------------------|
|-------------------------------14p12p10-(10)---------|
|
|  PM------------------------------------|
|  E     E     E     E        E     E      E  E
|-----------------------------------------------------|
|-----------------------------------------------------|
|-----------------------------------------------------|
|---------------------------------------------6-------|
|--7-----7-----7-----7--------7-----7------7--6-------|
|--0-----0-----0-----0--------0-----0------0--4-------|


   +Q     S  S  S  S  Q.      +E
|--------12------------------------||
|-(15)------15p12------------------||
|-----------------14p12------(12)\-||
|----------------------------------||
|----------------------------------||
|----------------------------------||
|
|   PM-------------------|
|   E  E  E     E     E  E E   E
|----------------------------------||
|----------------------------------||
|----------------------------------||
|--------------------------8---7---||
|---7--7--7-----7-----7--7-8---7---||
|---0--0--0-----0-----0--0-6---5---||


 2nd Verse
  Gtr I
                                                                 \1.5_________
  W                 W                 W                 E E E E +H
|-----------------|-----------------|-----------------|----------------------|
|-----------------|-----------------|-----------------|----------------------|
|-----------------|-----------------|-----------------|----------------------|
|-----------------|-----------------|-----------------|----------------------|
|-----------------|-----------------|-----------------|---4h5-0-(0)----------|
|-----------------|-----------------|-----------------|----------------------|
|
| Gtr II
| PM----------|     PM----------|     PM----------|     PM-------------|
| E E E E E E E E   E E E E E E E E   E E E E E E E E   E E E E  E     E E E
|-----------------|-----------------|-----------------|----------------------|
|-----------------|-----------------|-----------------|----------------------|
|-----------------|-----------------|-----------------|----------------------|
|---------------6-|---------------5-|---------------6-|------------------8-7-|
|-7-7-7-7-7-7-7-6-|-7-7-7-7-7-7-7-5-|-7-7-7-7-7-7-7-6-|-7-7-7-7--7-----7-8-7-|
|-0-0-0-0-0-0-0-4-|-0-0-0-0-0-0-0-3-|-0-0-0-0-0-0-0-4-|-0-0-0-0--0-----0-6-5-|


   \2.5_____|
  +Q       +E  E H         W
|------------------------|-----------------|
|------------------------|-----------------|
|------------------------|-----------------|
|------------------------|-----------------|
|-(0)------(0)-----------|-----------------|
|------------------------|-----------------|
|
|  PM----------------|     PM----------|
|  E     E  E  E E E E E   E E E E E E E E
|------------------------|-----------------|
|------------------------|-----------------|
|------------------------|-----------------|
|----------------------6-|---------------5-|
|--7-----7--7--7-7-7-7-6-|-7-7-7-7-7-7-7-5-|
|--0-----0--0--0-0-0-0-4-|-0-0-0-0-0-0-0-3-|


                              T              T
  W                  Q        Q     Q        Q
|-----------------|-12b14---(12)---12b14---(12)s==|
|-----------------|----------22-------------22----|
|-----------------|-------------------------------|
|-----------------|-------------------------------|
|-----------------|-------------------------------|
|-----------------|-------------------------------|
|
| PM----------|      PM------------------|
| E E E E E E E E    E    E   E  E  E    E   E  E
|-----------------|-------------------------------|
|-----------------|-------------------------------|
|-----------------|-------------------------------|
|---------------6-|--------------------------8--7-|
|-7-7-7-7-7-7-7-6-|--7----7---7--7--7----7---8--7-|
|-0-0-0-0-0-0-0-4-|--0----0---0--0--0----0---6--5-|


   ~~~
   Q.     E H         W
|-17----------------|-----------------|
|-------------------|-----------------|
|-------------------|-----------------|
|-------------------|-----------------|
|-------------------|-----------------|
|-------------------|-----------------|
|
|  PM-----------|     PM----------|
|  E  E E E E E E E   E E E E E E E E
|-------------------|-----------------|
|-------------------|-----------------|
|-------------------|-----------------|
|-----------------6-|---------------5-|
|--7--7-7-7-7-7-7-6-|-7-7-7-7-7-7-7-5-|
|--0--0-0-0-0-0-0-4-|-0-0-0-0-0-0-0-3-|


                                       ~~~
  W                 Q   E  S  S  E.    E.    E
|-----------------|----------------------------|
|-----------------|-------12-16-------------12-|
|-----------------|-------------------13-------|
|-----------------|-------------14-------------|
|-----------------|----------------------------|
|-----------------|----------------------------|
|
| PM----------|     PM--------------|
| E E E E E E E E   E E E  E     E  E     E  E
|-----------------|----------------------------|
|-----------------|----------------------------|
|-----------------|----------------------------|
|---------------6-|-----------------------8--7-|
|-7-7-7-7-7-7-7-6-|-7-7-7--7-----7--7-----8--7-|
|-0-0-0-0-0-0-0-4-|-0-0-0--0-----0--0-----6--5-|


                ~~~~
   H           +H           +Q     Q   H
|------------------------|---------------------|
|-14b15-------(14)-------|-(14)\---------------|
|------------------------|---------------------|
|------------------------|---------------------|
|------------------------|---------------------|
|------------------------|---------------------|
|
|  PM----------------|       PM------------|
|  E    E E E   E  E E E     E   E E E E E E E
|------------------------|---------------------|
|------------------------|---------------------|
|------------------------|---------------------|
|----------------------6-|-------------------5-|
|--7----7-7-7---7--7-7-6-|---7---7-7-7-7-7-7-5-|
|--0----0-0-0---0--0-0-4-|---0---0-0-0-0-0-0-3-|


  H       Q   E  E       +Q     S  S  E  S  S  S  S  E  E
|---------------------|------------------------------------||
|---------------15----|-(15)-------------------------------||
|---------------14b16-|-(14)---14p12-14-13-----------------||
|---------------------|--------------------14p12-----------||
|---------------------|--------------------------14-13-12--||
|---------------------|------------------------------------||
|
| PM----------|           PM------------------|
| E E E E E E E  E        E  E  E     E  E     E     E  E
|---------------------|------------------------------------||
|---------------------|------------------------------------||
|---------------------|------------------------------------||
|----------------6----|------------------------------8--7--||
|-7-7-7-7-7-7-7--6----|---7--7--7-----7--7-----7-----8--7--||
|-0-0-0-0-0-0-0--4----|---0--0--0-----0--0-----0-----6--5--||


 Chorus
  Gtr II
  E E E E E E E E   Q  Q  H      E E E E E E E E
|-----------------|------------|-----------------|
|-----------------|------------|-----------------|
|-----------7-----|------------|-----------7-----|
|-9-9-7-9---5---7-|-9----------|-9-9-7-9---5-----|
|-7-7-5-7-------5-|-7----------|-7-7-5-7-------4-|
|-----------------|------------|---------------2-|


                                        PM--|
  Q  Q  H      E E E E E E E E   Q.   E E E E E
|------------|-----------------|-----------------||
|------------|-----------------|-----------------||
|------------|-----------------|-----------------||
|-5----------|-----------7-----|-5------------5--||
|-5----------|-5-5-4-5---5---4-|-5------5-4-3-3--||
|-3----------|-3-3-2-3-------2-|-3------3-2-1----||


 Interlude
  PM|       PM|         PM|       PM|
  E E S S E E E S S E   E E S S E E E S S E
|---------------------|---------------------|
|---------------------|---------------------|
|---------------------|---------------------|
|-----5p4-5-----4p2-4-|-----2p0-2-----------|
|---------------------|---------------5p4-5-|
|-0-0-------0-0-------|-0-0-------0-0-------|


  PM|       PM|         PM|       PM|
  E E S S E E E S S E   E E S S E E E S S E
|---------------------|----------------------|
|---------------------|----------------------|
|---------------------|----------------------|
|---------------------|----------------------|
|-----4p2-4-----2p0-2-|----------------------|
|-0-0-------0-0-------|-0-0-5p3-5-0-0-3p2-3--|


  Gtr II
  PM|       PM|         PM|       PM|
  E E S S E E E S S E   E E S S E E E S S E
|---------------------|---------------------|
|---------------------|---------------------|
|---------------------|---------------------|
|-----9p7-9-----7p5-7-|-----5p4-5-----4p2-4-|
|---------------------|---------------------|
|-0-0-------0-0-------|-0-0-------0-0-------|
|
| Gtr III
| PM|       PM|         PM|       PM|
| E E S S E E E S S E   E E S S E E E S S E
|---------------------|---------------------|
|---------------------|---------------------|
|---------------------|---------------------|
|-----5p4-5-----4p2-4-|-----2p0-2-----------|
|---------------------|---------------5p4-5-|
|-0-0-------0-0-------|-0-0-------0-0-------|


  PM|       PM|         PM|       PM|
  E E S S E E E S S E   E E S S E E E S S E
|---------------------|----------------------|
|---------------------|----------------------|
|---------------------|----------------------|
|-----2p0-2-----------|----------------------|
|---------------5p4-5-|-----4p2-4-----2p0-2--|
|-0-0-------0-0-------|-0-0-------0-0--------|
|
| PM|       PM|         PM|       PM|
| E E S S E E E S S E   E E S S E E E S S E
|---------------------|----------------------|
|---------------------|----------------------|
|---------------------|----------------------|
|---------------------|----------------------|
|-----4p2-4-----2p0-2-|---------------5S4-5--|
|-0-0-------0-0-------|-0-0-5p3-5-0-0-3S2-3--|


  Gtr I
                                                                ~~~~~~~~~~
                    |-----3------|  |---3---|
  E  S  S  E  S  S  E     +E     E  E  E    E    S  S  S  S  S  E.    +E   S  S  +S   S  E
|---------------------------------------------|-----------------------------------------------|
|---11s12-15----12----------------------------|-------12--------------------------------------|
|------------15----14b16-(14)---12----14------|-12h14----12-12--------------------------------|
|----------------------------------14------14-|----------------14----(14)-12------------------|
|---------------------------------------------|------------------------------14-(14)-12-10b11-|
|---------------------------------------------|-----------------------------------------------|
|
|   Gtr II
| E  E     E  E     E         E     E    E       E     E     E     E   E   E      E      E
|---------------------------------------------|-----------------------------------------------|
|---------------------------------------------|-----------------------------------------------|
|---------------------------------------------|-----------------------------------------------|
|-4--------------------------------------5----|--------------------4---------------------4----|
|-4--------------------------------------5----|--------------------4---------------------4----|
|-2--2-----2--2-----2---------2-----2----3----|--3-----3-----3-----2---2---2------2------2----|
|
| Gtr III
| W                                              W
|---------------------------------------------|-----------------------------------------------|
|---------------------------------------------|-----------------------------------------------|
|---------------------------------------------|-----------------------------------------------|
|---------------------------------------------|-----------------------------------------------|
|---------------------------------------------|-----------------------------------------------|
|---------------------------------------------|-----------------------------------------------|


   +Q    Q     H           W
|------------------------|---------------------|
|------------------------|---------------------|
|------------------------|---------------------|
|------------------------|---------------------|
|-(10)-------------------|---------------------|
|------------------------|---------------------|
|
|   PM-|       PM|         PM|       PM|
|   E  E S S E E E S S E   E E S S E E E S S E
|------------------------|---------------------|
|------------------------|---------------------|
|------------------------|---------------------|
|--------5p4-5-----4p2-4-|-----2p0-2-----------|
|------------------------|---------------------|
|---0--0-------0-0-------|-0-0-------0-3-3p2-3-|
|
|   PM-|       PM|         PM|       PM|
|   E  E S S E E E S S E   E E S S E E E S S E
|------------------------|---------------------|
|------------------------|---------------------|
|------------------------|---------------------|
|--------9p7-9-----7p5-7-|-----5p4-5-----------|
|------------------------|-------------5-5p4-5-|
|---0--0-------0-0-------|-0-0-------0---------|


  W                       W
|-----------------------|---------------------------------|
|-----------------------|---------------------------------|
|-----------------------|---------------------------------|
|-----------------------|---------------------------------|
|-----------------------|---------------------------------|
|-----------------------|---------------------------------|
|
| E E E E E   E   E   E   E   E   E   E   E   E   E   E
|-----------------------|---------------------------------|
|-----------------------|---------------------------------|
|-----------------------|---------------------------------|
|-4-------------------5-|-------------4---------------4---|
|-4-------------------5-|-------------4---------------4---|
|-2-2-2-2-2---2---2---3-|-3---3---3---2---2---2---2---2---|
|
| E E E E S S S S S S E   S S S S S S S S S S S S S S S S
|-----------------------|---------------------------------|
|-----------------------|---------------------------------|
|-----------------------|-----------------5p4-2h4-4p2-----|
|---------------------2-|-4p2-------------------------4p2-|
|---------2p0-0-0-3-4---|-----4p3p2-3p2p0-----------------|
|---2-2-2---------------|---------------------------------|


                                                    |3-|
  W                             H          Q   E    E  S
|----------------------------|-----------------------------|
|----------------------------|---------------------19-20---|
|----------------------------|-----------------------------|
|----------------------------|-----------------------------|
|----------------------------|-----------------------------|
|----------------------------|-----------------------------|
|
| PM---|          PM-|          PM-|       PM|
| E    E  S  S E  E  E S S E    E  E S S E E E S S  E
|----------------------------|-----------------------------|
|----------------------------|-----------------------------|
|----------------------------|-----------------------------|
|---------5p=4-5-------4p2-4-|-------2p0-2-----------------|
|----------------------------|---------------5-5s4--5------|
|-0----0----------0--0-------|--0--0-------0-3-3s2--3------|
|
| S E.   +Q      +H            +W
|----------------------------|-----------------------------|
|----------------------------|-----------------------------|
|----------------------------|-----------------------------|
|-4-2----(2)-----(2)---------|-(2)-------------------------|
|----------------------------|-----------------------------|
|----------------------------|-----------------------------|


                                               |-------3--------|
   +S   S S  S  S  S S  S E  e  E     E        Q        Q       Q        E.     S  E  e
|------19---------19------------------------|----------------------------------------15-|
|-(20)------19-20------20---20-20b21-20pb21-|-20pb22---20b23---20pb23---20b24-----17----|
|-------------------------------------------|-------------------------------------------|
|-------------------------------------------|-------------------------------------------|
|-------------------------------------------|-------------------------------------------|
|-------------------------------------------|-------------------------------------------|
|
|   E     E     E    E    E  E  E     E        E     E       E        E  E    E    E  E
|-------------------------------------------|-------------------------------------------|
|-------------------------------------------|-------------------------------------------|
|-------------------------------------------|-------------------------------------------|
|---4---------------------------------5-----|-------------------------4---------------4-|
|---4---------------------------------5-----|-------------------------4---------------4-|
|---2-----2-----2----2----2--2--2-----3-----|--3-----3-------3--------2--2----2----2--2-|
|
|  +W                                         +W
|-------------------------------------------|-------------------------------------------|
|-------------------------------------------|-------------------------------------------|
|-------------------------------------------|-------------------------------------------|
|--(2)--------------------------------------|-(2)---------------------------------------|
|-------------------------------------------|-------------------------------------------|
|-------------------------------------------|-------------------------------------------|


                          |----3----|
   Q     Q         +Q     E    E    E    Q.       E H
|-------------------------------------|-----------------------------|
|-17----15b17-----(15)---15p==12------|-----------------------------|
|----------------------------------14-|-12--------------------------|
|-------------------------------------|-----------------------------|
|-------------------------------------|-----------------------------|
|-------------------------------------|-----------------------------|
|
|  PM-|             PM-|                 PM-|       PM|
|  E  E  S    S E   E  E  S S    E       E  E S S E E E S    S  E
|-------------------------------------|-----------------------------|
|-------------------------------------|-----------------------------|
|-------------------------------------|-----------------------------|
|--------5p===4-5---------4p2----4----|-------2p0-2-----------------|
|-------------------------------------|---------------5-5s===4--5---|
|--0--0-------------0--0--------------|--0--0-------0-3-3s===2--3---|
|
| +W                                    +H.             S   +S  E
|-------------------------------------|-----------------------------|
|-------------------------------------|-----------------------------|
|-------------------------------------|-----------------------------|
|-(2)---------------------------------|-(2)-------------2b4-(2)-----|
|-------------------------------------|-----------------------------|
|-------------------------------------|-----------------------------|


  Gtr I
   |--3--|        |------6-------|        |--3--|  |--3--|
   S  S  S  S  S  S  S  S  S  S  S  S  S  S  S  S  S  S  S  S  S
|-14h17p14----14h19p14-14-14h17p14----14h19p14----14h17p14----14h|
|----------17----------------------17----------17----------18----|
|----------------------------------------------------------------|
|----------------------------------------------------------------|
|----------------------------------------------------------------|
|----------------------------------------------------------------|
|
| Gtr II
|  E        E     E        E        E     E        E        E
|----------------------------------------------------------------|
|----------------------------------------------------------------|
|----------------------------------------------------------------|
|--4--------------------------------------------------------5----|
|--4--------------------------------------------------------5----|
|--2--------2-----2--------2--------2-----2--------2--------3----|


   |------6-------|  |--3--|        |--3--|        |------6-------|
   S  S  S  S  S  S  S  S  S  S  S  S  S  S  S  S  S  S  S  S  S  S
|-19p14----14h17p14----14h19p14----14h17p14----------------14-------||
|-------17----------17----------17----------17----14h17p14----17p14-||
|----------------------------------------------17-------------------||
|-------------------------------------------------------------------||
|-------------------------------------------------------------------||
|-------------------------------------------------------------------||
|
|  E        E        E        E     E        E     E        E
|-------------------------------------------------------------------||
|-------------------------------------------------------------------||
|-------------------------------------------------------------------||
|-----------------------------4--------------------7--------8-------||
|-----------------------------4--------------------5--------6-------||
|--3--------3--------3--------2-----2--------2----------------------||


 Bridge
  A Little Faster Q=164
   W           +H     H        W
|-----------|--------------||-------------------|
|-17--------|-(17)---------||-------------------|
|-16--------|-(16)---------||-------------------|
|-----------|--------------||-------------------|
|-----------|--------------||-------------------|
|-----------|--------------||-------------------|
|
|  W           +W              E. S E E E E E E
|-----------|--------------||-------------------|
|-----------|--------------||-------------------|
|-----------|--------------||-------------------|
|--9--------|--(9)---------||---------5---------|
|--7--------|--(7)---------||--7--5-7-----7-5-0-|
|-----------|--------------||-----------0-------|
|
| Gtr III
|  W           +W             +W
|-----------|--------------||-------------------|
|-----------|--------------||-------------------|
|-----------|--------------||-------------------|
|-----------|--------------||-------------------|
|--2--------|--(2)---------||-(2)---------------|
|--0--------|--(0)---------||-(0)---------------|


  W                  W                  W
|------------------|------------------|-------------------|
|------------------|------------------|-------------------|
|------------------|------------------|-------------------|
|------------------|------------------|-------------------|
|------------------|------------------|-------------------|
|------------------|------------------|-------------------|
|
| E. S E E E E E E   E. S E E E E E E   E. S E E E E E E
|------------------|------------------|-------------------|
|------------------|------------------|-------------------|
|------------------|------------------|-------------------|
|--------5---------|--------5---------|--------5----------|
|-7--5-7-----7-5-0-|-7--5-7-----7-5-0-|-7--5-7-----7-5-0--|
|----------0-------|----------0-------|----------0--------|
|
| W                  W                  H        Q   E E
|------------------|------------------|-------------------|
|------------------|------------------|-------------------|
|------------------|------------------|-------------------|
|------------------|------------------|-------------------|
|------------------|------------------|----------------2--|
|------------------|------------------|----------------0--|


  Gtr II
  E.  S E E E E E E   E.  S E E E E E E
|-------------------|-------------------|
|-------------------|-------------------|
|-------------------|-------------------|
|---------5---------|---------5---------|
|-7---5-7-----7-5-0-|-7---5-7-----7-5-0-|
|-----------0-------|-----------0-------|
|
| Gtr III
| H..             E   H..             E
|-------------------|-------------------|
|-------------------|-------------------|
|-------------------|-------------------|
|-2-----------------|-5-----------------|
|-2-----------------|-5-----------------|
|-0-----------------|-3---------------2-|


  E.  S E E E E E E     E.  S E E E E E E
|---------------------|---------------------|
|---------------------|---------------------|
|---------------------|---------------------|
|---------5-----------|---------5-----------|
|-7---5-7-----7-5-0---|-7---5-7-----7-5-0---|
|-----------0---------|-----------0---------|
|
|                 PM|                   PM|
| H..             S S   H..             S S
|---------------------|---------------------|
|---------------------|---------------------|
|---------------------|-4-------------------|
|-4-------------------|-4-------------------|
|-4---------------2-2-|-2---------------7-7-|
|-2-------------------|---------------------|


  Gtr II
  E. S E E E E E E     E.  S E E E E E E
|--------------------|-------------------|
|--------------------|-------------------|
|--------------------|-------------------|
|--------5-----------|---------5---------|
|-7--5-7-----7-5-0---|-7---5-7-----7-5-0-|
|----------0---------|-----------0-------|
|
| Gtr III
|                PM|                   PM
| H.           E S S   H..             E
|--------------------|-------------------|
|--------------------|-------------------|
|--------------------|-------------------|
|-9------------------|-5-----------------|
|-7------------------|-5-----------------|
|----------------3-3-|-3---------------3-|


  E.  S E E E E E E    E. S E E E E E E
|-------------------|--------------------|
|-------------------|--------------------|
|-------------------|--------------------|
|---------5---------|---------5----------|
|-7---5-7-----7-5-0-|--7--5-7-----7-5-0--|
|-----------0-------|-----------0--------|
|
| H..             E   +W
|-------------------|--------------------|
|-------------------|--------------------|
|-----------------4-|-(4)----------------|
|-4---------------4-|-(4)----------------|
|-4---------------2-|-(2)----------------|
|-2-----------------|--------------------|


   Chorus 2
    E. S E E E E E E   E. S E E E E E E
||-------------------|------------------|
||o------------------|------------------|
||-------------------|------------------|
||---------5---------|--------5---------|
||o-7--5-7-----7-5-6-|-7--5-7-----7-5-6-|
||-----------0-------|----------0-------|
|
|   E. S E E E E E E   E. S E E E E E E
||-------------------|------------------|
||o------------------|------------------|
||-------------------|------------------|
||---------5---------|--------5---------|
||o-7--5-7-----7-5---|-7--5-7-----7-5---|
||-----------0-----6-|----------0-----6-|


  E. S E E E E E E   E. S E E E E E E
|------------------|--------------------||
|------------------|-------------------o||
|------------------|--------------------||
|--------5---------|--------5-----------||
|-7--5-7-----7-5-6-|-7--5-7-----7-5-6--o||
|----------0-------|----------0---------||
|
| E. S E E E E E E   E. S E E E E E E
|------------------|--------------------||
|------------------|-------------------o||
|------------------|--------------------||
|--------5---------|--------5-----------||
|-7--5-7-----7-5---|-7--5-7-----7-5----o||
|----------0-----6-|----------0-----6---||


  E. S E E E E E E   E. S E E E E E E   E. S E E E E E E   E. S E E E E E E
|------------------|------------------|------------------|------------------|
|------------------|------------------|------------------|------------------|
|------------------|------------------|------------------|------------------|
|--------5---------|--------5---------|--------5---------|--------5---------|
|-7--5-7-----7-5-6-|-7--5-7-----7-5-6-|-7--5-7-----7-5-6-|-7--5-7-----7-5-6-|
|----------0-------|----------0-------|----------0-------|----------0-------|
|
| E. S E E E E E E   E. S E E E E E E   E. S E E E E E E   E. S E E E E E E
|------------------|------------------|------------------|------------------|
|------------------|------------------|------------------|------------------|
|--------7---------|--------7---------|--------7---------|--------7---------|
|-9--7-9-----9-7-8-|-9--7-9-----9-7-8-|-9--7-9-----9-7-8-|-9--7-9-----9-7-8-|
|------------------|------------------|------------------|------------------|
|------------------|------------------|------------------|------------------|


  E. S E E E E E E   E. S E E E E E E   E. S E E E E E E   E. S E E E E E E
|------------------|------------------|------------------|------------------||
|------------------|------------------|------------------|------------------||
|------------------|------------------|------------------|------------------||
|--------5---------|--------5---------|--------5---------|--------5---------||
|-7--5-7-----7-5-6-|-7--5-7-----7-5-6-|-7--5-7-----7-5-6-|-7--5-7-----7-5-6-||
|----------0-------|----------0-------|----------0-------|----------0-------||
|
| E. S E E E E E E   E. S E E E E E E   E. S E E E E E E   E. S E E H
|------------------|------------------|------------------|------------------||
|------------------|------------------|------------------|------------------||
|--------7---------|--------7---------|--------7---------|--------7---------||
|-9--7-9-----9-7-8-|-9--7-9-----9-7-8-|-9--7-9-----9-7-8-|-9--7-9-----------||
|------------------|------------------|------------------|------------------||
|------------------|------------------|------------------|------------------||


 Guitar Solo
  Gtr I
                       ~~~~             ~~~~           ~~~~
  H           Q       +Q       Q       +Q     Q       +Q
|---------------------------|-------------------------------|
|-8b10-------10b12---(10)---|-12b15---(12)---15b17---(15)---|
|---------------------------|-------------------------------|
|---------------------------|-------------------------------|
|---------------------------|-------------------------------|
|---------------------------|-------------------------------|
|
| Gtr II
| E.   S E E  E    E   E  E    E.   S   E  E  E    E   E  E
|---------------------------|-------------------------------|
|---------------------------|-------------------------------|
|---------------------------|-------------------------------|
|----------5----------------|--------------5----------------|
|-7----5-7---------7---5--6-|--7----5---7----------7---5--6-|
|-------------0-------------|-----------------0-------------|
|
| Gtr III
| E.   S E E  E    E   E  E    E.   S   E  E  E    E   E  E
|---------------------------|-------------------------------|
|---------------------------|-------------------------------|
|----------7----------------|--------------7----------------|
|-9----7-9---------9---7--8-|--9----7---9----------9---7--8-|
|---------------------------|-------------------------------|
|---------------------------|-------------------------------|


                                                                                   ~~
   S   S  S  S  S  S  S  S  S  S  S      +S   E  E       +Q     E.      S     +E   Q    E
|-12--------------12----------------------------15b17-|-(15)---15b17---15b17-(15)-15---15---|
|-----15p12----12----15p12----12----------------------|-------------------------------------|
|-----------14-------------14----14pb16r(14)-12-------|-------------------------------------|
|-----------------------------------------------------|-------------------------------------|
|-----------------------------------------------------|-------------------------------------|
|-----------------------------------------------------|-------------------------------------|
|
|  E.        S  E     E     E     E           E  E        E. S  E    E         E   E E  E
|-----------------------------------------------------|-------------------------------------|
|-----------------------------------------------------|-------------------------------------|
|-----------------------------------------------------|-------------------------------------|
|---------------------5-------------------------------|--------------5----------------------|
|--7---------5--7-----------------7-----------5--6----|---7--5--7------------------7-5--6---|
|---------------------------0-------------------------|------------------------0------------|
|
|  E.        S  E     E     E     E           E  E        E. S  E    E         E   E E  E
|-----------------------------------------------------|-------------------------------------|
|-----------------------------------------------------|-------------------------------------|
|---------------------7-------------------------------|--------------7----------------------|
|--9---------7--9-----------------9-----------7--8----|---9--7--9------------------9-7--8---|
|-----------------------------------------------------|-------------------------------------|
|-----------------------------------------------------|-------------------------------------|


                            |------5------|  |------5------|
   S   S  S  S  S  S  S  S  S  S  S    S  S  S  S  S    S  S
|-12-----12h13p12----------12h13p12------------12h13p==12----|
|-----15----------15p12h15------------15p12h15------------15-|
|------------------------------------------------------------|
|------------------------------------------------------------|
|------------------------------------------------------------|
|------------------------------------------------------------|
|
|  E.        S  E     E     E       E        E       E
|------------------------------------------------------------|
|------------------------------------------------------------|
|------------------------------------------------------------|
|---------------------5--------------------------------------|
|--7---------5--7-------------------7--------5-------6-------|
|---------------------------0--------------------------------|
|
|  E.        S  E     E     E       E        E       E
|------------------------------------------------------------|
|------------------------------------------------------------|
|---------------------7--------------------------------------|
|--9---------7--9-------------------9--------7-------8-------|
|------------------------------------------------------------|
|------------------------------------------------------------|


                                                    ~~~~           ~~~~
   S  S  S  S  S  S  S  S  S  E.      +E   E       +Q.      E     +Q.      E
|-------------------------12-15b17---(15)-17b19-|-(17)-----19b22-(19)-----22b24--|
|-13p12----------12h13s15-----------------------|--------------------------------|
|-------14p12h14--------------------------------|--------------------------------|
|-----------------------------------------------|--------------------------------|
|-----------------------------------------------|--------------------------------|
|-----------------------------------------------|--------------------------------|
|
|  E.       S  E     E     E       E   E   E        E. S E  E      E  E E  E
|-----------------------------------------------|--------------------------------|
|-----------------------------------------------|--------------------------------|
|-----------------------------------------------|--------------------------------|
|--------------------5--------------------------|-----------5--------------------|
|--7--------5--7-------------------7---5---6----|---7--5-7------------7-5--6-----|
|--------------------------0--------------------|------------------0-------------|
|
|  E.       S  E     E     E       E   E   E        E. S E  E      E  E E  E
|-----------------------------------------------|--------------------------------|
|-----------------------------------------------|--------------------------------|
|--------------------7--------------------------|-----------7--------------------|
|--9--------7--9-------------------9---7---8----|---9--7-9------------9-7--8-----|
|-----------------------------------------------|--------------------------------|
|-----------------------------------------------|--------------------------------|


                                                                      ~~~~~~~~~~~~~~~~~~
   +Q     S  S  S  S  E     +S   S     +E   E    +E   S     +S   +S   E.    +Q     +E   E
|-(22)---22p19----19--------------------------|-------------------------------------------|
|--------------20----20b22-(20)-20b22-(20)-20-|-(20)-20b22-(20)-(20)-20----(20)---(20)\---|
|---------------------------------------------|-------------------------------------------|
|---------------------------------------------|-------------------------------------------|
|---------------------------------------------|-------------------------------------------|
|---------------------------------------------|-------------------------------------------|
|
|   E. S  E     E     E      E          E   E     E.         S    E      E   E  E   E   E
|---------------------------------------------|-------------------------------------------|
|---------------------------------------------|-------------------------------------------|
|---------------------------------------------|-------------------------------------------|
|---------------5-----------------------------|--------------------------5----------------|
|---7--5--7------------------7----------5---6-|---7----------5----7-------------7---5---6-|
|---------------------0-----------------------|------------------------------0------------|
|
|   E. S  E     E     E      E          E   E     E.         S    E      E   E  E   E   E
|---------------------------------------------|-------------------------------------------|
|---------------------------------------------|-------------------------------------------|
|---------------7-----------------------------|--------------------------7----------------|
|---9--7--9------------------9----------7---8-|---9----------7----9-------------9---7---8-|
|---------------------------------------------|-------------------------------------------|
|---------------------------------------------|-------------------------------------------|


  W                  W                  W
|------------------|------------------|-------------------|
|------------------|------------------|-------------------|
|------------------|------------------|-------------------|
|------------------|------------------|-------------------|
|------------------|------------------|-------------------|
|------------------|------------------|-------------------|
|
| E. S E E E E E E   E. S E E E E E E   E. S E E E E E E
|------------------|------------------|-------------------|
|------------------|------------------|-------------------|
|------------------|------------------|-------------------|
|--------5---------|--------5---------|--------5----------|
|-7--5-7-----7-5-6-|-7--5-7-----7-5-6-|-7--5-7-----7-5-6--|
|----------0-------|----------0-------|----------0--------|
|
| E. S E E E E E E   E. S E E E E E E   E. S E E E E E E
|------------------|------------------|-------------------|
|------------------|------------------|-------------------|
|--------7---------|--------7---------|--------7----------|
|-9--7-9-----9-7-8-|-9--7-9-----9-7-8-|-9--7-9-----9-7-8--|
|------------------|------------------|-------------------|
|------------------|------------------|-------------------|


   Out-Chorus
                                          1.,2.
    Gtr II
    E. S E E E E E E   E. S E E E E E E   E. S E E E E E E
||-------------------|------------------|------------------|
||o------------------|------------------|------------------|
||-------------------|------------------|------------------|
||---------5---------|--------5---------|--------5---------|
||o-7--5-7-----7-5-6-|-7--5-7-----7-5-6-|-7--5-7-----7-5-6-|
||-----------0-------|----------0-------|----------0-------|
|
|   Gtr III
|   E. S E E E E E E   E. S E E E E E E   E. S E E E E E E
||-------------------|------------------|------------------|
||o------------------|------------------|------------------|
||---------7---------|--------7---------|--------7---------|
||--9--7-9-----9-7-8-|-9--7-9-----9-7-8-|-9--7-9-----9-7-8-|
||o------------------|------------------|------------------|
||-------------------|------------------|------------------|


                       3.
  E. S E E E E E E  3x E. S E E E E E E
|-------------------||--------------------|
|------------------o||--------------------|
|-------------------||--------------------|
|--------5----------||--------5-----------|
|-7--5-7-----7-5-6-o||-7--5-7-----7-5-6---|
|----------0--------||----------0---------|
|
| E. S E E E E E E  3x E. S E E E E E E
|-------------------||--------------------|
|------------------o||--------------------|
|--------7----------||--------7-----------|
|-9--7-9-----9-7-8--||-9--7-9---9---7-8---|
|------------------o||--------------------|
|-------------------||--------------------|


  Gtrs II, III
                 PM----------------|           PM----|
  E. S E E E E E E   E E E E E E E E   E E E E E E E E
|------------------|-----------------|-----------------|
|------------------|-----------------|-----------------|
|--------7-------7-|-6-5-4-5-6-5-4-6-|-7-7-7-7-6-6-7-6-|
|-9--7-9-5---9---5-|-4-3-2-3-4-3-2-4-|-5-5-5-5-4-4-5-4-|
|-7--5-7-----7-----|-----------------|-----------------|
|------------------|-----------------|-----------------|


 Out-Solo
  Gtr I
   S  S  S  S S  S  S  S  S  S  S  S  S  S  S  S
|------------------------------------------------|
|------------------------------------------------|
|---------------11h12h14----------------------11-|
|------------------------11h12p11----11h12h14----|
|-----9h10h12---------------------14-------------|
|-12---------------------------------------------|
|
| Gtrs II, III
|  E.       S E     E     E     E     E     E
|------------------------------------------------|
|------------------------------------------------|
|------------------------------------------------|
|-------------------5----------------------------|
|--7--------5-7-----------------7-----5-----6----|
|-------------------------0----------------------|


                                                     |---3---|  |---3---|
   S  S  S  S   Q         +H           +Q     +Q     E  E    E  E  E    E
|-----------------------------------|--------------------------------------|
|----------14-----------------------|--------------------------------------|
|-12h14h16----[16]b18====(16)-------|-(16)r==(16)---14p12---14-14p12---14--|
|-----------------------------------|--------------------------------------|
|-----------------------------------|--------------------------------------|
|-----------------------------------|--------------------------------------|
|
|                                 PM---------------------------------|
|  E.       S   E      E   E  E E E     E  E   E  E  E    E     E    E
|-----------------------------------|--------------------------------------|
|-----------------------------------|--------------------------------------|
|---------------------------------7-|---6--5---4--5--6----5-----4----6-----|
|----------------------5----------5-|---4--3---2--3--4----3-----2----4-----|
|--7--------5---7-------------7-----|--------------------------------------|
|--------------------------0--------|--------------------------------------|


   |---3---|  |---3---|
   E  E    E  E  E    E  H          +E   S  S  S  S  S  S  S  S  S  S  S  S  S  S
|--------------------------------|------------------------------------------------|
|--------------------12----------|---------12h13p12----------12h13p12----12h13p12-|
|-12------14p12h14------12-------|-(12)-14----------14p12h14----------14----------|
|----14--------------------------|------------------------------------------------|
|--------------------------------|------------------------------------------------|
|--------------------------------|------------------------------------------------|
|
|                        PM----|
|  E    E     E    E     E E E E     E.     S  E     E     E     E     E     E
|--------------------------------|------------------------------------------------|
|--------------------------------|------------------------------------------------|
|--7----7-----7----7-----6-6-7-6-|------------------------------------------------|
|--5----5-----5----5-----4-4-5-4-|-------------------5----------------------------|
|--------------------------------|---7------5--7-----------------7-----5-----6----|
|--------------------------------|-------------------------0----------------------|


   S   S  S  S  S  S  S  S  S  S  S  S  S  S  S  S
|-----------------------------------------------12---|
|-----12h13h15-12----------12----------12h13h15------|
|-14--------------14p12h14----14p12h14---------------|
|----------------------------------------------------|
|----------------------------------------------------|
|----------------------------------------------------|
|
|                                             PM
|  E.        S  E     E     E     E     E     E
|----------------------------------------------------|
|----------------------------------------------------|
|---------------------------------------------7------|
|---------------------5-----------------------5------|
|--7---------5--7-----------------7------------------|
|---------------------------0------------------------|


   H           E.      +S   E  E        +H         +Q     +E.    S
|------------------------------------|--------------------------12-|
|-15b17-------15b17r==(15)-12-15b19==|=(15)-------(15)r==(15)------|
|------------------------------------|-----------------------------|
|------------------------------------|-----------------------------|
|------------------------------------|-----------------------------|
|------------------------------------|-----------------------------|
|
|  PM-------------------------|                     PM--------|
|  E    E E E  E    E       E  E         E  E E E   E  E   E  E
|------------------------------------|-----------------------------|
|------------------------------------|-----------------------------|
|--6----5-4-5--6----5-------4--6-----|---7--7-7-7---6--6---7--6----|
|--4----3-2-3--4----3-------2--4-----|---5--5-5-5---4--4---5--4----|
|------------------------------------|-----------------------------|
|------------------------------------|-----------------------------|


                             |--3--|  |--3--|              |--3--|
   a     +S   S  S  S  S  S  S  S  S  S  S  S  S  S  S  S  S  S  S
|------------12----------12h14p12----------12h14p12-12-------12h14--|
|-15b17-(15)----15p12h15----------15p12h15-------------15p12--------|
|-------------------------------------------------------------------|
|-------------------------------------------------------------------|
|-------------------------------------------------------------------|
|-------------------------------------------------------------------|
|
|         E.        S  E     E        E        E     E     E
|-------------------------------------------------------------------|
|-------------------------------------------------------------------|
|-------------------------------------------------------------------|
|----------------------------5--------------------------------------|
|---------7---------5--7-----------------------7-----5-----6--------|
|-------------------------------------0-----------------------------|


                                                   |---3---|
   S   e  S  T  T  S  S  S  S  S  S  S  S  S  E    E  E    E  Q       +H
|-12--------15h16p15----------15h16p15-------17-|-17-15---17--------------------|
|-----15-16----------17p15h17----------17p15----|------------20b22---(20)-------|
|-----------------------------------------------|-------------------------------|
|-----------------------------------------------|-------------------------------|
|-----------------------------------------------|-------------------------------|
|-----------------------------------------------|-------------------------------|
|
|                                             PM------------------------------|
|  E.     S  E        E     E     E     E     E    E    E     E    E   E  E E E
|-----------------------------------------------|-------------------------------|
|-----------------------------------------------|-------------------------------|
|---------------------------------------------7-|--6----5-----4----5---6--5-4-6-|
|---------------------5-----------------------5-|--4----3-----2----3---4--3-2-4-|
|--7------5--7--------------------7-------------|-------------------------------|
|---------------------------0-------------------|-------------------------------|


                                         ~~~~~
   E  Q.        S      E.      +E   E    Q.      E H
|--------------21pb22r21b22---(21)----|-22b24-----------*|
|-20-22b24-------------------------20-|-----------------*|
|-------------------------------------|-----------------*|
|-------------------------------------|-----------------*|
|-------------------------------------|-----------------*|
|-------------------------------------|-----------------*|
|
|               PM-----------------|
|  E  E    E E  E           E   E   E    Q     Q   H
|-------------------------------------|-----------------*|
|-------------------------------------|-----------------*|
|--7--7----7-7--6-----------6---7---6-|--4--------------*|
|--5--5----5-5--4-----------4---5---4-|--2--------------*|
|-------------------------------------|-----------------*|
|-------------------------------------|-----------------*|


Duration Legend
---------------
W - whole; H - half; Q - quarter; E - 8th; S - 16th; T - 32nd; X - 64th; a - acciaccatura
+ - note tied to previous; . - note dotted; .. - note double dotted
Uncapitalized letters represent notes that are staccato (1/2 duration)
Irregular groupings are notated above the duration line
Duration letters will always appear directly above the note/fret number it represents the
duration for.  Duration letters with no fret number below them represent rests.  Multi-
bar rests are notated in the form Wxn, where n is the number of bars to rest for.  Low
melody durations appear below the staff

Tablature Legend
----------------
 h   - hammer-on
 p   - pull-off
 b   - bend
 pb  - pre-bend
 r   - bend release (if no number after the r, then release immediately)
 /\  - slide into or out of (from/to "nowhere")
 s   - legato slide
 S   - shift slide
<n>  - natural harmonic
[n]  - artificial harmonic
n(n) - tapped harmonic
 ~   - vibrato
 tr  - trill
 T   - tap
 TP  - trem. picking
 PM  - palm muting
\n/  - tremolo bar dip; n = amount to dip
 \n  - tremolo bar down
 n/  - tremolo bar up
/n\  - tremolo bar inverted dip
 =   - hold bend; also acts as connecting device for hammers/pulls
 <>  - volume swell (louder/softer)
 x   - on rhythm slash represents muted slash
 o   - on rhythm slash represents single note slash

Misc Legend
-----------
 |  - bar
||  - double bar
||o - repeat start
o|| - repeat end
*|  - double bar (ending)
 :  - bar (freetime)
 $  - Segno
 &  - Coda
Tempo markers - <E/E./Q/Q./H/H.> = BPM(8/16=s8/s16), where s8 = swing 8ths, s16 = swing 16ths
comments
print report bad tab
19 comments total. Showing first comments.
0 reply
Feelthevayne wrote on June 24 2004, 12:00 am

pretty good...thsi is a hard song to figure out by ear

+1 reply
thebends wrote on June 24 2004, 12:00 am

this is of vice city...nice one, cool song

+3 reply
FbM-Biker wrote on July 5 2004, 12:00 am

good tab =)

I want to post or [tab]
guest
You may want to rate the tab now too:
select rating
Please do not post tabs as comments. Select "correction" instead!