Oops, an error
Loading. Please wait.

Psychotron Tab

ver3
ver3

Whole song

Interactive

More versions @911Tabs.com
1,910 views 1 this week
no commentswrite comment
1 2 3 4 5
excellent!
x 1
Autoscroll
+/-
esc
set tempo
stop
Contributor
NEW! There's an official Ultimate Guitar app which is ideal
for learning songs when you're away from computer. Get the app
WARNING: You are trying to view
                                    content from Ultimate-Guitar.com
                                    in an unauthorized application,
                                    which is prohibited.

                                    Please use an official Ultimate
                                    Guitar Tabs application for iPhone,
                                    iPad or Android to access legitimate
                                    chords, guitar, bass, and drum tabs
                                    from Ultimate-Guitar.com database.

                                    Type "ultimate guitar tabs" in Apple
                                    App Store's or Android Market's
                                    search to find the application.
#----------------------------------PLEASE NOTE---------------------------------#
#This file is the author's own work and represents their interpretation of the #
#song. You may only use this file for private study, scholarship, or research. #
#------------------------------------------------------------------------------#

PSYCHOTRON
As recorded by MEGADETH
(From the 1992 Album COUNTDOWN TO EXTINCTION)

Transcribed by DoomMaker (DoomMaker@Chello.hu)
        

Words and Music by Dave Mustaine
Arranged by MEGADETH

Gtr I (E A D G B E) - 'Rhythm Guitar'
Gtr II (E A D G B E) - 'Rhythm Guitar'
Gtr III (E A D G B E) - 'Solo Guitar'

 Intro
  Moderate Rock Q=126
     E5     B5       C5   G5               E5     B5
 4/4
  Gtrs I, II
                        PM      PM--|
  Q  Q  +E  Q.     E  E E E +E  E E E   Q  Q  +E  Q.
|----------------|--------------------|-----------------|
|----------------|--------------------|-----------------|
|----------------|--------------------|-----------------|
|----9--(9)------|--------------------|----9--(9)-------|
|----7--(7)-9----|-9s10---5-(5)-------|----7--(7)-9-----|
|-0---------7----|-7s=8-0-3-(3)-0-2-1-|-0---------7-----|


    C5   G5               E5     B5       C5   G5               E5     B5
       PM      PM                            PM      PM--|
  E  E E E +E  E E E   Q  Q  +E  Q.     E  E E E +E  E E E   Q  Q  +E  Q.
|--------------------|----------------|--------------------|----------------|
|--------------------|----------------|--------------------|----------------|
|--------------------|----------------|--------------------|----------------|
|--------------------|----9--(9)------|--------------------|----9--(9)------|
|-9s10---5-(5)---9-8-|-7--7--(7)-9----|-9s10---5-(5)-------|----7--(7)-9----|
|-7s=8-0-3-(3)-0-----|-----------7----|-7s=8-0-3-(3)-0-2-1-|-0---------7----|


    C5   G5                  E5       F5    G5  G#5   E5       F5
       PM      PM
  E  E E E +E  E E E   E S S q  S S E S S S S   E S S q  S S E S S E
|--------------------|------------------------|----------------------|
|--------------------|------------------------|----------------------|
|--------------------|------------------------|----------------------|
|--------------------|------------------------|----------------------|
|-9s10---5-(5)---9-8-|-7-----2--x-x-2-3-3-3s5s|=6-x-x-2--x-x-2-3-3-3-|
|-7s=8-0-3-(3)-0-----|---x-x-0--x-x-0-1-1-1s3s|=4-x-x-0--x-x-0-1-1-1-|


        E5       F5    G5  G#5   E5     F5
  E S S q  S S E S S S S   E S S q  S S E E E
|------------------------|--------------------|
|------------------------|--------------------|
|------------------------|--------------------|
|------------------------|--------------------|
|-3-x-x-2--x-x-2-3-3-3s5s|=6-x-x-2--x-x-3---3-|
|-1-x-x-0--x-x-0-1-1-1s3s|=4-x-x-0--x-x-1---1-|


        E5       F5    G5  G#5   E5       F5
  PM
  E S S q  S S E S S S S   E S S q  S S E S S E
|------------------------|----------------------|
|------------------------|----------------------|
|------------------------|----------------------|
|------------------------|----------------------|
|---x-x-2--x-x-2-3-3-3s5s|=6-x-x-2--x-x-2-3-3-3-|
|-0-x-x-0--x-x-0-1-1-1s3s|=4-x-x-0--x-x-0-1-1-1-|


        E5       F5    G5  G#5   F5
  E S S q  S S E S S S S   E S S H.        +H     +Q.   E
|------------------------|---------------|----------------||
|------------------------|---------------|----------------||
|------------------------|---------------|----------------||
|------------------------|---------------|----------------||
|-3-x-x-2--x-x-2-3-3-3s5s|=6-x-x-3-------|-(3)----(3)---3-||
|-1-x-x-0--x-x-0-1-1-1s3s|=4-x-x-1-------|-(1)----(1)---1-||


 Verse 1
      E5      F5 D5      G5      G#5F5      E5      F5 N.C.
  PM|   PM|          PM|   PM|          PM|   PM|      PM
  E E E E E a Q  E   E E E E E a Q  E   E E E E E a Q  E
|------------------|------------------|------------------|
|------------------|------------------|------------------|
|------------------|------------------|----------------4-|
|-----2-----2s3--0-|-----5-----5s6--3-|-----2-----2s3--2-|
|-----2-----2s3--0-|-----5-----5s6--3-|-----2-----2s3----|
|-0-0---0-0--------|-0-0---0-0--------|-0-0---0-0--------|


                          E5       F5    D5      G5      G#5 F5
--|PM-------------|   PM|    PM|             PM|   PM|
  +E  E E E E E E E   E E E  E E a  Q    E   E E E E E a Q   E
|-------------------|----------------------|--------------------|
|-------------------|----------------------|--------------------|
|-(4)-2-------------|----------------------|--------------------|
|-(2)-0-5-4-3-2-2-3-|-----2------2s=3----0-|-----5-----5s6---3--|
|-------3-2-0---0-1-|-----2------2s=3----0-|-----5-----5s6---3--|
|-------------3-----|-0-0----0-0-----------|-0-0---0-0----------|
| +E  E E E E E E E
|
|                     Gtr III
|  W                  Q   Q    E    E  Q     Q   Q   E   E Q
|-------------------|----------------------|--------------------|
|-------------------|-5---8\---7s==10-10---|-8---5---8s==7-7----|
|-------------------|-4---7\---6s===9--9---|-7---4---7s==6-6----|
|-------------------|----------------------|--------------------|
|-------------------|----------------------|--------------------|
|-------------------|----------------------|--------------------|


            E5           F5    N.C.              F#5  G5      E5      F5 D5
   PM-|          PM--|                                    PM|   PM|
   E  E     E    E   E a Q     E   +E  E E E E E  E   E   E E E E E a Q  E
|--------------------------------|----------------------|-------------------|
|--------------------------------|----------------------|-------------------|
|--------------------------------|----------------------|-------------------|
|-----------2----------2s3-----1-|-(1)-0-2-1-4-2--4---5-|-----2-----2s3--0--|
|-----------2----------2s3-----2-|-(2)-0-3-2-5-3--2---3-|-----2-----2s3--0--|
|--0--0----------0---0-----------|----------------------|-0-0---0-0---------|
|                                  +E  E E E E E  E   E
|
|  ~~~                         ~~~~~~~~
|  E.    S  S S  S S E   E S S E   +H.           +Q       W
|--------------------------------|----------------------|-------------------|
|--------------------------------|----------------------|-------------------|
|-/9----(7)----------------------|----------------------|-------------------|
|-----------9-7------8---7-----7-|-(7)-----------(7)\---|-------------------|
|---------------10-7-------7-5---|----------------------|-------------------|
|--------------------------------|----------------------|-------------------|


      G5      G#5F5      E5      F5 N.C.
  PM|   PM|          PM|   PM|      PM-------------------|
  E E E E E a Q  E   E E E E E a Q  E   +E  E E E E E E  E
|------------------|------------------|-------------------------|
|------------------|------------------|-------------------------|
|------------------|----------------4-|-(4)-2-------------------|
|-----5-----5s6--3-|-----2-----2s3--2-|-(2)-0-5-4-3-2-2--3------|
|-----5-----5s6--3-|-----2-----2s3----|-------3-2-0---0--1------|
|-0-0---0-0--------|-0-0---0-0--------|-------------3-----------|
|                                       +E  E E E E E E  E
|
| W                  W                   H        Q   E.     S
|------------------|------------------|-------------------------|
|------------------|------------------|-------------------------|
|------------------|------------------|-------------------------|
|------------------|------------------|-------------------------|
|------------------|------------------|--------------------(13)-|
|------------------|------------------|-------------------------|


             E5                 F5         D5
   PM---|          PM---|
   E    E     E    E     E    a Q          E
|-----------------------------------------------|
|-----------------------------------------------|
|-----------------------------------------------|
|-------------2---------------2s3----------0----|
|-------------2---------------2s3----------0----|
|--0----0----------0-----0----------------------|
|
|  |---3---|  |---3---|  |----3----|  |---3---|
|  E  E    E  E  E    E  E  E      E  E  E    E
|-----------------------------------------------|
|-----------------------------------------------|
|---------14----15----------------16----18---17-|
|----13--------------14----15-------------------|
|-12---------13---------14-----------15---------|
|-----------------------------------------------|


        G5                 G#5   F5
   PM|        PM---|
   E  E  E    E     E    a   Q   E
|----------------------------------|
|----------------------------------|
|----------------------------------|
|--------5---------------5s==6---3-|
|--------5---------------5s==6---3-|
|--0--0-------0-----0--------------|
|
|                            ~~~~~~~
|        |---3---|
|  E  E  E  E    E  E       +Q.
|----------------------------------|
|----15-16-15---16-----------------|
|-18---------------17b20---(17)----|
|----------------------------------|
|----------------------------------|
|----------------------------------|


               E5                    F5             N.C.                           F#5   G5
    PM----|          PM------|                       PM--------------------------|
    E     E     E    E        E    a  Q              E       +E  E E   E     E   E   E   E
|---------------------------------------------------------|--------------------------------||
|---------------------------------------------------------|--------------------------------||
|---------------------------------------------------------|--------------------------------||
|---------------2------------------2s=3--------------1----|--(1)-0-2---1-----4---2---4---5-||
|---------------2------------------2s=3--------------2----|--(2)-0-3---2-----5---3---2---3-||
|---0-----0----------0--------0---------------------------|--------------------------------||
|                                                            +E  E E   E     E   E   E   E
|
|                                                                      \1/   \1/
|~~~~~~                                              ~~~~~~~~~~~~
|   |---3----|  |----3-----|  |3-|    |--3--|
|  +E   E    E  E  E    S  S  E  S    S  S  S  S  S  E       +Q.      +E    +Q      +Q
|---------------------------------------------------------|--------------------------------||
|--------------17-16---15----15-15------------------------|--------------------------------||
|-(17)-16---14------------16---------16-15-14-12h14-12b14-|-(12)-----(12)--(12)----(12)\---||
|---------------------------------------------------------|--------------------------------||
|---------------------------------------------------------|--------------------------------||
|---------------------------------------------------------|--------------------------------||


 Pre-Chorus
          E5                                        G5            F5
  PM----|            PM----|            PM----|
  E E E E Q  +Q      E E E E Q  +Q      E E E E Q   Q    +H.      Q
|------------------|------------------|----------------|-------------|
|------------------|------------------|----------------|-------------|
|------------------|------------------|----------------|-------------|
|---------9--(9)\--|---------9--(9)\--|---------9\-----|-------------|
|---------7--(7)\--|---------7--(7)\--|---------7\--5--|-(5)------3--|
|-0-0---0----------|-0-0---0----------|-0-0---0-----3--|-(3)------1--|


 Chorus
     E5     B5       C5   G5               E5     B5       C5   G5
                        PM      PM--|                         PM      PM
  Q  Q  +E  Q.     E  E E E +E  E E E   Q  Q  +E  Q.     E  E E E +E  E E E
|----------------|--------------------|----------------|--------------------|
|----------------|--------------------|----------------|--------------------|
|----------------|--------------------|----------------|--------------------|
|----9--(9)------|--------------------|----9--(9)------|--------------------|
|----7--(7)-9----|-9s10---5-(5)-------|----7--(7)-9----|-9s10---5-(5)---9-8-|
|-0---------7----|-7s=8-0-3-(3)-0-2-1-|-0---------7----|-7s=8-0-3-(3)-0-----|


     E5     B5       C5   G5               E5     B5       C5
                        PM      PM--|                        PM--------|
  Q  Q  +E  Q.     E  E E E +E  E E E   Q  Q  +E  Q.     E E E E E E E E
|----------------|--------------------|----------------|-----------------|
|----------------|--------------------|----------------|-----------------|
|----------------|--------------------|----------------|-----------------|
|----9--(9)------|--------------------|----9--(9)------|-4s5-------------|
|-7--7--(7)-9----|-9s10---5-(5)-------|----7--(7)-9----|-2s3-3-3-3-3-3-3-|
|-----------7----|-7s=8-0-3-(3)-0-2-1-|-0---------7----|-----------------|


                    Verse 2
                     PM|   PM|          PM|   PM|          PM|   PM|      PM
  E E E E E E E E    E E E E E a Q  E   E E E E E a Q  E   E E E E E a Q  E
|-----------------||------------------|------------------|-------------------|
|-----------------||------------------|------------------|-------------------|
|-----------------||------------------|------------------|----------------4--|
|-2-0-----0-------||-----2-----2s3--0-|-----5-----5s6--3-|-----2-----2s3--2--|
|-3-2-3-2-2-3-2-0-||-----2-----2s3--0-|-----5-----5s6--3-|-----2-----2s3-----|
|-----5-3---5-3-1-||-0-0---0-0--------|-0-0---0-0--------|-0-0---0-0---------|
  E E E E E E E E


--|PM--------------------------|    PM------|       PM|
  +E  E E E E     E         E  E    E        E    E E  E       a  Q      E
|--------------------------------|-----------------------------------------------|
|--------------------------------|-----------------------------------------------|
|-(4)-2--------------------------|-----------------------------------------------|
|-(2)-0-5-4-3-----2---------2--3-|----------------2------------2s=3------0-------|
|-------3-2-0---------------0--1-|----------------2------------2s=3------0-------|
|-----------------3--------------|--0--------0------0--0-------------------------|
| +E  E E E E     E         E  E
|
| Gtr III
|                    ~~~~~~~~~~              ~~~~~                ~~~~~
|                                   |--3--|            |--3--|           |--3--|
|  H        S  S  S  S     +Q       S  S  S  Q.        S  S  S    Q      S  S  S
|-------------------17b19-(17)---|-15-------17b19-----15---------17b19--15-------|
|----------------15--------------|----17p15--------------17p15-------------17p15-|
|-16----------16-----------------|-----------------------------------------------|
|--------------------------------|-----------------------------------------------|
|--------------------------------|-----------------------------------------------|
|--------------------------------|-----------------------------------------------|


   PM---|               PM|
   E    E       E       E  E     a Q      E
|----------------------------------------------|
|----------------------------------------------|
|----------------------------------------------|
|---------------5----------------5s6------3----|
|---------------5----------------5s6------3----|
|--0----0---------------0--0-------------------|
|
|                             ~~~
|  |-------3-------|
|  Q       Q       Q       S  E.      E   E
|-17b19---17b19---17b20---15-------------------|
|----------------------------17------17\-------|
|----------------------------------------14b16-|
|----------------------------------------------|
|----------------------------------------------|
|----------------------------------------------|


   PM---|                  PM---|
   E     E        E        E     E  a Q   E
|-------------------------------------------------|
|-------------------------------------------------|
|-------------------------------------------------|
|-----------------2-----------------2s3---1-------|
|-----------------2-----------------2s3---2-------|
|--0-----0-----------------0-----0----------------|
|
|                                ~~~
|                 |--3--|                 |--3--|
|  S  S  S     S  S  S  S  E     Q.       S  S  S
|-12-------------12-------------------------------|
|----12-15b17-15----15p12-------------------------|
|-------------------------14b16-12----------12----|
|----------------------------------------14----14-|
|-------------------------------------------------|
|-------------------------------------------------|


                                    PM|   PM|
  +E     E  E  E        E  E  E E   E E E E E a Q  E
|---------------------------------|--------------------|
|---------------------------------|--------------------|
|---------------------------------|--------------------|
|-(1)----0--2--1--------4--2--4-5-|-----2-----2s3--0---|
|-(2)----0--3--2--------5--3--2-3-|-----2-----2s3--0---|
|---------------------------------|-0-0---0-0----------|
| +E     E  E  E        E  E  E E
|
|     ~~~                  ~~~
|              |--3--|
|  S  E.    e  S  S  S  E  Q.       W
|---------------------------------|--------------------|
|---------------------------------|--------------------|
|---------------------------------|--------------------|
|-14p12----14-12h14p12------------|--------------------|
|----------------------14-10\-----|--------------------|
|---------------------------------|--------------------|


  PM|   PM|          PM|   PM|      PM----------------------|
  E E E E E a Q  E   E E E E E a Q  E   +E  E E E E  E    E E
|------------------|------------------|-----------------------|
|------------------|------------------|-----------------------|
|------------------|----------------4-|-(4)-2-----------------|
|-----5-----5s6--3-|-----2-----2s3--2-|-(2)-0-5-4-3--2----2-3-|
|-----5-----5s6--3-|-----2-----2s3----|-------3-2-0-------0-1-|
|-0-0---0-0--------|-0-0---0-0--------|--------------3--------|
|                                       +E  E E E E  E    E E
|
| W                  W                   H        E  Q.
|------------------|------------------|-----------------------|
|------------------|------------------|-------------17b20r====|
|------------------|------------------|-----------------------|
|------------------|------------------|-----------------------|
|------------------|------------------|-----------------------|
|------------------|------------------|-----------------------|


    PM-|        PM|
    E  E  E     E  E a  Q           E
|------------------------------------------|
|------------------------------------------|
|------------------------------------------|
|---------2----------2s=3-----------0------|
|---------2----------2s=3-----------0------|
|---0--0--------0--0-----------------------|
|
|            ~~~
|  +Q     S  E.    E    S  S  S  S  S  S
|------------------------------------------|
|-(17)---15h17----17------------14-15------|
|----------------------14-15-16-------16---|
|------------------------------------------|
|------------------------------------------|
|------------------------------------------|


   PM---|            PM---|
   E     E     E     E     E    a  Q   E
|----------------------------------------|
|----------------------------------------|
|----------------------------------------|
|--------------5----------------5s=6---3-|
|--------------5----------------5s=6---3-|
|--0-----0-----------0-----0-------------|
|
|                                  ~~~
|  S  S  S  S  S  S  E     E       Q.
|----------------------------------------|
|-14-------------------------------------|
|----16-15-14-12-14-14b16-12b14---12-----|
|----------------------------------------|
|----------------------------------------|
|----------------------------------------|


   PM|     PM--|         PM-----------------------|
   E E E   E   E a Q     E   +E    E    E E     E  E  E  E
|--------------------------|---------------------------------||
|--------------------------|---------------------------------||
|--------------------------|---------------------------------||
|------2---------2s3-----1-|-(1)---0----2-1-----4--2--4--5---||
|------2---------2s3-----2-|-(2)---0----3-2-----5--3--2--3---||
|--0-0-----0---0-----------|---------------------------------||
|                            +E    E    E E     E  E  E  E
|
|                             |---3---|
|  E E S S E a E   E S S E    E  E    E E.   S  E  E  Q
|----7---------------------|---------------------------------||
|------5p3p0---------------|-10s11s==10s8s==10-10-10-10\-----||
|-/9---------7h9---7-------|---------------------------------||
|--------------------9p7-8-|--7s=8s===7s5s===7--7--7--7\-----||
|--------------------------|---------------------------------||
|--------------------------|---------------------------------||


 Pre-Chorus
  PM----|            PM----|            PM----|
  E E E E Q  +Q      E E E E Q  +Q      E E E E Q   Q    +H.      Q
|------------------|------------------|----------------|-------------|
|------------------|------------------|----------------|-------------|
|------------------|------------------|----------------|-------------|
|---------9--(9)\--|---------9--(9)\--|---------9\-----|-------------|
|---------7--(7)\--|---------7--(7)\--|---------7\--5--|-(5)------3--|
|-0-0---0----------|-0-0---0----------|-0-0---0-----3--|-(3)------1--|


   Chorus
    $
                          PM      PM--|
    Q  Q  +E  Q.     E  E E E +E  E E E   Q  Q  +E  Q.
||-----------------|--------------------|----------------|
||o----------------|--------------------|----------------|
||-----------------|--------------------|----------------|
||-----9--(9)------|--------------------|----9--(9)------|
||o----7--(7)-9----|-9s10---5-(5)-------|----7--(7)-9----|
||--0---------7----|-7s=8-0-3-(3)-0-2-1-|-0---------7----|


       PM      PM                            PM      PM--|
  E  E E E +E  E E E   Q  Q  +E  Q.     E  E E E +E  E E E
|--------------------|----------------|--------------------|
|--------------------|----------------|--------------------|
|--------------------|----------------|--------------------|
|--------------------|----9--(9)------|--------------------|
|-9s10---5-(5)---9-8-|-7--7--(7)-9----|-9s10---5-(5)-------|
|-7s=8-0-3-(3)-0-----|-----------7----|-7s=8-0-3-(3)-0-2-1-|


                                            To Coda
                       PM--------|
  Q  Q  +E  Q.     E E E E E E E E   E E E E E E E E
|----------------|-----------------|------------------||
|----------------|-----------------|-----------------o||
|----------------|-----------------|------------------||
|----9--(9)------|-4s5-------------|-2-0-----0--------||
|----7--(7)-9----|-2s3-3-3-3-3-3-3-|-3-2-3-2-2-3-2-0-o||
|-0---------7----|-----------------|-----5-3---5-3-1--||
                                     E E E E E E E E


 Guitar Solo
  F#5                  A5
  Gtr III
  H         Q.          +E
|---------------------------|
|----------17b19r======(17)-|
|---------------------------|
|---------------------------|
|---------------------------|
|---------------------------|
|
| Gtrs I, II
| PM-------------------------
| E S S q   S    S e E   E
|---------------------------|
|---------------------------|
|---------------------------|
|------------------------2--|
|---4-4-4---4----4-4-----0--|
|---2-2-2---2----2-2--------|


  F#5                   G5     F#5                   A5
   ~~                           ~~
   H         Q.          +E     H         Q.          +E
|----------------------------|----------------------------|
|-14--------14b15r======(14)-|-10--------12b14r======(12)-|
|----------------------------|----------------------------|
|----------------------------|----------------------------|
|----------------------------|----------------------------|
|----------------------------|----------------------------|
|
|----------------------------------------------------|
|  E S S q   S    S E E   E     E S S q   S    S e E   E
|----------------------------|----------------------------|
|----------------------------|----------------------------|
|----------------------------|----------------------------|
|----------------------------|-------------------------2--|
|--4-4-4-4---4----4-4-----5--|--4-4-4-4---4----4-4-----0--|
|--2-2-2-2---2----2-2-----3--|--2-2-2-2---2----2-2--------|


  F#5           G5       F#5                            A5
  ~                      ~~
  H        Q.      +E    Q.       +E     S S  S  S S  S  S S
|----------------------|-------------------------------------|
|-9--------9b10r===(9)-|-7--------(7)\-----9-10----9-10-12-9-|
|----------------------|---------------/11------11-----------|
|----------------------|-------------------------------------|
|----------------------|-------------------------------------|
|----------------------|-------------------------------------|
|
| PM----------------------------------------------------------
| E S S q  E    q   E    E  S S q        S S  e    E     E
|----------------------|-------------------------------------|
|----------------------|-------------------------------------|
|----------------------|-------------------------------------|
|----------------------|---------------------------------2---|
|-4-4-4-4--4----5---5--|-4--4-4-4--------4-4--4----------0---|
|-2-2-2-2--2----3---3--|-2--2-2-2--------2-2--2--------------|


  F#5                                   G5
   S  S S  S  S S  S  S S  S  S S  S  S E
|-------9-------9-10----9-10-12-9-10----9--|
|-10-12---10-12------12--------------12----|
|------------------------------------------|
|------------------------------------------|
|------------------------------------------|
|------------------------------------------|
|
|---------------------------------------|
|  E    S  S  q         S  S  E    E    E
|------------------------------------------|
|------------------------------------------|
|------------------------------------------|
|------------------------------------------|
|--4----4--4--4---------4--4--4---------5--|
|--2----2--2--2---------2--2--2---------3--|


  F#5                                         A5
   |----3----|    |---3----|  |---3----|  |--3--|
   E     E   E    E     E  E  E   E    E  E E   E
|-12b14-12---9------------------------------------|
|----------------12b14-12-10----------------------|
|----------------------------11---9---------------|
|-------------------------------------11-10-9---7-|
|-------------------------------------------------|
|-------------------------------------------------|
|
|  PM----------------------------------------------
|  E       S   S  q           S S   e     E   E
|-------------------------------------------------|
|-------------------------------------------------|
|-------------------------------------------------|
|---------------------------------------------2---|
|--4-------4---4--4-----------4-4---4---------0---|
|--2-------2---2--2-----------2-2---2-------------|


  F#5          G5                     F5
               ~~~~~~~~~~~~~~
  |---3---|
  E E     E    H.        +W
|----------------------|----------------||
|----------------------|----------------||
|--------------7-------|-(7)------------||
|----------------------|----------------||
|-9-7------------------|----------------||
|-------(10)-----------|----------------||
|
|------------|
| E   S      S H.        +H     +Q.   E
|----------------------|----------------||
|----------------------|----------------||
|----------------------|----------------||
|----------------------|----------------||
|-4---4------4-5-------|-(5)----(5)---3-||
|-2---2------2-3-------|-(3)----(3)---1-||


 Verse 3
  W                  W                  W
|------------------|------------------|------------------|
|------------------|------------------|------------------|
|------------------|------------------|------------------|
|------------------|------------------|------------------|
|------------------|------------------|------------------|
|------------------|------------------|------------------|
|
| PM|   PM|          PM|   PM|          PM|   PM|      PM
| E E E E E a Q  E   E E E E E a Q  E   E E E E E a Q  E
|------------------|------------------|------------------|
|------------------|------------------|------------------|
|------------------|------------------|----------------4-|
|-----2-----2s3--0-|-----5-----5s6--3-|-----2-----2s3--2-|
|-----2-----2s3--0-|-----5-----5s6--3-|-----2-----2s3----|
|-0-0---0-0--------|-0-0---0-0--------|-0-0---0-0--------|


                                 ~            ~
   H        Q    E.   S   S E.   Q   S E.     Q
|---------------------5-|-------------------------|
|-----------------------|-3h5----5---8-5------5---|
|-----------------------|-------------------------|
|-----------------------|-------------------------|
|-----------------------|-------------------------|
|-----------x\----------|-------------------------|
|
|-|PM---------------|     PM---|   PM|
| +E  E E E E  E E  E     E    E E E E    a Q   E
|-----------------------|-------------------------|
|-----------------------|-------------------------|
|-(4)-2-----------------|-------------------------|
|-(2)-0-5-4-3--2-2--3---|--------2--------2s3---0-|
|-------3-2-0----0--1---|--------2--------2s3---0-|
|--------------3--------|-0----0---0-0------------|
  +E  E E E E  E E  E


   E  E      +E   +E   E    E  S  S  S  S
|-----------------------------15s17-17-17-|
|-12-14b15==(14)r(14)-12---14-------------|
|-12-14b15==(14)r(14)-12---14-12s14-14-14-|
|-----------------------------------------|
|-----------------------------------------|
|-----------------------------------------|
|
|  PM|             PM-|
|  E  E       E    E   E a  Q        E
|-----------------------------------------|
|-----------------------------------------|
|-----------------------------------------|
|-------------5----------5s=6--------3----|
|-------------5----------5s=6--------3----|
|--0--0------------0---0------------------|


   S  S  S  S  S  S  S  S  S  S    S  S  S  S  S  S
|-17s15-15-15-15s17-17-17-17s15---15-15-15s14-14-14-|
|---------------------------------------------------|
|-14s12-12-12-12s14-14-14-14s12---12-12-12s11-11-11-|
|---------------------------------------------------|
|---------------------------------------------------|
|---------------------------------------------------|
|
|  PM---|            PM---|                    PM----
|  E     E     E     E     E    a  Q           E
|---------------------------------------------------|
|---------------------------------------------------|
|---------------------------------------------------|
|--------------2----------------2s=3-----------1----|
|--------------2----------------2s=3-----------2----|
|--0-----0-----------0-----0------------------------|


                               ~~~~~
   S   S  S  S  S  S  S  S  E  Q.          +Q     Q   H
|-14s=12-12-12-12s10-10-10-10-10b12-----|-(10)\-----------------|
|---------------------------------------|-----------------------|
|-11s==9--9--9--9s=7--7--7--7-----------|-----------------------|
|---------------------------------------|-----------------------|
|---------------------------------------|-----------------------|
|---------------------------------------|-----------------------|
|
|-----------------------------|             PM--|   PM|
| +E      E     E     E     E  E    E E     E   E E E E a Q  E
|---------------------------------------|-----------------------|
|---------------------------------------|-----------------------|
|---------------------------------------|-----------------------|
|-(1)-----0-----2-----1-----4--2----4-5-|---------2-----2s3--0--|
|-(2)-----0-----3-----2-----5--3----2-3-|---------2-----2s3--0--|
|---------------------------------------|---0---0---0-0---------|
  +E      E     E     E     E  E    E E


  W                  W
|------------------|------------------|
|------------------|------------------|
|------------------|------------------|
|------------------|------------------|
|------------------|------------------|
|------------------|------------------|
|
| PM|   PM|          PM|   PM|      PM-
| E E E E E a Q  E   E E E E E a Q  E
|------------------|------------------|
|------------------|------------------|
|------------------|----------------4-|
|-----5-----5s6--3-|-----2-----2s3--2-|
|-----5-----5s6--3-|-----2-----2s3----|
|-0-0---0-0--------|-0-0---0-0--------|


             |----3----|      |----3----|    |----3----|
   H         Q    Q    Q      Q    Q    Q    Q      Q  Q
|-----------13---13---13---|-16---16---16---19-----19-19----|
|--------------------------|--------------------------------|
|-----------10---10---10---|-13---13---13---16-----16-------|
|--------------------------|--------------------------------|
|--------------------------|--------------------------------|
|--------------------------|--------------------------------|
|
|------------------------|    PM|         PM|
| +E  E E E  E E    E    E    E E    E    E  E a Q       E
|--------------------------|--------------------------------|
|--------------------------|--------------------------------|
|-(4)-2--------------------|--------------------------------|
|-(2)-0-5-4--3-2----2----3-|---------2---------2s3-------0--|
|-------3-2--0------0----1-|---------2---------2s3-------0--|
|--------------3-----------|--0-0---------0--0--------------|
  +E  E E E  E E    E    E


                                                   ~~~~~~
               |--3--|  |---3----|
   S  S  S  S  S  S  S  S  T  T  S  S     +E.      Q
|-16-13----------------------------16b19-(16)-----16b19\---|
|-------15----------------12h15p12-------------------------|
|----------16-13----13-16----------------------------------|
|----------------15----------------------------------------|
|----------------------------------------------------------|
|----------------------------------------------------------|
|
|  PM---|               PM---------|
|  E     E     E        E           E         a Q        E
|----------------------------------------------------------|
|----------------------------------------------------------|
|----------------------------------------------------------|
|--------------5------------------------------5s6--------3-|
|--------------5------------------------------5s6--------3-|
|--0-----0--------------0-----------0----------------------|


                                           D.S. al Coda
                                                 \1
  |-----3-----|             |-3-|
  Q     Q     Q     S S   E S S S E      +H     +H
|-------------------0-0-----0h3p0-3b5==|=(3)r===(3)-----||
|-------------------------3------------|----------------||
|-2b4---2b4---2b4----------------------|----------------||
|--------------------------------------|----------------||
|--------------------------------------|----------------||
|--------------------------------------|----------------||
|
| PM--|           PM|
| E   E     E     E E   a Q       E      +H.         Q
|--------------------------------------|----------------||
|--------------------------------------|----------------||
|--------------------------------------|----------------||
|-----------2-----------2s3------------|----------------||
|-----------2-----------2s3-------5----|-(5)---------3--||
|-0---0-----------0-0-------------3----|-(3)---------1--||


    &
    E5                    G5  E5                    F5
                   ~~~~~~~~~~~~~~
    Q     Q  +E    Q.         Q.       E +E    E Q
||--------------------------|-------------------------|
||o-------------------------|-------------------------|
||--------------------------|-------------------------|
||--------9--(9)------------|-------------------------|
||o----------------7--------|--------------------7\---|
||--0-----------------------|-7--------6-(6)---7------|
|
|   PM-------------|          PM---------------|
|   E S S q   S  S E  E a E   E  S S q    S  S E E  E
||--------------------------|-------------------------|
||o-------------------------|-------------------------|
||--------------------------|-------------------------|
||--------------------------|-------------------------|
||o-2-x-x-2---x--x-2----4s5-|-2--x-x-2----x--x-2-2--3-|
||--0-x-x-0---x--x-0----2s3-|-0--x-x-0----x--x-0-0--1-|


                          1.,2.,3.
          E5              G5  E5              F5
                                                   ~~
   Q.       E +Q      Q       +E  Q     E +E    E  Q
|---------------------------|-----------------------------||
|---------------------------|---------------------12-----o||
|---------------------------|-----------4-(4)-/10---------||
|---------------------------|-----3-----------------------||
|---------------------2-----|-(2)------------------------o||
|--1--------0-(0)-----------|-----------------------------||
|
|     PM------------|          PM-----|
| +E  S S q    S  S e E a E    E  S S q    E    q    E
|---------------------------|-----------------------------||
|---------------------------|----------------------------o||
|---------------------------|-----------------------------||
|---------------------------|-----------------------------||
|-(3)-x-x-2----x--x-2---4s5-|--2--x-x-2----2----3----3---o||
|-(1)-x-x-0----x--x-0---2s3-|--0--x-x-0----0----1----1----||


  4.
  E5    F5     G5 A5  E5
  E E   Q  +E  Q  E   E E Q  H
|-------------------|-------------*|
|-------------------|-------------*|
|-------------------|-------------*|
|---3---------------|-------------*|
|-2---------------0-|-------------*|
|-------1--(1)-3----|-0-----------*|
|
| E S S Q  +E  Q  E   E E Q  H
|-------------------|-------------*|
|-------------------|-------------*|
|-------------------|-------------*|
|-----------------2-|-------------*|
|-2-x-x-3--(3)-5--0-|-2-----------*|
|-0-x-x-1--(1)-3----|-0-----------*|



Duration Legend
---------------
W - whole; H - half; Q - quarter; E - 8th; S - 16th; T - 32nd; X - 64th; a - acciaccatura
+ - note tied to previous; . - note dotted; .. - note double dotted
Uncapitalized letters represent notes that are staccato (1/2 duration)
Irregular groupings are notated above the duration line
Duration letters will always appear directly above the note/fret number it represents the
duration for.  Duration letters with no fret number below them represent rests.  Multi-
bar rests are notated in the form Wxn, where n is the number of bars to rest for.  Low
melody durations appear below the staff

Tablature Legend
----------------
 h   - hammer-on
 p   - pull-off
 b   - bend
 pb  - pre-bend
 r   - bend release (if no number after the r, then release immediately)
 /\  - slide into or out of (from/to "nowhere")
 s   - legato slide
 S   - shift slide
<n> - natural harmonic
[n]  - artificial harmonic
n(n) - tapped harmonic
 ~   - vibrato
 tr  - trill
 T   - tap
 TP  - trem. picking
 PM  - palm muting
\n/  - tremolo bar dip; n = amount to dip
 \n  - tremolo bar down
 n/  - tremolo bar up
/n\  - tremolo bar inverted dip
 =   - hold bend; also acts as connecting device for hammers/pulls
 <> - volume swell (louder/softer)
 x   - on rhythm slash represents muted slash
 o   - on rhythm slash represents single note slash

Misc Legend
-----------
 |  - bar
||  - double bar
||o - repeat start
o|| - repeat end
*|  - double bar (ending)
 :  - bar (freetime)
 $  - Segno
 &  - Coda
Tempo markers - <E/E./Q/Q./H/H.> = BPM(8/16=s8/s16), where s8 = swing 8ths, s16 = swing 16ths

comments
We did not receive enough feedback on this tab! Please rate:
print report bad tab
1 2 3 4 5
I want to post or [tab]
guest
You may want to rate the tab now too:
select rating
Please do not post tabs as comments. Select "correction" instead!