Oops, an error
Loading. Please wait.

Rattlehead Tab

ver2
ver2

Whole song

Interactive

More versions @911Tabs.com
3,660 views 3 this week
no commentswrite comment
1 2 3 4 5
accurate
x 1
Autoscroll
+/-
esc
set tempo
stop
Contributor
Hey! There's an official Ultimate Guitar app which is ideal
for learning songs when you're away from computer. Get the app
WARNING: You are trying to view
                                    content from Ultimate-Guitar.com
                                    in an unauthorized application,
                                    which is prohibited.

                                    Please use an official Ultimate
                                    Guitar Tabs application for iPhone,
                                    iPad or Android to access legitimate
                                    chords, guitar, bass, and drum tabs
                                    from Ultimate-Guitar.com database.

                                    Type "ultimate guitar tabs" in Apple
                                    App Store's or Android Market's
                                    search to find the application.
#----------------------------------PLEASE NOTE---------------------------------#
#This file is the author's own work and represents their interpretation of the #
#song. You may only use this file for private study, scholarship, or research. #
#------------------------------------------------------------------------------#

RATTLEHEAD
As recorded by Megadeth
(From the 1985 Album KILLING IS MY BUSINESS... AND BUSINESS IS GOOD!)

Transcribed by livingzombie
        

Words and Music by Dave Mustaine

Gtr I (E A D G B E) - 'Dave Mustaine'
Gtr II (E A D G B E) - 'Chris Poland'

 Intro
  Q=180
  N.C.
 4/4
  Gtr I
  S S S S S S S S S S S S S S S S   S S S S S S S S S S S S S S S S
|---------------------------------|----------------------------------|
|---------------------------------|----------------------------------|
|---------------------------------|----------------------------------|
|-0-0-7-7-0-5-5-0-8-8-0-7-7-0-5-0-|-0-0-7-7-0-5-5-0-8-8-0-7-7-0-5-0--|
|---------------------------------|----------------------------------|
|---------------------------------|----------------------------------|


  C5
  Gtrs I, II
  W          +W
|----------|--------|
|----------|--------|
|-5--------|-(5)----|
|-5--------|-(5)----|
|-3--------|-(3)----|
|----------|--------|


   Verse
    N.C.
    S S S S S S S S S S S S S S S S   S S S S S S S S S S S S S S S S
||----------------------------------|----------------------------------|
||o---------------------------------|----------------------------------|
||----------------------------------|----------------------------------|
||--0-0-7-7-0-5-5-0-8-8-0-7-7-0-5-0-|-0-0-7-7-0-5-5-0-8-8-0-7-7-0-5-0--|
||o---------------------------------|----------------------------------|
||----------------------------------|----------------------------------|


  C5                                Bb5             C5
                                                    |-3-|
  S S S S S S S S S S S S S S S S   S S S S S S S S Q Q Q   3x
|---------------------------------|-------------------------||
|---------------------------------|------------------------o||
|---------------------------------|-----------------5-5-5---||
|---------------------------------|-----------------5-5-5---||
|-3-3-3-3-3-3-3-3-3-3-3-3-3-3-3-3-|-1-1-1-1-1-1-1-1-3-3-3--o||
|---------------------------------|-------------------------||


  N.C.
  S S S S S S S S S S S S S S S S   S S S S S S S S S S S S S S S S
|---------------------------------|---------------------------------|
|---------------------------------|---------------------------------|
|---------------------------------|---------------------------------|
|-0-0-7-7-0-5-5-0-8-8-0-7-7-0-5-0-|-0-0-7-7-0-5-5-0-8-8-0-7-7-0-5-0-|
|---------------------------------|---------------------------------|
|---------------------------------|---------------------------------|


  C5                                Bb5             A5G5F#5
  Gtr I
                                                    |-3-|
  S S S S S S S S S S S S S S S S   S S S S S S S S Q Q Q
|---------------------------------|------------------------|
|---------------------------------|------------------------|
|---------------------------------|-----------------2------|
|---------------------------------|-----------------2-5-4--|
|-3-3-3-3-3-3-3-3-3-3-3-3-3-3-3-3-|-1-1-1-1-1-1-1-1-0-5-4--|
|---------------------------------|-------------------3-2--|
|
| Gtr II
|                                                   |-3-|
| S S S S S S S S S S S S S S S S   S S S S S S S S Q Q Q
|---------------------------------|------------------------|
|---------------------------------|------------------------|
|---------------------------------|-----------------6-7-9--|
|---------------------------------|------------------------|
|-3-3-3-3-3-3-3-3-3-3-3-3-3-3-3-3-|-1-1-1-1-1-1-1-1--------|
|---------------------------------|------------------------|


 Solo
              E5                     F5
  PM----|       PM--------------|
  S S S S S S E S S    S    S S S     E
|------------------------------------------|
|------------------------------------------|
|------------------------------------------|
|-------------9----------------------10----|
|-------------7-----------------------8----|
|-0-0-0-0-0-0---0-0----0----0-0-0----------|
|
| ~
|               |----3----|   |----3-----|
| H             E    E    E   E    E     E
|-----------------------------8---10----12-|
|-7-------------8---10---12----------------|
|------------------------------------------|
|------------------------------------------|
|------------------------------------------|
|------------------------------------------|


                    F#5                 G5
  PM--------|           PM------------|
  S     S S S  S  S  E  S    S S  S S S  E
|---------------------------------------------|
|---------------------------------------------|
|---------------------------------------------|
|-------------------11------------------12----|
|--------------------9------------------10----|
|-0-----0-0-0--0--0-----0----0-0--0-0-0-------|
|
| Q           +Q       +S    S S  S S S  S S
|-9b10========(9)------(9)r-10-8-10-8-7-------|
|---------------------------------------10-8--|
|---------------------------------------------|
|---------------------------------------------|
|---------------------------------------------|
|---------------------------------------------|


                  E5                  F5
  PM-----|                PM--------|
  S  S S S S S     E      S S S S S S  E
|------------------------------------------|
|------------------------------------------|
|------------------------------------------|
|------------------9------------------10---|
|------------------7-------------------8---|
|-0--0-0-0-0-0------------0-0-0-0-0-0------|
|
| S  S S S S S    +S    S S S S S S S  S S
|-7----------------------------------------|
|---10-8-7-8-7b8==(7)r-10-8-7-------7------|
|-----------------------------9-7-9----9-7-|
|------------------------------------------|
|------------------------------------------|
|------------------------------------------|


                F#5                       G5
   PM----|          PM------------------|
   S S S  S S S  E  S     S   S  S   S  S   E
|----------------------------------------------|
|----------------------------------------------|
|----------------------------------------------|
|---------------11-------------------------12--|
|----------------9-------------------------10--|
|--0-0-0--0-0-0-----0-----0---0--0---0--0------|
|
|  S S S  S S S  E  E        +E     +E     +E
|----------------------------------------------|
|----------------------------------------------|
|----------------------------------------------|
|-10-9-7---------------------------------------|
|--------10-9-7--------------------------------|
|---------------10-10b12====(10)---(10)r==(10)-|


              E5                  F5                     F#5            G5
  PM----|        PM------------|          PM-------|        PM--------|
  S S S S S S E  S    S S  S S  S  E      S    S S S S S  E S S S S S S  E
|--------------------------------------|-----------------------------------|
|--------------------------------------|-----------------------------------|
|--------------------------------------|-----------------------------------|
|-------------9-------------------10---|-----------------11-------------12-|
|-------------7--------------------8---|------------------9-------------10-|
|-0-0-0-0-0-0----0----0-0--0-0--0------|--0----0-0-0-0-0----0-0-0-0-0-0----|
|
| H              E.        E    E    S    W
|-------------------------12---15------|-15b17-----------------------------|
|---------------10b12------------------|-----------------------------------|
|--------------------------------------|-----------------------------------|
|--------------------------------------|-----------------------------------|
|--------------------------------------|-----------------------------------|
|--------------------------------------|-----------------------------------|


                  E5                F5                   F#5                G5
   PM-------|        PM-----------|       PM-------|         PM-----------|
   S    S S S S S E  S    S S S S S  E    S    S S S S S  E  S    S S S S S  E
|--------------------------------------|---------------------------------------|
|--------------------------------------|---------------------------------------|
|--------------------------------------|---------------------------------------|
|-----------------9-----------------10-|-----------------11-----------------12-|
|-----------------7------------------8-|------------------9-----------------10-|
|--0----0-0-0-0-0----0----0-0-0-0-0----|--0----0-0-0-0-0-----0----0-0-0-0-0----|
|
|  H                 H                    H                  H
|-17b19-------------18b20--------------|-20b22--------------22b24--------------|
|--------------------------------------|---------------------------------------|
|--------------------------------------|---------------------------------------|
|--------------------------------------|---------------------------------------|
|--------------------------------------|---------------------------------------|
|--------------------------------------|---------------------------------------|


   Bridge
    N.C.
    Gtrs I, II
    S S S S S S S S S S S S S S E   S S S S S S S S S S S S S S E
||--------------------------------|---------------------------------||
||o-------------------------------|--------------------------------o||
||--------------------------------|---------------------------------||
||--0-0-7-7-0-5-5-0-7h8p7p5-7p5---|-0-0-7-7-0-5-5-0-7h8p7p5-7p5-----||
||o-----------------------------3-|-----------------------------3--o||
||--------------------------------|---------------------------------||


   Verse
    S S S S S S S S S S S S S S S S   S S S S S S S S S S S S S S S S
||----------------------------------|----------------------------------|
||o---------------------------------|----------------------------------|
||----------------------------------|----------------------------------|
||--0-0-7-7-0-5-5-0-8-8-0-7-7-0-5-0-|-0-0-7-7-0-5-5-0-8-8-0-7-7-0-5-0--|
||o---------------------------------|----------------------------------|
||----------------------------------|----------------------------------|


  C5                                Bb5             C5
                                                    |-3-|
  S S S S S S S S S S S S S S S S   S S S S S S S S Q Q Q   3x
|---------------------------------|-------------------------||
|---------------------------------|------------------------o||
|---------------------------------|-----------------5-5-5---||
|---------------------------------|-----------------5-5-5---||
|-3-3-3-3-3-3-3-3-3-3-3-3-3-3-3-3-|-1-1-1-1-1-1-1-1-3-3-3--o||
|---------------------------------|-------------------------||


  S S S S S S S S S S S S S S S S   S S S S S S S S S S S S S S S S
|---------------------------------|---------------------------------|
|---------------------------------|---------------------------------|
|---------------------------------|---------------------------------|
|-0-0-7-7-0-5-5-0-8-8-0-7-7-0-5-0-|-0-0-7-7-0-5-5-0-8-8-0-7-7-0-5-0-|
|---------------------------------|---------------------------------|
|---------------------------------|---------------------------------|


  C5                                Bb5             A5G5F#5
                                                    |-3-|
  S S S S S S S S S S S S S S S S   S S S S S S S S Q Q Q
|---------------------------------|------------------------|
|---------------------------------|------------------------|
|---------------------------------|-----------------2------|
|---------------------------------|-----------------2-5-4--|
|-3-3-3-3-3-3-3-3-3-3-3-3-3-3-3-3-|-1-1-1-1-1-1-1-1-0-5-4--|
|---------------------------------|-------------------3-2--|


 Solo
                   E5                      F5
  Gtr I
  PM------|               PM------------|
  S  S  S  S  S  S  E     S  S  S  S  S  S  E
|------------------------------------------------|
|------------------------------------------------|
|------------------------------------------------|
|-------------------9----------------------10----|
|-------------------7-----------------------8----|
|-0--0--0--0--0--0--------0--0--0--0--0--0-------|
|
| Gtr II
| S  S  S  S  S  S  S  S  S  S  S  S  S  S  S  S
|---------12-13----------13-12-13-------13-12-13-|
|---12-15-------15-12-------------15-12----------|
|------------------------------------------------|
|---------------------14-------------------------|
|------------------------------------------------|
|------------------------------------------------|


                    F#5                     G5
   PM------|               PM------------|
   S  S  S  S  S  S  E     S  S  S  S  S  S  E
|-------------------------------------------------|
|-------------------------------------------------|
|-------------------------------------------------|
|-------------------11----------------------12----|
|--------------------9----------------------10----|
|--0--0--0--0--0--0--------0--0--0--0--0--0-------|
|
|  S  S  S  S  S  S  S  S  S  S  S  S  S  S  S  S
|-------13-12-13-------13-12-13-------13-12-12----|
|-15-12----------15-12----------15-12----------15-|
|-------------------------------------------------|
|-------------------------------------------------|
|-------------------------------------------------|
|-------------------------------------------------|


                    E5                      F5
   PM------|               PM------------|
   S  S  S  S  S  S  E     S  S  S  S  S  S  E
|-------------------------------------------------|
|-------------------------------------------------|
|-------------------------------------------------|
|--------------------9----------------------10----|
|--------------------7-----------------------8----|
|--0--0--0--0--0--0--------0--0--0--0--0--0-------|
|
|  S  S  S  S  S  S  S  S  S  S  S  S  S  S  S  S
|----13-12-18-15----------------------------------|
|-12-------------17-18-17-18-15----14----14-------|
|-------------------------------16----15----15----|
|----------------------------------------------17-|
|-------------------------------------------------|
|-------------------------------------------------|


                            F#5                               G5
  PM----------|                    PM--------------------|
  S    S    S  S  S    S     E     S    S     S  S  S    S     E
|-------------------------------------------------------------------|
|-------------------------------------------------------------------|
|-------------------------------------------------------------------|
|---------------------------11--------------------------------12----|
|----------------------------9--------------------------------10----|
|-0----0----0--0--0----0-----------0----0-----0--0--0----0----------|
|
| |--3---|        |---3---|        |---3---|        |---3---|
| S  S   S  S  S  S  S    S  S  S  S  S    S  S  S  S  S    S  S  S
|-----------------------------------------------------11---12-10----|
|-9------9------------------10-11-12-11---10----12-11------------12-|
|---10-----10----12-10---12------------------12---------------------|
|-------------12----------------------------------------------------|
|-------------------------------------------------------------------|
|-------------------------------------------------------------------|


                      E5                         F5
   PM------|                 PM----------------|
   S  S  S  S    S  S  E     S    S S  S  S    S  E
|------------------------------------------------------|
|------------------------------------------------------|
|------------------------------------------------------|
|----------------------9-------------------------10----|
|----------------------7--------------------------8----|
|--0--0--0--0----0--0--------0----0-0--0--0----0-------|
|
|  S  S  S  E       S  S  S  E.        S  E       S  S
|-10-11-12-14b16---12-10-12-14b15-----14-13b14---15-14-|
|------------------------------------------------------|
|------------------------------------------------------|
|------------------------------------------------------|
|------------------------------------------------------|
|------------------------------------------------------|


                    F#5                     G5
   PM------|               PM------------|
   S  S  S  S  S  S  E     S  S  S  S  S  S  E
|-------------------------------------------------|
|-------------------------------------------------|
|-------------------------------------------------|
|-------------------11----------------------12----|
|--------------------9----------------------10----|
|--0--0--0--0--0--0--------0--0--0--0--0--0-------|
|
|  S  S  S  S  S  S  S  S  S  S  S  S  S  S  S  S
|-15-14----14-15-17-15-14----14-15-17-15-14----14-|
|-------15----------------15----------------15----|
|-------------------------------------------------|
|-------------------------------------------------|
|-------------------------------------------------|
|-------------------------------------------------|


                    E5                     F5
   PM------|               PM------------|
   S  S  S  S  S  S  E     S  S  S  S  S S  E
|---------------------------------------------|
|---------------------------------------------|
|---------------------------------------------|
|--------------------9---------------------10-|
|--------------------7----------------------8-|
|--0--0--0--0--0--0--------0--0--0--0--0-0----|
|
|  S  S  S  S  S  S  S  S  S  S  S  S  Q
|-15-17-15-14----15-17-19-17-15----15-17S=====|
|-------------17----------------17------------|
|---------------------------------------------|
|---------------------------------------------|
|---------------------------------------------|
|---------------------------------------------|


                F#5                             G5
   PM-----|           PM----------------------|
   S S  S S S S   E   S  S  S        S  S     S   E
|-----------------------------------------------------|
|-----------------------------------------------------|
|-----------------------------------------------------|
|----------------11------------------------------12---|
|-----------------9------------------------------10---|
|--0-0--0-0-0-0-------0--0--0--------0--0-----0-------|
|
|  E    Q        +E   S  S  S     a  S  E        +E
|-20---19-------(19)-19-17-19b20----20-22b24====(22)r-|
|--------------------------------17-19-20b22====(20)r-|
|--------------------16-17-19-------------------------|
|-----------------------------------------------------|
|-----------------------------------------------------|
|-----------------------------------------------------|


  N.C.
   S  S  S  S  S  S  S  S  S  S  S  S  S  S  E
|-------------------------------------------------|
|-------------------------------------------------|
|-------------------------------------------------|
|--0--0--7--7--0--5--5--0--7h=8p=7p=5--7p=5-------|
|--------------------------------------------3----|
|-------------------------------------------------|
|
|  S  S  S  S  S  S  S  S  S  S  S  S  S  S  S  S
|-------------------------------------------------|
|-------------------------------------------------|
|-------------------------------------------------|
|-------------------------10----------10h12-10h12-|
|-------10h12-------10h12----12-10h12-------------|
|-10h13-------10h13-------------------------------|


   S  S  S  S  S  S S  S S  S  S S  S  S E
|---------------------------------------------|
|---------------------------------------------|
|---------------------------------------------|
|--0--0--7--7--0--5-5--0-7h=8p=7p5--7p=5------|
|----------------------------------------3----|
|---------------------------------------------|
|
|  S  S  S  S  S  S S  S S  S  S S  S  S S  S
|----------------------------------------8-10-|
|-------------------9-10-9-------9-10-12------|
|-10----------10h12--------12-10--------------|
|----12-10h12---------------------------------|
|---------------------------------------------|
|---------------------------------------------|


  S    S  S  S    S  S  S    S  S  S  S  S  S  S  E
|------------------------------------------------------|
|------------------------------------------------------|
|------------------------------------------------------|
|-0----0--7--7----0--5--5----0--7h=8p=7p=5--7p=5-------|
|-------------------------------------------------3----|
|------------------------------------------------------|
|
| E       S  E       S  E       S  S  S  S  S  S  S  S
|-8b10---10-10b11---13-12b13---13-12-13-17-15-13----15-|
|------------------------------------------------17----|
|------------------------------------------------------|
|------------------------------------------------------|
|------------------------------------------------------|
|------------------------------------------------------|


   S S  S S  S S  S S  S S S S  S S E
|--------------------------------------|
|--------------------------------------|
|--------------------------------------|
|--0-0--7-7--0-5--5-0--7h8p7p5--7p5----|
|-----------------------------------3--|
|--------------------------------------|
|
|  E    E    E    E    Q        Q
|-13------------------17S======20------|
|------17---15---13--------------------|
|--------------------------------------|
|--------------------------------------|
|--------------------------------------|
|--------------------------------------|


  Q=128
  D5
   W               +W
|---------------|---------------|
|---------------|---------------|
|--7------------|--(7)----------|
|--7------------|--(7)----------|
|--5------------|--(5)----------|
|---------------|---------------|
|
|  W               +H      H
|-20b22=========|=(20)r---------|
|---------------|---------------|
|---------------|---------------|
|---------------|---------------|
|---------------|---------------|
|---------------|---------------|


   Verse
    D5 F5 D5 G5   D5 F5 D5      C5  C#5
    Gtrs I, II
    Q  Q  Q  Q    Q  Q  E S S S S S S
||--------------|---------------------|
||o-------------|---------------------|
||-----5-----7--|----5----------------|
||--7--3--7--5--|-7--3--7-x-x-x-5---6-|
||o-5-----5-----|-5-----5-x-x-x-3---4-|
||--------------|---------------------|


  D5 F5 D5 G5   D5 F5 D5G5G#5 G5C5  C#5
  Q  Q  Q  Q    Q  Q  E S  S  S S S S
|-------------|--------------------------||
|-------------|-------------------------o||
|----5-----7--|----5----7-/8\-7----------||
|-7--3--7--5--|-7--3--7-5-/6\-5-5---6----||
|-5-----5-----|-5-----5---------3---4---o||
|-------------|--------------------------||


  D5 F5 D5    G5F5   D5 F5 D5      C5  C#5
  Q  Q  E S S S E.   Q  Q  E S S S S S S
|------------------|---------------------|
|------------------|---------------------|
|----5--------7-5--|----5----------------|
|-7--3--7-x-x-5-3--|-7--3--7-x-x-x-5---6-|
|-5-----5-x-x------|-5-----5-x-x-x-3---4-|
|------------------|---------------------|


  D5 F5 D5    G5F5   D5 F5 D5G5G#5 G5C5  C#5
  Q  Q  E S S S E.   Q  Q  E S  S  S S S S
|------------------|------------------------|
|------------------|------------------------|
|----5--------7-5--|----5----7-/8\-7--------|
|-7--3--7-x-x-5-3--|-7--3--7-5-/6\-5-5---6--|
|-5-----5-x-x------|-5-----5---------3---4--|
|------------------|------------------------|


  D5 F5 D5    G5F5   D5 F5 D5      C5  C#5 D5 F5 D5    G5F5   D5 G#5D5
  Q  Q  E S S S E.   Q  Q  E S S S S S S   Q  Q  E S S S E.   Q  Q  H
|------------------|---------------------|------------------|------------|
|------------------|---------------------|------------------|------------|
|----5--------7-5--|----5----------------|----5--------7-5--|----8-------|
|-7--3--7-x-x-5-3--|-7--3--7-x-x-x-5---6-|-7--3--7-x-x-5-3--|-7--6--7----|
|-5-----5-x-x------|-5-----5-x-x-x-3---4-|-5-----5-x-x------|-5-----5----|
|------------------|---------------------|------------------|------------|


              Solo
  Original Tempo Q=180
               D5                N.C.
  Gtr I
  +W           E   Q        E    S  S S  S S  S E
|------------|---------------------------------------|
|------------|---------------------------------------|
|------------|-------------------5h=7p5--------------|
|-(7)--------|-7---7--------7------------7p5---------|
|-(5)--------|-5---5--------5-----------------8p5----|
|------------|---------------------------------------|
|
| Gtr II
| +W           S S S S S  S S  S S  S S  S S  S S  S
|------------|---------------------------------------|
|------------|-5-8-5-8-------------------------------|
|------------|---------7-10-7-10-7-10-7-10-7-10-7-10-|
|-(7)--------|---------------------------------------|
|-(5)--------|---------------------------------------|
|------------|---------------------------------------|


  D5         N.C.
   E    Q  E S  S S  S S  S E
|--------------------------------|
|--------------------------------|
|------------5h=7p5--------------|
|--7----7--7---------7p5---------|
|--5----5--5--------------8p5----|
|--------------------------------|
|
|  H         S  S S  S S  S S S
|--------------------------------|
|--------------------------------|
|-12b14------7----7--------------|
|--------------10---10-7---------|
|------------------------10-8-8--|
|--------------------------------|


  D5       N.C.            D5         F5       C5         G5
                                       |--------3---------|
  E   Q  E S S S S S S E    E    Q  E  Q       Q          Q
|------------------------|----------------------------------------|
|------------------------|----------------------------------------|
|----------5h7p5---------|-------------5------------------7-------|
|-7---7--7-------7p5-----|--7----7--7--3-------5----------5-------|
|-5---5--5-----------8p5-|--5----5--5----------3------------------|
|------------------------|----------------------------------------|
|
| H        H                H          S  S  S    S  S  S    S  S
|------------------------|-----------------------14-13---------13-|
|------------------------|-13b15------15-13-15---------15---14----|
|------------------------|----------------------------------------|
|------------------------|----------------------------------------|
|-7b9--------------------|----------------------------------------|
|------------------------|----------------------------------------|


  D5                      N.C.
   E     Q           E     S  S  S  S  S  S  E
|-------------------------------------------------|
|-------------------------------------------------|
|--------------------------5h=7p=5----------------|
|--7-----7-----------7--------------7p=5----------|
|--5-----5-----------5--------------------8p=5----|
|-------------------------------------------------|
|
|  S  S  S  S  S  S  S  S  S  S  S  S  S  S  S  S
|-------------------------------------------------|
|-15-14-13-14-15-14-13-------12-------------------|
|----------------------14-13----14-13-12-13-14-13-|
|-------------------------------------------------|
|-------------------------------------------------|
|-------------------------------------------------|


  D5                      N.C.
   E     Q           E     S  S  S  S  S  S  E
|-------------------------------------------------|
|-------------------------------------------------|
|--------------------------5h=7p=5----------------|
|--7-----7-----------7--------------7p=5----------|
|--5-----5-----------5--------------------8p=5----|
|-------------------------------------------------|
|
|  S  S  S  S  S  S  S  S  S  S  S  S  S  S  S  S
|-------------------------------------------------|
|----------------------------12-13-14-15-14-13-14-|
|-12----------------11-12-14----------------------|
|----15-12----12-15-------------------------------|
|----------15-------------------------------------|
|-------------------------------------------------|


  D5         N.C.                      D5                F5    C5      G5
                                                          |-----3------|
   E    Q  E  S  S  S  S  S  S  E       E     Q        E  Q    Q       Q
|------------------------------------|-----------------------------------|
|------------------------------------|-----------------------------------|
|-------------5h=7p=5----------------|--------------------5------------7-|
|--7----7--7-----------7p=5----------|--7-----7--------7--3----5-------5-|
|--5----5--5-----------------8p=5----|--5-----5--------5-------3---------|
|------------------------------------|-----------------------------------|
|
|  H          S  S  S  S  S  S  S  S    S  S  S  S  E  E  Q       Q
|------------13-12-13-17-15-13----15-|-13----------17-20-20b22---20b22---|
|-15b17------------------------17----|----17-15-13-----------------------|
|------------------------------------|-----------------------------------|
|------------------------------------|-----------------------------------|
|------------------------------------|-----------------------------------|
|------------------------------------|-----------------------------------|


 Verse
  D5               N.C.            D5     N.C.
   E     Q       E S S S S S S E   E Q  E S S S S S S E
|--------------------------------|----------------------|
|--------------------------------|----------------------|
|------------------5h7p5---------|--------5h7p5---------|
|--7-----7-------7-------7p5-----|-7-7--7-------7p5-----|
|--5-----5-------5-----------8p5-|-5-5--5-----------8p5-|
|--------------------------------|----------------------|
|
|  Q        +Q     S S S S S S E   E Q  E S S S S S S E
|-20b22====(20)\-----------------|----------------------|
|--------------------------------|----------------------|
|------------------5h7p5---------|--------5h7p5---------|
|------------------------7p5-----|-7-7--7-------7p5-----|
|----------------------------8p5-|-5-5--5-----------8p5-|
|--------------------------------|----------------------|


  C5     N.C.            D5     F5C5G5
                                |-3-|
  E Q  E S S S S S S E   E Q  E Q Q Q
|----------------------|---------------|
|----------------------|---------------|
|--------3h5p3---------|--------5---7--|
|-5-5--5-------5p3-----|-7-7--7-3-5-5--|
|-3-3--3-----------5p3-|-5-5--5---3----|
|----------------------|---------------|
|
|                               |-3-|
| E Q  E S S S S S S E   E Q  E Q Q Q
|----------------------|---------------|
|----------------------|---------------|
|--------3h5p3---------|--------5---7--|
|-5-5--5-------5p3-----|-7-7--7-3-5-5--|
|-3-3--3-----------5p3-|-5-5--5---3----|
|----------------------|---------------|


    D5     N.C.            D5     N.C.
    Gtrs I, II
    E Q  E S S S S S S E   E Q  E S S S S S S E
||-----------------------|----------------------|
||o----------------------|----------------------|
||---------5h7p5---------|--------5h7p5---------|
||--7-7--7-------7p5-----|-7-7--7-------7p5-----|
||o-5-5--5-----------8p5-|-5-5--5-----------8p5-|
||-----------------------|----------------------|


  C5     N.C.            D5     F5C5G5
                                |-3-|
  E Q  E S S S S S S E   E Q  E Q Q Q  3x
|----------------------|---------------||
|----------------------|--------------o||
|--------3h5p3---------|--------5---7--||
|-5-5--5-------5p3-----|-7-7--7-3-5-5--||
|-3-3--3-----------5p3-|-5-5--5---3---o||
|----------------------|---------------||


   Bridge
    D5 G#5C5 D5   G#5
    Q  Q  Q  Q    S S S S S S S S S S S S S S S S  4x
||--------------|----------------------------------||
||o-------------|---------------------------------o||
||--------------|----------------------------------||
||--7-----5--7--|----------------------------------||
||o-5--6--3--5--|---------------------------------o||
||-----4--------|-4-4-4-4-4-4-4-4-4-4-4-4-4-4-4-4--||


  D5     N.C.            D5     N.C.
  E Q  E S S S S S S E   E Q  E S S S S S S E
|----------------------|----------------------|
|----------------------|----------------------|
|--------5h7p5---------|--------5h7p5---------|
|-7-7--7-------7p5-----|-7-7--7-------7p5-----|
|-5-5--5-----------8p5-|-5-5--5-----------8p5-|
|----------------------|----------------------|


  D5     N.C.            D5     F5C5G5
                                |-3-|
  E Q  E S S S S S S E   E Q  E Q Q Q
|----------------------|---------------|
|----------------------|---------------|
|--------5h7p5---------|--------5---7--|
|-7-7--7-------7p5-----|-7-7--7-3-5-5--|
|-5-5--5-----------8p5-|-5-5--5---3----|
|----------------------|---------------|


 Solo
  D5            N.C.                 D5            N.C.
  Gtr I
                 ~~~                                ~~~
    |---3---|    |------3------|       |---3---|    |------3------|
    Q    Q  Q    Q     Q       Q       Q    Q  Q    Q     Q       Q
|----------------------------------|----------------------------------|
|----------------------------------|----------------------------------|
|----------------------------------|----------------------------------|
|----------------------------------|----------------------------------|
|-------12-11---10-----------------|-------12-11---10-----------------|
|-/10------------------8-------9---|-/10------------------8-------9---|
|
| Gtr II
|   E Q       E  S S S   S S S   E     E Q       E  S S S   S S S   E
|----------------------------------|----------------------------------|
|----------------------------------|----------------------------------|
|----------------5h7p5-------------|----------------5h7p5-------------|
|---7-7-------7----------7p5-------|---7-7-------7----------7p5-------|
|---5-5-------5--------------8p==5-|---5-5-------5--------------8p==5-|
|----------------------------------|----------------------------------|


  C5      N.C.            D5              F5 C5 G5
   TP                                      ~~
                           |---3---|       |--3--|
   W                       Q    Q  Q       Q  Q  Q
|-----------------------|--------------------------|
|-----------------------|--------------------------|
|-----------------------|--------------------------|
|-12--------------------|-12---11-10b12------10-11-|
|-----------------------|-----------------12-------|
|-----------------------|--------------------------|
|
|                                          |--3--|
|  E Q  E S S S S S S E    E Q          E  Q  Q  Q
|-----------------------|--------------------------|
|-----------------------|--------------------------|
|---------3h5p3---------|------------------5-----7-|
|--5-5--5-------5p3-----|--7-7----------7--3--5--5-|
|--3-3--3-----------5p3-|--5-5----------5-----3----|
|-----------------------|--------------------------|


  D5           N.C.
           ~~~~~~~~~
   |---3---|     |-------3-------|
   Q    Q  Q    +Q      Q        Q
|------------------------------------|
|------------------------------------|
|------14-13---(13)------------------|
|-12-------------------10-------11---|
|------------------------------------|
|------------------------------------|
|
|  E Q       E   S S S    S S S    E
|------------------------------------|
|------------------------------------|
|----------------5h7p5---------------|
|--7-7-------7------------7p5--------|
|--5-5-------5----------------8p===5-|
|------------------------------------|


  D5           N.C.                    C5      N.C.
           ~~~~~~~~~                    TP
   |---3---|     |-------3-------|
   Q    Q  Q    +Q      Q        Q      H       S  S  S  S  S  S  S  S
|------------------------------------|---------------15h16p15p13----------|
|------------------------------------|-15------14-15-------------16p15p===|
|------14-13---(13)------------------|------------------------------------|
|-12-------------------10-------11---|------------------------------------|
|------------------------------------|------------------------------------|
|------------------------------------|------------------------------------|
|
|  E Q       E   S S S    S S S    E    E Q  E  S  S  S  S  S  S  E
|------------------------------------|------------------------------------|
|------------------------------------|------------------------------------|
|----------------5h7p5---------------|----------3h=5p=3-------------------|
|--7-7-------7------------7p5--------|--5-5--5-----------5p=3-------------|
|--5-5-------5----------------8p===5-|--3-3--3-----------------5p=3-------|
|------------------------------------|------------------------------------|


  D5                      F5       C5       G5
   S  S  S  S  S  S  S  S  S  S  S    S  Q
|---------------------------------------------|
|-13------------------------------------------|
|----15p14p12---------------------------------|
|-------------15p14p12------------------------|
|----------------------15p14p12---------------|
|-------------------------------15p==14p12\---|
|
|                          |-------3--------|
|  E     Q           E     Q       Q        Q
|---------------------------------------------|
|---------------------------------------------|
|--------------------------5----------------7-|
|--7-----7-----------7-----3-------5--------5-|
|--5-----5-----------5-------------3----------|
|---------------------------------------------|


  D5             N.C.                D5               N.C.
                                            |---3---|  |----3----|
   Q.       H                 S  S    E  E  E  E    E  E    E    E    E    E
|-20b22----20b22-------------19-17-|-22-20-19-17------17---------------------|
|----------------------------------|---------------21------19---21---17---19-|
|----------------------------------|-----------------------------------------|
|----------------------------------|-----------------------------------------|
|----------------------------------|-----------------------------------------|
|----------------------------------|-----------------------------------------|
|
|  E    Q   E    S S S S S S  E       E  Q       E     S S    S    S  S S  E
|----------------------------------|-----------------------------------------|
|----------------------------------|-----------------------------------------|
|----------------5h7p5-------------|-------------------5h7p===5--------------|
|--7----7---7----------7p5---------|--7--7-------7-----------------7p=5------|
|--5----5---5--------------8p=5----|--5--5-------5----------------------8p=5-|
|----------------------------------|-----------------------------------------|


  C5             N.C.                     D5                    F5    C5G5
                                                                    ~~
                       |----3----|         |---3---|  |---3---|
   Q.        +E   E    E    E    E    E    E  E    E  E  E    E  E  Q      E
|---------------------------------------|---------------------------------20-|
|-19b20=====(19)r19---18---18---16------|-16-18p==16----16---------16--------|
|------------------------------------18-|------------18------17h18-----------|
|---------------------------------------|------------------------------------|
|---------------------------------------|------------------------------------|
|---------------------------------------|------------------------------------|
|
|                                                                |--3---|
|  E     Q    E   S S  S S    S    S  E    E    Q          E     Q    Q Q
|---------------------------------------|------------------------------------|
|---------------------------------------|------------------------------------|
|-----------------3h5p=3----------------|------------------------5------7----|
|--5-----5----5----------5p===3---------|--7----7----------7-----3----5-5----|
|--3-----3----3--------------------5p=3-|--5----5----------5----------3------|
|---------------------------------------|------------------------------------|


  D5                    N.C.
   |---3---|  |---3---|  |----3----|    |----3----|
   E  E    E  E  E    E  E    E    E    E    E    E
|-22p20p==19-20p19p==17-----------------------------|
|-----------------------22p==20p==19---20p==19p==17-|
|---------------------------------------------------|
|---------------------------------------------------|
|---------------------------------------------------|
|---------------------------------------------------|
|
|  E    Q          E     S S    S    S  S S    E
|---------------------------------------------------|
|---------------------------------------------------|
|------------------------5h7p===5-------------------|
|--7----7----------7-----------------7p=5-----------|
|--5----5----------5----------------------8p===5----|
|---------------------------------------------------|


  D5                    N.C.
   |---3---|  |---3---|  |----3----|    |----3----|
   E  E    E  E  E    E  E    E    E    E    E    E
|---------------------------------------------------|
|---------------------------------------------------|
|-21p19p==17-19p17p==15-----------------------------|
|-----------------------19p==17p==15---17p==15p==14-|
|---------------------------------------------------|
|---------------------------------------------------|
|
|  E    Q          E     S S    S    S  S S    E
|---------------------------------------------------|
|---------------------------------------------------|
|------------------------5h7p===5-------------------|
|--7----7----------7-----------------7p=5-----------|
|--5----5----------5----------------------8p===5----|
|---------------------------------------------------|


  C5                    N.C.
   |---3---|  |---3---|  |----3----|    |----3----|
   E  E    E  E  E    E  E    E    E    E    E    E
|---------------------------------------------------|
|---------------------------------------------------|
|---------------------------------------------------|
|---------------------------------------------------|
|-20p19p==17-19p17p==15-17p==15p==14----------------|
|--------------------------------------19p==17p==15-|
|
|  E    Q          E     S S    S    S  S S    E
|---------------------------------------------------|
|---------------------------------------------------|
|------------------------3h5p===3-------------------|
|--5----5----------5-----------------5p=3-----------|
|--3----3----------3----------------------5p===3----|
|---------------------------------------------------|


  D5                      F5       C5         G5
   S  S  S  S  S  S  S  S  S  S  S    S  S  S    S  S
|------------------------------------------15---17-19--|
|---------------------------------------17-------------|
|----------------------------15-17---19----------------|
|-------------------15-17-19---------------------------|
|----------15-17-19------------------------------------|
|-15-17-19---------------------------------------------|
|
|                          |--------3---------|
|  E     Q           E     Q       Q          Q
|------------------------------------------------------|
|------------------------------------------------------|
|--------------------------5------------------7--------|
|--7-----7-----------7-----3-------5----------5--------|
|--5-----5-----------5-------------3-------------------|
|------------------------------------------------------|


    D5     G#5    C5          D5
     Q      Q      S  S  S  S  S  S  S  S
||--20b22--20b22--20-19-17----------------|
||o------------------------20-19-17-------|
||----------------------------------19-17-|
||----------------------------------------|
||o---------------------------------------|
||----------------------------------------|
|
|    Q      Q      Q           Q
||----------------------------------------|
||o---------------------------------------|
||----------------------------------------|
||---7-------------5-----------7----------|
||o--5------6------3-----------5----------|
||----------4-----------------------------|


  G#5
   S  S  S  S  S  S  S  S  S  S  S  S  S  S  S  S  3x
|----------------------------------------15-17-19--||
|-------------------------------------17----------o||
|----------------------------15-17-19--------------||
|-------------------15-17-19-----------------------||
|----------15-17-19-------------------------------o||
|-15-17-19-----------------------------------------||
|
|  S  S  S  S  S  S  S  S  S  S  S  S  S  S  S  S  3x
|--------------------------------------------------||
|-------------------------------------------------o||
|--------------------------------------------------||
|--------------------------------------------------||
|-------------------------------------------------o||
|--4--4--4--4--4--4--4--4--4--4--4--4--4--4--4--4--||


  D5     G#5    C5          D5
   Q      Q      S  S  S  S  S  S  S  S
|-20b22--20b22--20-19-17----------------|
|------------------------20-19-17-------|
|---------------------------------19-17-|
|---------------------------------------|
|---------------------------------------|
|---------------------------------------|
|
|  Q      Q      Q           Q
|---------------------------------------|
|---------------------------------------|
|---------------------------------------|
|--7-------------5-----------7----------|
|--5------6------3-----------5----------|
|---------4-----------------------------|


  G#5
   S  S  S  S  S  S  S  S  S  S  S  S  Q
|-----------------------------------------------|
|-------------------------------------19\-------|
|----------------------------15-17-19-----------|
|-------------------15-17-19--------------------|
|----------15-17-19-----------------------------|
|-15-17-19--------------------------------------|
|
|  S  S  S  S  S  S  S  S  S  S  S  S  S  S S S
|-----------------------------------------------|
|-----------------------------------------------|
|-----------------------------------------------|
|-----------------------------------------------|
|-----------------------------------------------|
|--4--4--4--4--4--4--4--4--4--4--4--4--4--4-4-4-|


   Outro
    N.C.
    S S S S S S S S S S S S S S S S   S S S S S S S S S S S S S S S S   3x
||----------------------------------|-----------------------------------||
||o---------------------------------|----------------------------------o||
||----------------------------------|-----------------------------------||
||--0-0-7-7-0-5-5-0-8-8-0-7-7-0-5-0-|-0-0-7-7-0-5-5-0-8-8-0-7-7-0-5-0---||
||o---------------------------------|----------------------------------o||
||----------------------------------|-----------------------------------||


                                      D5
  S S S S S S S S S S S S S S S S     W          W
|---------------------------------||-----------|-------||
|---------------------------------||o----------|------o||
|---------------------------------||-----------|-------||
|-0-0-7-7-0-5-5-0-8-8-0-7-7-0-5-0-||--7--------|-7-----||
|---------------------------------||o-5--------|-5----o||
|---------------------------------||-----------|-------||


    S S S S S S S S S S S S S S S S   S S S S S S S S S S S S S S S S
||----------------------------------|-----------------------------------||
||o---------------------------------|----------------------------------o||
||----------------------------------|-----------------------------------||
||----------------------------------|-----------------------------------||
||o-5-5-5-5-5-5-5-5-5-5-5-5-5-5-5-5-|-5-5-5-5-5-5-5-5-5-5-5-5-5-5-5-5--o||
||----------------------------------|-----------------------------------||


  W          +W           +W           Q  H.
|----------|------------|------------|----------*|
|----------|------------|------------|----------*|
|----------|------------|------------|----------*|
|-7--------|-(7)--------|-(7)--------|-7--7\----*|
|-5--------|-(5)--------|-(5)--------|-5--5\----*|
|----------|------------|------------|----------*|



Duration Legend
---------------
W - whole; H - half; Q - quarter; E - 8th; S - 16th; T - 32nd; X - 64th; a - acciaccatura
+ - note tied to previous; . - note dotted; .. - note double dotted
Uncapitalized letters represent notes that are staccato (1/2 duration)
Irregular groupings are notated above the duration line
Duration letters will always appear directly above the note/fret number it represents the
duration for.  Duration letters with no fret number below them represent rests.  Multi-
bar rests are notated in the form Wxn, where n is the number of bars to rest for.  Low
melody durations appear below the staff

Tablature Legend
----------------
 h   - hammer-on
 p   - pull-off
 b   - bend
 pb  - pre-bend
 r   - bend release (if no number after the r, then release immediately)
 /\  - slide into or out of (from/to "nowhere")
 s   - legato slide
 S   - shift slide
 - natural harmonic
[n]  - artificial harmonic
n(n) - tapped harmonic
 ~   - vibrato
 tr  - trill
 T   - tap
 TP  - trem. picking
 PM  - palm muting
\n/  - tremolo bar dip; n = amount to dip
 \n  - tremolo bar down
 n/  - tremolo bar up
/n\  - tremolo bar inverted dip
 =   - hold bend; also acts as connecting device for hammers/pulls
 <> - volume swell (louder/softer)
 x   - on rhythm slash represents muted slash
 o   - on rhythm slash represents single note slash

Misc Legend
-----------
 |  - bar
||  - double bar
||o - repeat start
o|| - repeat end
*|  - double bar (ending)
 :  - bar (freetime)
 $  - Segno
 &  - Coda
Tempo markers -  = BPM(8/16=s8/s16), where s8 = swing 8ths, s16 = swing 16ths

comments
We did not receive enough feedback on this tab! Please rate:
print report bad tab
1 2 3 4 5
I want to post or [tab]
guest
You may want to rate the tab now too:
select rating
Please do not post tabs as comments. Select "correction" instead!