Oops, an error
Loading. Please wait.

Recipe For Hate War Horse Tab

1,303 views 1 this week
no commentswrite comment
1 2 3 4 5
excellent!
x 1
Autoscroll
+/-
esc
set tempo
stop
Contributor
Hey! There's an official Ultimate Guitar app which is ideal
for learning songs when you're away from computer. Get the app
WARNING: You are trying to view
                                    content from Ultimate-Guitar.com
                                    in an unauthorized application,
                                    which is prohibited.

                                    Please use an official Ultimate
                                    Guitar Tabs application for iPhone,
                                    iPad or Android to access legitimate
                                    chords, guitar, bass, and drum tabs
                                    from Ultimate-Guitar.com database.

                                    Type "ultimate guitar tabs" in Apple
                                    App Store's or Android Market's
                                    search to find the application.
Band- Megadeth
Song- Recipe For Hate War Horse

Tuning: Standard

Riff 1                                  x3
e|---------------------------------------|
B|---------------------------------------|
G|---------------------------------------|
D|---------------------------------------|
A|-88-----88-----88---99-----99-----99---|
E|---6666---6666---66---7777---7777---77-|
   ****** ****** **** ****** ****** ****
e|--------------------------------|
B|--------------------------------|
G|--------------------------------|
D|--------------------------------|
A|-10-10------10-10------10-10----|
E|-------8888-------8888-------88-|
    *  * ****  *  * ****  *  * **
e|------------------------------------------|
B|------------------------------------------|
G|------------------------------------------|
D|------------------------------------------|
A|-11-11------12-12-------------13-13-------|
E|-------9999-------10-10-10-10-------11-11-|
    *  * ****  *  *  *  *  *  *  *  *  *  *

e|----------------|
B|----------------|
G|----------------|
D|----------------|
A|--2-------------|
E|--0--[let ring]-|


Riff 1a (Bass guitar arranged for guitar)
e|----------------------------------------|
B|---3-----------------1------------------|
G|-----4-------3-4-3-----2--------4-----7-|
D|-------5---4-------------3--1h2---4h5---|
A|----------------------------------------|
E|-0-------0---------0--------------------|
   "Each day..."


Riff 2
Guitar 1
e|-----10------9------8----------7------10-|
B|-/12-----/11----/10---10\--5/6----7/8----|
G|-----------------------------------------|
D|-----------------------------------------|
A|-----------------------------------------|
E|-----------------------------------------|
  "In a broken mold they made me..."

Final time
e|-----10------9------8------0----7-8-|
B|-/12-----/11----/10---10\-----------|
G|------------------------------------|
D|------------------------------------|
A|------------------------------------|
E|------------------------------------|
  "...my measly brain mad..."

Guitar 2
e|---------------------------------------------|
B|---------------------------------------------|
G|---------7-------11-9--------5---------------|
D|-------9-------8-----------7-------9------12-|
A|---/10------/9----------/8-----6/7----9/10---|
E|-0--------------------0----------------------|

Final time
e|---------------------------------------|
B|---------------------------------------|
G|---------7-------11-9--------5---------|
D|-------9-------8-----------7------9-10-|
A|---/10------/9----------/8-----7-------|
E|-0--------------------0----------------|



Riff 3 (Solo Rhythm)                     x3
e|----------------------------------------|
B|----------------------------------------|
G|-----5-4------5-4------5-4--------------|
D|---5--------4--------3------------------|
A|-0--------0--------0--------------------|
E|----------------------------0--0--3-2-0-|
                              *  *  * * *
e|-------------------------------|
B|-------------------------------|
G|-----5-4------5-4------5-4-----|
D|---5--------4--------3---------|
A|-0--------0--------0-----------|
E|----------------------------0--|


Solo (Acoustic) (Pitrelli)
e|-12-13-12-----------------------------|
B|-----------15--13--12-13--------------|
G|-------------------------14--13--14~~-|
D|--------------------------------------|
A|--------------------------------------|
E|--------------------------------------|

e|------------5-7-8-7-5---5-|
B|----------5-----------8---|
G|--------5-----------------|
D|----4-7-------------------|
A|-/5-----------------------|
E|--------------------------|

e|----0---------------------------|
B|-0-----0--0--0--0----0--0--0--0-|
G|-2-----4--5--7--5\4--2--0--2--1-|
D|---------------------------3--2-|
A|--------------------------------|
E|--------------------------------|

e|---------------------------1-0---------------|
B|-----------------0-1p0---------3-1-0---------|
G|-2-222-1-2~----2-------2-1-----------2-1-----|
D|-------------2---------------------------3-2-|
A|---------------------------------------------|
E|---------------------------------------------|

e|-----------------------0-3-1-0---0----5--|
B|---------------0-----3---------3------5--|
G|-----------0-2---4-5------------------5--|
D|-----0-2-3----------------------------5--|
A|-2/3----------------------------------5--|
E|--------------------------------------5--|
                                        h.
End Solo


Play Riff 2   "Dark clouds on the horizon..."
Play Riff 3   Solo Rhythm (leave off very last note)

Solo (Distortion) (Pitrelli)
e|--------12h13-12~----------------------------|
B|------------------15--13--12-13--------------|
G|--------------------------------14~-13--14~~-|
D|---------------------------------------------|
A|---------------------------------------------|
E|-12/16\--------------------------------------|

e|-------------12-17p12---------------|
B|-----------13--------13-------------|
G|-14------14------------14-----------|
D|-------14----------------14---------|
A|-----12--------------------15-12~~\-|
E|------------------------------------|

e|-------------------10-----------------------------------|
B|----10---12---13--------13----10----12----10h12p10-9~~\-|
G|-/9----9----9----9----9----10----10----10---------------|
D|--------------------------------------------------------|
A|--------------------------------------------------------|
E|--------------------------------------------------------|

e|----------------------------------------|
B|--------------------------12-13p12------|
G|-14--14-14-14-13-14~----14--------14p13-|
D|----------------------14----------------|
A|----------------------------------------|
E|----------------------------------------|

e|-12h13--12---------------------------|
B|------15--15p13-12h13--12------------|
G|---------------------14--14-13-------|
D|-------------------------------14~~\-|
A|-------------------------------------|
E|-------------------------------------|

e|-------------------------------|
B|-------------------------------|
G|----------------------12/14-16-|
D|-------------12-14-15----------|
A|-12~--14--15-------------------|
E|-------------------------------|

e|------------------------------17-19-20-22-22-22b24-|
B|----------------------17/18-20---------------------|
G|-17-16--------16-17-19-----------------------------|
D|------19-18-19-------------------------------------|
A|---------------------------------------------------|
E|---------------------------------------------------|

e|-(24)----(24)----19h24p19~~~~*\-|
B|--------------------------------| This bar blends into
G|--------------------------------| next riff.
D|--------------------------------|
A|--------------------------------|
E|--------------------------------|

End Solo


Riff 4
e|-----------------------------------------------|
B|-----------------------------------------------|
G|-----------------------------------------------|
D|-----------------------------------------------|
A|-----------------------------------------------|
E|-0-0-3-2-0--0-0-5-3-0--0-0-3-2-0--5-3-0--3-2-0-|
   * * * * *  * * * * *  * * * * *  * * *  * * *

Last time
e|-------------------------------------------|
B|-------------------------------------------|
G|-------------------------------------------|
D|-------------------------------------------|
A|-------------------------------------------|
E|-0-0-3-2-0--0-0-5-3-0--0-0-3-2-0--5-3-0--3-|
   * * * * *  * * * * *  * * * * *  * * *  *


Riff 5
e|-------------------------------------|
B|-------------------------------------|
G|-------------------------------------|
D|-------------------------------------|
A|-4----------2---4------------2-----2-|
E|-2--2-2-0h3---0-2--2-2-2-0h3---0h3---|
      * *            * * *
  "I'm feeling quite invisible..."

Riff 6
e|---------------------------------|
B|---------------------------------|
G|---------------------------------|
D|---------------------------------|
A|---------------------------/8-/8-|
E|-0-0-320-0-0-530-0-0-320-0-/6-/6-|
   * * *** * * *** * * *** *
  "The truth taunts me..."


Solo over Riff 6 (wah pedal) (Mustaine)
e|------------------------------------------------|
B|------------------------------------------------|
G|------------------------------------10~-9-------|
D|-------------6----7~-6--------10-9--------10~-9-|
A|-7~-5--8~-7----8--------8~-7--------------------|
E|------------------------------------------------|

e|--------------------------------------------|
B|--------10~-9-------------------------------|
G|-10-9----------10~-9------------------------|
D|----------------------10-9--11~--(11)b12~~~-|
A|--------------------------------------------|
E|--------------------------------------------|

End Solo


Play Riff 5   "I see the Earth below me..."
Play Riff 6   "Does someone, somewhere..."


Solo over Riff 6 (Pitrelli)
e|--------------------------------|
B|-[11]12r11----(11)b12~--{11}~~--|
G|--------------------------------|
D|--------------------------------|
A|--------------------------------|
E|--------------------------------|

e|------------------------------------------------------|
B|---------------------------------------------------12-|
G|------------------------------12-14p12----12-14h15----|
D|-----------10-10--------10h12----------14-------------|
A|-10-10-12--------12--12-------------------------------|
E|------------------------------------------------------|

e|-------------------------12------------------------|
B|----------------12h14h15----15-14p12/14-17b19~~~~--|
G|-15p14p12-14h15------------------------------------|
D|---------------------------------------------------|
A|---------------------------------------------------|
E|---------------------------------------------------|

End Solo


Play Riff 5   "Sentenced to walk..."
Play Riff 6   "I can't believe..."


Solo over Riff 6 (Mustaine)
e|--------------------------------------|
B|-7h8-10p7--10p7--10p7--10p7--10p7-----|
G|---------9-----9-----9-----9------9p7-|
D|--------------------------------------|
A|--------------------------------------|
E|--------------------------------------|

e|----------------------------|
B|-9p7--9p7--9p7--9p7--9p7----|
G|----9----9----9----9----9p7-|
D|----------------------------|
A|----------------------------|
E|----------------------------|

e|----------------------------------|
B|-10p7--10p7--10p7--10p7--10p7-----|
G|-----9-----9-----9-----9------9p7-|
D|----------------------------------|
A|----------------------------------|
E|----------------------------------|

e|----------------------------------|
B|-9p7--9p7--9p7--9p7--9p7----------|
G|----9----9----9----9----9p7--6~~~-|
D|----------------------------------|
A|----------------------------------|
E|----------------------------------|

End Solo


Play Riff 5   "I'm left riding a Warhorse..."


For the next section, Riffs 7 and 8 alternate to
provide the solo rhythm.

Riff 7 (Solo Rhythm)
e|---------------------------------|
B|---------------------------------|
G|---------------------------------|
D|---------------------------------|
A|-9\7---5-----4-----5-----4---5---|
E|-7\5-0-3-0-0-2-0-0-3-0-0-2-0-3-0-|
       *   * *   * *   * *   *   *
e|---------------------------------|
B|---------------------------------|
G|---------------------------------|
D|---------------------------------|
A|-9\7---5-----4-----3-------------|
E|-7\5-0-3-0-0-2-0-0-1-0-0-0-0-0-0-|
       *   * *   * *   * * * * * *

Riff 8 (Solo Rhythm)
e|----------------------------|
B|----------------------------|
G|----------------------------|
D|----------------------------|
A|-4-4-----------4-4----------|
E|-2-2--222-222--2-2--222-222-|
        *** ***       *** ***
e|------------------------|
B|------------------------|
G|------------------------|
D|------------------------|
A|-5-5-----------2-2--5-5-|
E|-3-3--333-333--0-0--3-3-|
        *** ***

Solo (Mustaine)
e|---------------------------------------------------|
B|-15tr12--------------------------------------------|
G|--------[use whammy bar to dive down 1 1/2 steps]--|
D|--------[then release back to normal            ]--|
A|---------------------------------------------------|
E|---------------------------------------------------|

e|-------------------12-12---------12-----13-------|
B|-15p12h15-15b17-------15b17~~-------15--16b18~~--|
G|-------------------------------------------------|
D|-------------------------------------------------|
A|-------------------------------------------------|
E|-------------------------------------------------|

e|-17b18--17b19--17b19----17b19--17b19r17-|
B|----------------------------------------|
G|----------------------------------------|
D|----------------------------------------|
A|----------------------------------------|
E|----------------------------------------|

e|-17p15--15\12-12---12-----------------------------------------|
B|------17--------15----15-12-15p12-12-----------------12h15p12-|
G|------------------------------------15p14p12-12h14h15---------|
D|--------------------------------------------------------------|
A|--------------------------------------------------------------|
E|--------------------------------------------------------------|

e|----------------------------------------------|
B|----------------------------------------------|
G|-15p14p12-14-15-14p12-------------------------|
D|---------------------15-14-16--------(16)d14*-|
A|----------------------------------------------|
E|----------------------------------------------|


#2 (Pitrelli)
e|----------------------------------------------------|
B|-10h12-9-10-9-------------10------------------------|
G|--------------11-9-9-9--9----9----------------------|
D|-------------------------------11-9-12-10-9----11-9-|
A|--------------------------------------------12------|
E|----------------------------------------------------|

e|----------------------------------------------9-9----|
B|--------------------------------------9-10-12-----12-|
G|----------------------------------9-11---------------|
D|---------------------------9-11-12-------------------|
A|-12-11-12-11-9--11--9-11-12--------------------------|
E|--------------12--12---------------------------------|

e|-7----------------------------------14----------------|
B|---10p7-----8-----10-----14-----/14----17p14----14-14-|
G|--------/11---/12----/16----16\--------------16-------|
D|------------------------------------------------------|
A|------------------------------------------------------|
E|------------------------------------------------------|

e|-------------------14-------------------------------|
B|-17b19----(19)b20----17p14-19b23----(23)r19-17b19~~-|
G|----------------------------------------------------|
D|----------------------------------------------------|
A|----------------------------------------------------|
E|----------------------------------------------------|

e|-18p14---17p14-17p14--14--------14-----------------------|
B|------17------------17--17p14----------------------------|
G|-----------------------------17---17p16p14---16----14b16-|
D|------------------------------------------16----16--a----|
A|---------------------------------------------------------|
E|---------------------------------------------------------|

e|-----------------------------17-17-19-|
B|---------------------17h18h19---------|
G|-------------14-16/18-----------------|
D|-16-14h15h17--------------------------|
A|--------------------------------------|
E|--------------------------------------|


#3
Guitar 1                          x2
e|-9p5---5-9p5-9p5---5-9p5-9p5---5-|
B|-----7-----------7-----------7---|
G|---------------------------------|
D|---------------------------------|
A|---------------------------------|
E|---------------------------------|

e|-10p6---6-10p6-10p6---6-10p6-10p6---|
B|------8-------------8-------------8-|
G|------------------------------------|
D|------------------------------------|
A|------------------------------------|
E|------------------------------------|

1st ending
e|------------------------------8-11-10-8----|
B|---------8-11-10-8----8-10-11-----------10-|
G|-8-10-11-----------10----------------------|
D|-------------------------------------------|
A|-------------------------------------------|
E|-------------------------------------------|

2nd ending
e|-10-8-6----8-6------6---------------|
B|--------10-----10-8---10-8---10-7-9-|
G|---------------------------7--------|
D|------------------------------------|
A|------------------------------------|
E|------------------------------------|


Guitar 2                               x2
e|--------------------------------------|
B|-10p7---7-10p7-10p7---7-10p7-10p7---7-|
G|------9-------------9-------------9---|
D|--------------------------------------|
A|--------------------------------------|
E|--------------------------------------|

e|---------------------------------------|
B|-11p8----8-11p8-11p8----8-11p8-11p8----|
G|------10-------------10-------------10-|
D|---------------------------------------|
A|---------------------------------------|
E|---------------------------------------|

1st ending
e|----------------------------------------|
B|----------------------------8-11-10-8---|
G|---------7-10-9-7----7-9-10-----------9-|
D|-8-10-11----------10--------------------|
A|----------------------------------------|
E|----------------------------------------|

2nd ending
e|-----------------------------------------|
B|-11-10-8----10-8------8------------------|
G|---------10------10-9---10-9-7-10-9-7----|
D|--------------------------------------10-|
A|-----------------------------------------|
E|-----------------------------------------|


#4 (Mustaine)
e|---------------------------------------|
B|-15p12--15p12--15p12--15p12--17p12--12-|
G|------15-----15-----15-----15-----15---|
D|---------------------------------------|
A|---------------------------------------|
E|---------------------------------------|

e|--------------------------------------------|
B|-15p12--15p12--16p12-15-16p12--12-17p12--12-|
G|------15-----15--------------15--------15---|
D|--------------------------------------------|
A|--------------------------------------------|
E|--------------------------------------------|

e|----------------------------------------------|
B|-15p12--12-17p12---15p12-12-17p12-15-17p12-15-|
G|------15--------15----------------------------|
D|----------------------------------------------|
A|----------------------------------------------|
E|----------------------------------------------|

e|-17-12----------------------------------------|
B|-------15p12----12-15p12----------------------|
G|-------------14----------14-15-15p14p12-12-12-|
D|----------------------------------------------|
A|----------------------------------------------|
E|----------------------------------------------|

e|-------------------------------------|
B|-------------------------------------|
G|-14b16----{14}-----------12-14-14b15-|
D|----------------12-13-14-------------|
A|-------------------------------------|
E|-------------------------------------|

e|----------------------------------------------|
B|----------------------------------------------|
G|-[14]16--[14]16-[14]16-[14]16-[14]16--12tr14--|
D|----------------------------------------------|
A|----------------------------------------------|
E|----------------------------------------------|

e|------------------------------------|
B|------------------------------------|
G|-12tr14----(12tr14)-----------------|
D|-------[use whammy bar during     ]-|
A|-------[second part of this trill ]-|
E|------------------------------------|

e|----------------------------------------------------|
B|-12-------12------12~--14-14----12--14-14--12-12----|
G|-12-------12------12~--14-14----12--14-14--12-12----|
D|---------------14--------------------------------14-|
A|------14--------------------------------------------|
E|----------------------------------------------------|

e|--------------------------------------------|
B|--------------------------------------------|
G|-14b16tm---------------------------14tm--12-|
D|-[keep tremolo picking while you ]----------|
A|-[slowly release the bend ]-----------------|
E|--------------------------------------------|

e|--------------------------------------|
B|--------------------------------------|
G|--------------------------------------|
D|-------------------------14-17p14-----|
A|-------13-16p13----13-16----------16--|
E|-12-15----------15--------------------|

e|-------------------------------------------|
B|-------------------------17-20p17----17~~~-|
G|-------15-18p15----15-18----------18-------|
D|-14-17----------17-------------------------|
A|-------------------------------------------|
E|-------------------------------------------|


#5 (Pitrelli)
e|---------------------------------------------------|
B|-----5--5----[5]7--[5]7--[5]7--(7)r5---------------|
G|-----4--4b6-----4-----4-----4--(4)---(4)p2-4p2~-4~-|
D|---------------------------------------------------|
A|---------------------------------------------------|
E|-X\\-----------------------------------------------|

e|---------------------------------------|
B|---------------------------------------|
G|-------2^---4----4-3b5r3b5r3b5r3-------|
D|-4-2-4-a--4----4---a-------------4-2---|
A|-------------------------------------4-|
E|---------------------------------------|
   * * *
e|-----------7-6------------------9h10----9------------|
B|---------5--------------9-10-12------12---12-10-9----|
G|---4-3/6--------9-10-11---------------------------11-|
D|-2---------------------------------------------------|
A|-----------------------------------------------------|
E|-----------------------------------------------------|

e|----------------------------------------------|
B|-10p9-----------------------------------------|
G|------11-9------------------------------------|
D|-----------12p11-9----11-9--------------------|
A|-------------------12------12-11-10-10-9-9-10-|
E|----------------------------------------------|


#6
Guitar 1                                          x2
e|-21p17----17-21p17-21p17----17-21p17-21p17----17-|
B|-------19----------------19----------------19----|
G|-------------------------------------------------|
D|-------------------------------------------------|
A|-------------------------------------------------|
E|-------------------------------------------------|

e|-22p18----22p18-22p18----18-22p18-22p18----|
B|-------20-------------20----------------20-|
G|-------------------------------------------|
D|-------------------------------------------|
A|-------------------------------------------|
E|-------------------------------------------|

1st ending
e|----------------------------------20-23-22-20----|
B|----------20-23-22-20----20-22-23-------------22-|
G|-20-22-23-------------22-------------------------|
D|-------------------------------------------------|
A|-------------------------------------------------|
E|-------------------------------------------------|

2nd ending
e|-22-20-18----20-18-------18---------------------------|
B|----------22-------22-20----22-20-18-22-20-19---------|
G|----------------------------------------------21-19~~-|
D|------------------------------------------------------|
A|------------------------------------------------------|
E|------------------------------------------------------|

Guitar 2                                          x2
e|-------------------------------------------------|
B|-22p19----19-22p19-22p19----19-22p19-22p19----19-|
G|-------21----------------21----------------21----|
D|-------------------------------------------------|
A|-------------------------------------------------|
E|-------------------------------------------------|

e|----------------------------------------------|
B|-23p20----20-23p20-23p20----20-23p20-23p20----|
G|-------22----------------20----------------22-|
D|----------------------------------------------|
A|----------------------------------------------|
E|----------------------------------------------|

1st ending
e|-------------------------------------------------|
B|----------------------------------20-23-22-20----|
G|----------19-22-21-19----19-21-22-------------21-|
D|-20-22-23-------------22-------------------------|
A|-------------------------------------------------|
E|-------------------------------------------------|

2nd ending
e|------------------------------------------------------|
B|-23-22-20----22-20-------20---------------------------|
G|----------22-------22-21----22-19-17-22-21-19---------|
D|----------------------------------------------22-20~~-|
A|------------------------------------------------------|
E|------------------------------------------------------|

End Solo


Ending:

Play Riff 1  and end with this chord, fading out:

e|-----------------------------|
B|-----------------------------|
G|-----------------------------|
D|-----------------------------|
A|--2--------2--------2--------|
E|--0--------0--------0----...-|



Notation:

10^        = bend a quarter step.
10b11      = bend a half step.
10b12      = bend a full step.
10b12r10   = bend and release.
[10]12     = pre-bend.
[10]12r10  = pre-bend and release.
{14}       = pick the 14th fret while holding the most
             previous bend.
<17>       = touch the string above the 17th fret while
             previous note(s) is(are) still ringing.

10b13*     = tremolo bar bend, from the 10th fret to the 13th fret.
7d4*       = tremolo bar dive, from the 7th fret to the 4th fret.
12~*       = tremolo bar vibrato.

x   =  mute with fret-hand
*   =  palm mute
X\\ =  pick slide
h   =  hammer-on
p   =  pull-off
~   =  vibrato
t   =  finger tap
/   =  slide up
\   =  slide down
h.  =  natural harmonics
a   =  artificial harmonics
(9) =  ghost note
tm  =  trem picking
tr  =  trill
comments
We did not receive enough feedback on this tab! Please rate:
print report bad tab
1 2 3 4 5
I want to post or [tab]
guest
You may want to rate the tab now too:
select rating
Please do not post tabs as comments. Select "correction" instead!